  0
SECTION
  2
HEADER
  9
$ACADVER
  1
AC1009
  9
$EXTMIN
  10
 0.000000
  20
 0.000000
  30
 0.000000
  9
$EXTMAX
  10
 792.000000
  20
 612.000000
  30
 0.000000
  0
ENDSEC
  0
SECTION
  2
TABLES
  0
TABLE
  2
LAYER
  70
     2048
  0
LAYER
  2
0
  70
    0
  62
     7
  6
CONTINUOUS
  0
LAYER
   2
C7
  70
     64
  62
7
  6
CONTINUOUS
  0
LAYER
   2
C18
  70
     64
  62
18
  6
CONTINUOUS
  0
ENDTAB
  0
ENDSEC
  0
SECTION
  2
ENTITIES
  0
POLYLINE
  8
C7
  66
1
  10
0.000000
  20
612.000000
  0
VERTEX
  8
C7
  10
0.000000
  20
612.000000
  0
SEQEND
  8
C7
  0
POLYLINE
  8
C7
  66
1
  10
0.000000
  20
612.000000
  0
VERTEX
  8
C7
  10
0.000000
  20
612.000000
  0
VERTEX
  8
C7
  10
0.000000
  20
0.000000
  0
VERTEX
  8
C7
  10
792.000000
  20
0.000000
  0
VERTEX
  8
C7
  10
792.000000
  20
612.000000
  0
VERTEX
  8
C7
  10
0.000000
  20
612.000000
  0
SEQEND
  8
C7
  0
POLYLINE
  8
C7
  66
1
  10
417.000000
  20
535.000000
  0
VERTEX
  8
C7
  10
417.000000
  20
535.000000
  0
VERTEX
  8
C7
  10
417.000000
  20
524.000000
  0
VERTEX
  8
C7
  10
419.000000
  20
524.000000
  0
VERTEX
  8
C7
  10
419.000000
  20
528.000000
  0
VERTEX
  8
C7
  10
424.000000
  20
528.000000
  0
VERTEX
  8
C7
  10
424.000000
  20
531.000000
  0
VERTEX
  8
C7
  10
419.000000
  20
531.000000
  0
VERTEX
  8
C7
  10
419.000000
  20
533.000000
  0
VERTEX
  8
C7
  10
425.000000
  20
533.000000
  0
VERTEX
  8
C7
  10
425.000000
  20
535.000000
  0
VERTEX
  8
C7
  10
417.000000
  20
535.000000
  0
SEQEND
  8
C7
  0
POLYLINE
  8
C7
  66
1
  10
457.000000
  20
535.000000
  0
VERTEX
  8
C7
  10
457.000000
  20
535.000000
  0
VERTEX
  8
C7
  10
455.000000
  20
531.000000
  0
VERTEX
  8
C7
  10
453.979100
  20
531.268400
  0
VERTEX
  8
C7
  10
452.998700
  20
531.481700
  0
VERTEX
  8
C7
  10
452.034400
  20
531.643100
  0
VERTEX
  8
C7
  10
451.061900
  20
531.755500
  0
VERTEX
  8
C7
  10
450.056900
  20
531.822200
  0
VERTEX
  8
C7
  10
448.995300
  20
531.846400
  0
VERTEX
  8
C7
  10
448.123800
  20
531.836500
  0
VERTEX
  8
C7
  10
447.316500
  20
531.801500
  0
VERTEX
  8
C7
  10
446.571900
  20
531.742400
  0
VERTEX
  8
C7
  10
445.888300
  20
531.660600
  0
VERTEX
  8
C7
  10
445.264100
  20
531.557200
  0
VERTEX
  8
C7
  10
444.697600
  20
531.433500
  0
VERTEX
  8
C7
  10
444.187300
  20
531.290700
  0
VERTEX
  8
C7
  10
443.731500
  20
531.130100
  0
VERTEX
  8
C7
  10
443.328600
  20
530.952800
  0
VERTEX
  8
C7
  10
442.976900
  20
530.760100
  0
VERTEX
  8
C7
  10
442.674800
  20
530.553300
  0
VERTEX
  8
C7
  10
442.420800
  20
530.333500
  0
VERTEX
  8
C7
  10
442.213100
  20
530.102000
  0
VERTEX
  8
C7
  10
442.050200
  20
529.860000
  0
VERTEX
  8
C7
  10
441.930400
  20
529.608700
  0
VERTEX
  8
C7
  10
441.852100
  20
529.349500
  0
VERTEX
  8
C7
  10
441.813700
  20
529.083400
  0
VERTEX
  8
C7
  10
441.813600
  20
528.811700
  0
VERTEX
  8
C7
  10
441.850000
  20
528.535700
  0
VERTEX
  8
C7
  10
441.921500
  20
528.256600
  0
VERTEX
  8
C7
  10
442.026300
  20
527.975700
  0
VERTEX
  8
C7
  10
442.162900
  20
527.694000
  0
VERTEX
  8
C7
  10
442.329600
  20
527.413000
  0
VERTEX
  8
C7
  10
442.524900
  20
527.133700
  0
VERTEX
  8
C7
  10
442.746900
  20
526.857500
  0
VERTEX
  8
C7
  10
442.994300
  20
526.585500
  0
VERTEX
  8
C7
  10
443.265200
  20
526.319000
  0
VERTEX
  8
C7
  10
443.558200
  20
526.059300
  0
VERTEX
  8
C7
  10
443.871500
  20
525.807500
  0
VERTEX
  8
C7
  10
444.203600
  20
525.564800
  0
VERTEX
  8
C7
  10
444.552800
  20
525.332600
  0
VERTEX
  8
C7
  10
444.917400
  20
525.112000
  0
VERTEX
  8
C7
  10
445.296000
  20
524.904300
  0
VERTEX
  8
C7
  10
445.686800
  20
524.710700
  0
VERTEX
  8
C7
  10
446.088200
  20
524.532300
  0
VERTEX
  8
C7
  10
446.498600
  20
524.370600
  0
VERTEX
  8
C7
  10
446.916400
  20
524.226600
  0
VERTEX
  8
C7
  10
447.339900
  20
524.101600
  0
VERTEX
  8
C7
  10
447.767500
  20
523.996900
  0
VERTEX
  8
C7
  10
448.197600
  20
523.913600
  0
VERTEX
  8
C7
  10
448.628600
  20
523.853000
  0
VERTEX
  8
C7
  10
449.058800
  20
523.816400
  0
VERTEX
  8
C7
  10
449.486600
  20
523.804900
  0
VERTEX
  8
C7
  10
449.910400
  20
523.819800
  0
VERTEX
  8
C7
  10
450.328600
  20
523.862300
  0
VERTEX
  8
C7
  10
450.739500
  20
523.933600
  0
VERTEX
  8
C7
  10
451.141600
  20
524.035000
  0
VERTEX
  8
C7
  10
451.533100
  20
524.167700
  0
VERTEX
  8
C7
  10
451.912500
  20
524.332900
  0
VERTEX
  8
C7
  10
452.278100
  20
524.531900
  0
VERTEX
  8
C7
  10
452.628300
  20
524.765900
  0
VERTEX
  8
C7
  10
452.961500
  20
525.036100
  0
VERTEX
  8
C7
  10
453.276000
  20
525.343700
  0
VERTEX
  8
C7
  10
453.570300
  20
525.690000
  0
VERTEX
  8
C7
  10
453.842700
  20
526.076200
  0
VERTEX
  8
C7
  10
454.091600
  20
526.503500
  0
VERTEX
  8
C7
  10
454.315300
  20
526.973200
  0
VERTEX
  8
C7
  10
454.512300
  20
527.486400
  0
VERTEX
  8
C7
  10
454.680900
  20
528.044500
  0
VERTEX
  8
C7
  10
454.819400
  20
528.648600
  0
VERTEX
  8
C7
  10
454.926300
  20
529.300000
  0
VERTEX
  8
C7
  10
455.000000
  20
530.000000
  0
VERTEX
  8
C7
  10
456.000000
  20
530.000000
  0
VERTEX
  8
C7
  10
455.993200
  20
528.855000
  0
VERTEX
  8
C7
  10
455.995900
  20
527.817400
  0
VERTEX
  8
C7
  10
456.057900
  20
526.890100
  0
VERTEX
  8
C7
  10
456.228900
  20
526.075600
  0
VERTEX
  8
C7
  10
456.558900
  20
525.376600
  0
VERTEX
  8
C7
  10
457.097500
  20
524.795900
  0
VERTEX
  8
C7
  10
457.894600
  20
524.336100
  0
VERTEX
  8
C7
  10
459.000000
  20
524.000000
  0
VERTEX
  8
C7
  10
457.000000
  20
535.000000
  0
SEQEND
  8
C7
  0
POLYLINE
  8
C7
  66
1
  10
464.000000
  20
535.000000
  0
VERTEX
  8
C7
  10
464.000000
  20
535.000000
  0
VERTEX
  8
C7
  10
464.000000
  20
524.000000
  0
VERTEX
  8
C7
  10
466.000000
  20
524.000000
  0
VERTEX
  8
C7
  10
466.000000
  20
529.000000
  0
VERTEX
  8
C7
  10
470.000000
  20
529.000000
  0
VERTEX
  8
C7
  10
470.000000
  20
524.000000
  0
VERTEX
  8
C7
  10
473.000000
  20
526.000000
  0
VERTEX
  8
C7
  10
474.000000
  20
526.000000
  0
VERTEX
  8
C7
  10
474.584900
  20
525.361900
  0
VERTEX
  8
C7
  10
475.306500
  20
524.836900
  0
VERTEX
  8
C7
  10
476.137400
  20
524.425800
  0
VERTEX
  8
C7
  10
477.050000
  20
524.129600
  0
VERTEX
  8
C7
  10
478.017000
  20
523.949000
  0
VERTEX
  8
C7
  10
479.010800
  20
523.885100
  0
VERTEX
  8
C7
  10
480.004000
  20
523.938700
  0
VERTEX
  8
C7
  10
480.969100
  20
524.110600
  0
VERTEX
  8
C7
  10
481.878800
  20
524.401800
  0
VERTEX
  8
C7
  10
482.705400
  20
524.813200
  0
VERTEX
  8
C7
  10
483.421600
  20
525.345600
  0
VERTEX
  8
C7
  10
484.000000
  20
526.000000
  0
VERTEX
  8
C7
  10
485.000000
  20
526.000000
  0
VERTEX
  8
C7
  10
485.515600
  20
525.445200
  0
VERTEX
  8
C7
  10
486.006900
  20
524.980100
  0
VERTEX
  8
C7
  10
486.473900
  20
524.600600
  0
VERTEX
  8
C7
  10
486.916600
  20
524.302400
  0
VERTEX
  8
C7
  10
487.335000
  20
524.081000
  0
VERTEX
  8
C7
  10
487.729100
  20
523.932400
  0
VERTEX
  8
C7
  10
488.099000
  20
523.852300
  0
VERTEX
  8
C7
  10
488.444700
  20
523.836200
  0
VERTEX
  8
C7
  10
488.766300
  20
523.880100
  0
VERTEX
  8
C7
  10
489.063600
  20
523.979700
  0
VERTEX
  8
C7
  10
489.336900
  20
524.130600
  0
VERTEX
  8
C7
  10
489.586100
  20
524.328500
  0
VERTEX
  8
C7
  10
489.811200
  20
524.569400
  0
VERTEX
  8
C7
  10
490.012300
  20
524.848800
  0
VERTEX
  8
C7
  10
490.189300
  20
525.162500
  0
VERTEX
  8
C7
  10
490.342400
  20
525.506200
  0
VERTEX
  8
C7
  10
490.471500
  20
525.875700
  0
VERTEX
  8
C7
  10
490.576700
  20
526.266600
  0
VERTEX
  8
C7
  10
490.658000
  20
526.674900
  0
VERTEX
  8
C7
  10
490.715400
  20
527.096000
  0
VERTEX
  8
C7
  10
490.748900
  20
527.525900
  0
VERTEX
  8
C7
  10
490.758700
  20
527.960200
  0
VERTEX
  8
C7
  10
490.744600
  20
528.394700
  0
VERTEX
  8
C7
  10
490.706800
  20
528.825100
  0
VERTEX
  8
C7
  10
490.645200
  20
529.247100
  0
VERTEX
  8
C7
  10
490.559900
  20
529.656500
  0
VERTEX
  8
C7
  10
490.450900
  20
530.048900
  0
VERTEX
  8
C7
  10
490.318300
  20
530.420200
  0
VERTEX
  8
C7
  10
490.162000
  20
530.766100
  0
VERTEX
  8
C7
  10
489.982100
  20
531.082200
  0
VERTEX
  8
C7
  10
489.778600
  20
531.364400
  0
VERTEX
  8
C7
  10
489.551600
  20
531.608300
  0
VERTEX
  8
C7
  10
489.301100
  20
531.809800
  0
VERTEX
  8
C7
  10
489.027000
  20
531.964400
  0
VERTEX
  8
C7
  10
488.729500
  20
532.068100
  0
VERTEX
  8
C7
  10
488.408500
  20
532.116400
  0
VERTEX
  8
C7
  10
488.064200
  20
532.105100
  0
VERTEX
  8
C7
  10
487.696400
  20
532.030100
  0
VERTEX
  8
C7
  10
487.305200
  20
531.886900
  0
VERTEX
  8
C7
  10
486.890700
  20
531.671300
  0
VERTEX
  8
C7
  10
486.452900
  20
531.379100
  0
VERTEX
  8
C7
  10
485.991900
  20
531.006000
  0
VERTEX
  8
C7
  10
485.507500
  20
530.547700
  0
VERTEX
  8
C7
  10
485.000000
  20
530.000000
  0
VERTEX
  8
C7
  10
484.000000
  20
530.000000
  0
VERTEX
  8
C7
  10
484.000000
  20
535.000000
  0
VERTEX
  8
C7
  10
481.000000
  20
535.000000
  0
VERTEX
  8
C7
  10
481.000000
  20
531.000000
  0
VERTEX
  8
C7
  10
474.000000
  20
530.000000
  0
VERTEX
  8
C7
  10
473.000000
  20
530.000000
  0
VERTEX
  8
C7
  10
473.000000
  20
535.000000
  0
VERTEX
  8
C7
  10
470.000000
  20
535.000000
  0
VERTEX
  8
C7
  10
470.000000
  20
531.000000
  0
VERTEX
  8
C7
  10
466.000000
  20
531.000000
  0
VERTEX
  8
C7
  10
466.000000
  20
535.000000
  0
VERTEX
  8
C7
  10
464.000000
  20
535.000000
  0
SEQEND
  8
C7
  0
POLYLINE
  8
C7
  66
1
  10
496.000000
  20
535.000000
  0
VERTEX
  8
C7
  10
496.000000
  20
535.000000
  0
VERTEX
  8
C7
  10
496.000000
  20
524.000000
  0
VERTEX
  8
C7
  10
505.000000
  20
527.000000
  0
VERTEX
  8
C7
  10
506.000000
  20
527.000000
  0
VERTEX
  8
C7
  10
506.000000
  20
524.000000
  0
VERTEX
  8
C7
  10
517.000000
  20
524.000000
  0
VERTEX
  8
C7
  10
516.000000
  20
532.000000
  0
VERTEX
  8
C7
  10
496.000000
  20
535.000000
  0
SEQEND
  8
C7
  0
POLYLINE
  8
C7
  66
1
  10
506.000000
  20
535.000000
  0
VERTEX
  8
C7
  10
506.000000
  20
535.000000
  0
VERTEX
  8
C7
  10
506.000000
  20
533.000000
  0
VERTEX
  8
C7
  10
509.000000
  20
533.000000
  0
VERTEX
  8
C7
  10
509.000000
  20
535.000000
  0
VERTEX
  8
C7
  10
506.000000
  20
535.000000
  0
SEQEND
  8
C7
  0
POLYLINE
  8
C7
  66
1
  10
521.000000
  20
524.000000
  0
VERTEX
  8
C7
  10
521.000000
  20
524.000000
  0
VERTEX
  8
C7
  10
532.000000
  20
527.000000
  0
VERTEX
  8
C7
  10
532.670300
  20
526.092600
  0
VERTEX
  8
C7
  10
533.369200
  20
525.389200
  0
VERTEX
  8
C7
  10
534.096700
  20
524.880700
  0
VERTEX
  8
C7
  10
534.853000
  20
524.557700
  0
VERTEX
  8
C7
  10
535.638000
  20
524.411000
  0
VERTEX
  8
C7
  10
536.452100
  20
524.431500
  0
VERTEX
  8
C7
  10
537.295100
  20
524.609800
  0
VERTEX
  8
C7
  10
538.167400
  20
524.936800
  0
VERTEX
  8
C7
  10
539.069000
  20
525.403300
  0
VERTEX
  8
C7
  10
540.000000
  20
526.000000
  0
VERTEX
  8
C7
  10
540.567700
  20
525.593000
  0
VERTEX
  8
C7
  10
541.103800
  20
525.240500
  0
VERTEX
  8
C7
  10
541.609000
  20
524.940300
  0
VERTEX
  8
C7
  10
542.083700
  20
524.690600
  0
VERTEX
  8
C7
  10
542.528800
  20
524.489400
  0
VERTEX
  8
C7
  10
542.944900
  20
524.335000
  0
VERTEX
  8
C7
  10
543.332700
  20
524.225300
  0
VERTEX
  8
C7
  10
543.692700
  20
524.158400
  0
VERTEX
  8
C7
  10
544.025800
  20
524.132500
  0
VERTEX
  8
C7
  10
544.332400
  20
524.145600
  0
VERTEX
  8
C7
  10
544.613400
  20
524.195800
  0
VERTEX
  8
C7
  10
544.869400
  20
524.281200
  0
VERTEX
  8
C7
  10
545.100900
  20
524.399800
  0
VERTEX
  8
C7
  10
545.308800
  20
524.549900
  0
VERTEX
  8
C7
  10
545.493600
  20
524.729300
  0
VERTEX
  8
C7
  10
545.656100
  20
524.936400
  0
VERTEX
  8
C7
  10
545.796800
  20
525.169000
  0
VERTEX
  8
C7
  10
545.916500
  20
525.425400
  0
VERTEX
  8
C7
  10
546.015700
  20
525.703600
  0
VERTEX
  8
C7
  10
546.095300
  20
526.001700
  0
VERTEX
  8
C7
  10
546.155700
  20
526.317700
  0
VERTEX
  8
C7
  10
546.197800
  20
526.649900
  0
VERTEX
  8
C7
  10
546.222100
  20
526.996200
  0
VERTEX
  8
C7
  10
546.229300
  20
527.354700
  0
VERTEX
  8
C7
  10
546.220200
  20
527.723600
  0
VERTEX
  8
C7
  10
546.195200
  20
528.100900
  0
VERTEX
  8
C7
  10
546.155200
  20
528.484700
  0
VERTEX
  8
C7
  10
546.100800
  20
528.873100
  0
VERTEX
  8
C7
  10
546.032500
  20
529.264200
  0
VERTEX
  8
C7
  10
545.951200
  20
529.656000
  0
VERTEX
  8
C7
  10
545.857400
  20
530.046800
  0
VERTEX
  8
C7
  10
545.751900
  20
530.434400
  0
VERTEX
  8
C7
  10
545.635200
  20
530.817100
  0
VERTEX
  8
C7
  10
545.508100
  20
531.193000
  0
VERTEX
  8
C7
  10
545.371200
  20
531.560000
  0
VERTEX
  8
C7
  10
545.225200
  20
531.916300
  0
VERTEX
  8
C7
  10
545.070700
  20
532.260100
  0
VERTEX
  8
C7
  10
544.908400
  20
532.589300
  0
VERTEX
  8
C7
  10
544.739000
  20
532.902000
  0
VERTEX
  8
C7
  10
544.563100
  20
533.196400
  0
VERTEX
  8
C7
  10
544.381400
  20
533.470600
  0
VERTEX
  8
C7
  10
544.194500
  20
533.722600
  0
VERTEX
  8
C7
  10
544.003200
  20
533.950400
  0
VERTEX
  8
C7
  10
543.808000
  20
534.152300
  0
VERTEX
  8
C7
  10
543.609700
  20
534.326300
  0
VERTEX
  8
C7
  10
543.408900
  20
534.470500
  0
VERTEX
  8
C7
  10
543.206200
  20
534.582900
  0
VERTEX
  8
C7
  10
543.002300
  20
534.661700
  0
VERTEX
  8
C7
  10
542.798000
  20
534.704900
  0
VERTEX
  8
C7
  10
542.593800
  20
534.710600
  0
VERTEX
  8
C7
  10
542.390400
  20
534.677000
  0
VERTEX
  8
C7
  10
542.188500
  20
534.602100
  0
VERTEX
  8
C7
  10
541.988800
  20
534.483900
  0
VERTEX
  8
C7
  10
541.791800
  20
534.320700
  0
VERTEX
  8
C7
  10
541.598300
  20
534.110400
  0
VERTEX
  8
C7
  10
541.409000
  20
533.851100
  0
VERTEX
  8
C7
  10
541.224400
  20
533.541000
  0
VERTEX
  8
C7
  10
541.045300
  20
533.178200
  0
VERTEX
  8
C7
  10
540.872300
  20
532.760600
  0
VERTEX
  8
C7
  10
540.706100
  20
532.286500
  0
VERTEX
  8
C7
  10
540.547300
  20
531.753800
  0
VERTEX
  8
C7
  10
540.396700
  20
531.160800
  0
VERTEX
  8
C7
  10
540.254800
  20
530.505400
  0
VERTEX
  8
C7
  10
540.122300
  20
529.785700
  0
VERTEX
  8
C7
  10
540.000000
  20
529.000000
  0
VERTEX
  8
C7
  10
539.000000
  20
529.000000
  0
VERTEX
  8
C7
  10
538.890300
  20
530.000900
  0
VERTEX
  8
C7
  10
538.720100
  20
530.929600
  0
VERTEX
  8
C7
  10
538.486200
  20
531.771500
  0
VERTEX
  8
C7
  10
538.185500
  20
532.511600
  0
VERTEX
  8
C7
  10
537.814900
  20
533.135300
  0
VERTEX
  8
C7
  10
537.371200
  20
533.627700
  0
VERTEX
  8
C7
  10
536.851400
  20
533.974200
  0
VERTEX
  8
C7
  10
536.252200
  20
534.159900
  0
VERTEX
  8
C7
  10
535.570600
  20
534.170100
  0
VERTEX
  8
C7
  10
534.803400
  20
533.990000
  0
VERTEX
  8
C7
  10
533.947600
  20
533.604900
  0
VERTEX
  8
C7
  10
533.000000
  20
533.000000
  0
VERTEX
  8
C7
  10
531.873400
  20
533.422000
  0
VERTEX
  8
C7
  10
530.814600
  20
533.744800
  0
VERTEX
  8
C7
  10
529.821700
  20
533.971300
  0
VERTEX
  8
C7
  10
528.892800
  20
534.104500
  0
VERTEX
  8
C7
  10
528.026000
  20
534.147400
  0
VERTEX
  8
C7
  10
527.219600
  20
534.103200
  0
VERTEX
  8
C7
  10
526.471600
  20
533.974700
  0
VERTEX
  8
C7
  10
525.780200
  20
533.765100
  0
VERTEX
  8
C7
  10
525.143500
  20
533.477300
  0
VERTEX
  8
C7
  10
524.559700
  20
533.114400
  0
VERTEX
  8
C7
  10
524.026800
  20
532.679400
  0
VERTEX
  8
C7
  10
523.543200
  20
532.175300
  0
VERTEX
  8
C7
  10
523.106800
  20
531.605100
  0
VERTEX
  8
C7
  10
522.715800
  20
530.972000
  0
VERTEX
  8
C7
  10
522.368400
  20
530.278800
  0
VERTEX
  8
C7
  10
522.062600
  20
529.528600
  0
VERTEX
  8
C7
  10
521.796800
  20
528.724400
  0
VERTEX
  8
C7
  10
521.568900
  20
527.869300
  0
VERTEX
  8
C7
  10
521.377100
  20
526.966300
  0
VERTEX
  8
C7
  10
521.219600
  20
526.018400
  0
VERTEX
  8
C7
  10
521.094500
  20
525.028600
  0
VERTEX
  8
C7
  10
521.000000
  20
524.000000
  0
SEQEND
  8
C7
  0
POLYLINE
  8
C7
  66
1
  10
499.000000
  20
533.000000
  0
VERTEX
  8
C7
  10
499.000000
  20
533.000000
  0
VERTEX
  8
C7
  10
499.000000
  20
526.000000
  0
VERTEX
  8
C7
  10
499.979200
  20
526.390300
  0
VERTEX
  8
C7
  10
500.786600
  20
526.847300
  0
VERTEX
  8
C7
  10
501.424300
  20
527.359400
  0
VERTEX
  8
C7
  10
501.894900
  20
527.915200
  0
VERTEX
  8
C7
  10
502.200700
  20
528.503300
  0
VERTEX
  8
C7
  10
502.344100
  20
529.112300
  0
VERTEX
  8
C7
  10
502.327500
  20
529.730700
  0
VERTEX
  8
C7
  10
502.153100
  20
530.347200
  0
VERTEX
  8
C7
  10
501.823500
  20
530.950200
  0
VERTEX
  8
C7
  10
501.341000
  20
531.528500
  0
VERTEX
  8
C7
  10
500.708000
  20
532.070500
  0
VERTEX
  8
C7
  10
499.926900
  20
532.564800
  0
VERTEX
  8
C7
  10
499.000000
  20
533.000000
  0
SEQEND
  8
C7
  0
POLYLINE
  8
C7
  66
1
  10
526.000000
  20
533.000000
  0
VERTEX
  8
C7
  10
526.000000
  20
533.000000
  0
VERTEX
  8
C7
  10
523.000000
  20
528.000000
  0
VERTEX
  8
C7
  10
526.000000
  20
533.000000
  0
SEQEND
  8
C7
  0
POLYLINE
  8
C7
  66
1
  10
531.000000
  20
533.000000
  0
VERTEX
  8
C7
  10
531.000000
  20
533.000000
  0
VERTEX
  8
C7
  10
537.000000
  20
526.000000
  0
VERTEX
  8
C7
  10
537.000000
  20
532.000000
  0
VERTEX
  8
C7
  10
536.000000
  20
533.000000
  0
VERTEX
  8
C7
  10
531.000000
  20
533.000000
  0
SEQEND
  8
C7
  0
POLYLINE
  8
C7
  66
1
  10
543.000000
  20
533.000000
  0
VERTEX
  8
C7
  10
543.000000
  20
533.000000
  0
VERTEX
  8
C7
  10
543.000000
  20
531.000000
  0
VERTEX
  8
C7
  10
545.000000
  20
531.000000
  0
VERTEX
  8
C7
  10
543.000000
  20
533.000000
  0
SEQEND
  8
C7
  0
POLYLINE
  8
C7
  66
1
  10
204.000000
  20
527.000000
  0
VERTEX
  8
C7
  10
204.000000
  20
527.000000
  0
VERTEX
  8
C7
  10
208.000000
  20
530.000000
  0
VERTEX
  8
C7
  10
209.000000
  20
530.000000
  0
VERTEX
  8
C7
  10
204.000000
  20
518.000000
  0
VERTEX
  8
C7
  10
213.000000
  20
518.000000
  0
VERTEX
  8
C7
  10
213.000000
  20
520.000000
  0
VERTEX
  8
C7
  10
208.000000
  20
520.000000
  0
VERTEX
  8
C7
  10
208.704200
  20
520.750300
  0
VERTEX
  8
C7
  10
209.425500
  20
521.520000
  0
VERTEX
  8
C7
  10
210.137100
  20
522.314800
  0
VERTEX
  8
C7
  10
210.812300
  20
523.140700
  0
VERTEX
  8
C7
  10
211.424200
  20
524.003400
  0
VERTEX
  8
C7
  10
211.946100
  20
524.909000
  0
VERTEX
  8
C7
  10
212.351200
  20
525.863200
  0
VERTEX
  8
C7
  10
212.612600
  20
526.872000
  0
VERTEX
  8
C7
  10
212.703700
  20
527.941300
  0
SEQEND
  8
C7
  0
POLYLINE
  8
C7
  66
1
  10
212.703600
  20
527.941300
  0
VERTEX
  8
C7
  10
212.703600
  20
527.941300
  0
VERTEX
  8
C7
  10
212.641000
  20
528.894400
  0
VERTEX
  8
C7
  10
212.467100
  20
529.690800
  0
VERTEX
  8
C7
  10
212.193800
  20
530.338400
  0
VERTEX
  8
C7
  10
211.832900
  20
530.845200
  0
VERTEX
  8
C7
  10
211.396400
  20
531.219300
  0
VERTEX
  8
C7
  10
210.896100
  20
531.468500
  0
VERTEX
  8
C7
  10
210.343900
  20
531.601100
  0
VERTEX
  8
C7
  10
209.751700
  20
531.624800
  0
VERTEX
  8
C7
  10
209.131500
  20
531.547900
  0
VERTEX
  8
C7
  10
208.495000
  20
531.378200
  0
VERTEX
  8
C7
  10
207.854200
  20
531.123800
  0
VERTEX
  8
C7
  10
207.221000
  20
530.792700
  0
VERTEX
  8
C7
  10
206.607300
  20
530.392900
  0
VERTEX
  8
C7
  10
206.024900
  20
529.932400
  0
VERTEX
  8
C7
  10
205.485900
  20
529.419200
  0
VERTEX
  8
C7
  10
205.001900
  20
528.861400
  0
VERTEX
  8
C7
  10
204.585000
  20
528.266900
  0
VERTEX
  8
C7
  10
204.247100
  20
527.643700
  0
VERTEX
  8
C7
  10
204.000000
  20
527.000000
  0
SEQEND
  8
C7
  0
POLYLINE
  8
C7
  66
1
  10
221.000000
  20
526.000000
  0
VERTEX
  8
C7
  10
221.000000
  20
526.000000
  0
VERTEX
  8
C7
  10
224.000000
  20
527.000000
  0
VERTEX
  8
C7
  10
224.000000
  20
518.000000
  0
VERTEX
  8
C7
  10
227.000000
  20
518.000000
  0
VERTEX
  8
C7
  10
227.000000
  20
532.000000
  0
VERTEX
  8
C7
  10
221.000000
  20
526.000000
  0
SEQEND
  8
C7
  0
POLYLINE
  8
C7
  66
1
  10
233.000000
  20
532.000000
  0
VERTEX
  8
C7
  10
233.000000
  20
532.000000
  0
VERTEX
  8
C7
  10
229.000000
  20
517.000000
  0
VERTEX
  8
C7
  10
229.778600
  20
517.541500
  0
VERTEX
  8
C7
  10
230.484400
  20
518.163200
  0
VERTEX
  8
C7
  10
231.121300
  20
518.857500
  0
VERTEX
  8
C7
  10
231.693100
  20
519.616800
  0
VERTEX
  8
C7
  10
232.203900
  20
520.433800
  0
VERTEX
  8
C7
  10
232.657500
  20
521.300800
  0
VERTEX
  8
C7
  10
233.057900
  20
522.210400
  0
VERTEX
  8
C7
  10
233.409000
  20
523.155200
  0
VERTEX
  8
C7
  10
233.714700
  20
524.127500
  0
VERTEX
  8
C7
  10
233.979000
  20
525.119900
  0
VERTEX
  8
C7
  10
234.205900
  20
526.124900
  0
VERTEX
  8
C7
  10
234.399200
  20
527.135100
  0
VERTEX
  8
C7
  10
234.562800
  20
528.142800
  0
VERTEX
  8
C7
  10
234.700800
  20
529.140700
  0
VERTEX
  8
C7
  10
234.817000
  20
530.121200
  0
VERTEX
  8
C7
  10
234.915400
  20
531.076700
  0
VERTEX
  8
C7
  10
235.000000
  20
532.000000
  0
VERTEX
  8
C7
  10
233.000000
  20
532.000000
  0
SEQEND
  8
C7
  0
POLYLINE
  8
C7
  66
1
  10
240.000000
  20
532.000000
  0
VERTEX
  8
C7
  10
240.000000
  20
532.000000
  0
VERTEX
  8
C7
  10
235.000000
  20
521.000000
  0
VERTEX
  8
C7
  10
240.000000
  20
518.000000
  0
VERTEX
  8
C7
  10
243.000000
  20
518.000000
  0
VERTEX
  8
C7
  10
245.000000
  20
521.000000
  0
VERTEX
  8
C7
  10
245.000000
  20
522.000000
  0
VERTEX
  8
C7
  10
245.000000
  20
523.000000
  0
VERTEX
  8
C7
  10
243.000000
  20
532.000000
  0
VERTEX
  8
C7
  10
240.000000
  20
532.000000
  0
SEQEND
  8
C7
  0
POLYLINE
  8
C7
  66
1
  10
245.000000
  20
532.000000
  0
VERTEX
  8
C7
  10
245.000000
  20
532.000000
  0
VERTEX
  8
C7
  10
248.000000
  20
526.000000
  0
VERTEX
  8
C7
  10
248.000000
  20
532.000000
  0
VERTEX
  8
C7
  10
245.000000
  20
532.000000
  0
SEQEND
  8
C7
  0
POLYLINE
  8
C7
  66
1
  10
249.000000
  20
532.000000
  0
VERTEX
  8
C7
  10
249.000000
  20
532.000000
  0
VERTEX
  8
C7
  10
249.000000
  20
526.000000
  0
VERTEX
  8
C7
  10
252.000000
  20
532.000000
  0
VERTEX
  8
C7
  10
249.000000
  20
532.000000
  0
SEQEND
  8
C7
  0
POLYLINE
  8
C7
  66
1
  10
258.000000
  20
514.000000
  0
VERTEX
  8
C7
  10
258.000000
  20
514.000000
  0
VERTEX
  8
C7
  10
257.650900
  20
515.109600
  0
VERTEX
  8
C7
  10
257.338300
  20
516.180900
  0
VERTEX
  8
C7
  10
257.063000
  20
517.218600
  0
VERTEX
  8
C7
  10
256.825900
  20
518.227500
  0
VERTEX
  8
C7
  10
256.627800
  20
519.212400
  0
VERTEX
  8
C7
  10
256.469600
  20
520.178000
  0
VERTEX
  8
C7
  10
256.352200
  20
521.129100
  0
VERTEX
  8
C7
  10
256.276400
  20
522.070500
  0
VERTEX
  8
C7
  10
256.243100
  20
523.006900
  0
VERTEX
  8
C7
  10
256.253200
  20
523.943200
  0
VERTEX
  8
C7
  10
256.307600
  20
524.884000
  0
VERTEX
  8
C7
  10
256.407100
  20
525.834300
  0
VERTEX
  8
C7
  10
256.552500
  20
526.798700
  0
VERTEX
  8
C7
  10
256.744800
  20
527.782000
  0
VERTEX
  8
C7
  10
256.984900
  20
528.789000
  0
VERTEX
  8
C7
  10
257.273500
  20
529.824500
  0
VERTEX
  8
C7
  10
257.611600
  20
530.893200
  0
VERTEX
  8
C7
  10
258.000000
  20
532.000000
  0
VERTEX
  8
C7
  10
257.252600
  20
531.704700
  0
VERTEX
  8
C7
  10
256.560600
  20
531.332100
  0
VERTEX
  8
C7
  10
255.924000
  20
530.888300
  0
VERTEX
  8
C7
  10
255.342700
  20
530.379100
  0
VERTEX
  8
C7
  10
254.816800
  20
529.810500
  0
VERTEX
  8
C7
  10
254.346200
  20
529.188500
  0
VERTEX
  8
C7
  10
253.931000
  20
528.518900
  0
VERTEX
  8
C7
  10
253.571200
  20
527.807700
  0
VERTEX
  8
C7
  10
253.266700
  20
527.060900
  0
VERTEX
  8
C7
  10
253.017600
  20
526.284300
  0
VERTEX
  8
C7
  10
252.823800
  20
525.484000
  0
VERTEX
  8
C7
  10
252.685400
  20
524.665900
  0
VERTEX
  8
C7
  10
252.602400
  20
523.835900
  0
VERTEX
  8
C7
  10
252.574700
  20
523.000000
  0
VERTEX
  8
C7
  10
252.602400
  20
522.164000
  0
VERTEX
  8
C7
  10
252.685400
  20
521.334000
  0
VERTEX
  8
C7
  10
252.823800
  20
520.515900
  0
VERTEX
  8
C7
  10
253.017600
  20
519.715600
  0
VERTEX
  8
C7
  10
253.266700
  20
518.939000
  0
VERTEX
  8
C7
  10
253.571200
  20
518.192200
  0
VERTEX
  8
C7
  10
253.931000
  20
517.481000
  0
VERTEX
  8
C7
  10
254.346200
  20
516.811400
  0
VERTEX
  8
C7
  10
254.816800
  20
516.189400
  0
VERTEX
  8
C7
  10
255.342700
  20
515.620800
  0
VERTEX
  8
C7
  10
255.924000
  20
515.111600
  0
VERTEX
  8
C7
  10
256.560600
  20
514.667800
  0
VERTEX
  8
C7
  10
257.252600
  20
514.295200
  0
VERTEX
  8
C7
  10
258.000000
  20
514.000000
  0
SEQEND
  8
C7
  0
POLYLINE
  8
C7
  66
1
  10
259.000000
  20
524.000000
  0
VERTEX
  8
C7
  10
259.000000
  20
524.000000
  0
VERTEX
  8
C7
  10
264.000000
  20
525.000000
  0
VERTEX
  8
C7
  10
264.000000
  20
520.000000
  0
VERTEX
  8
C7
  10
258.000000
  20
522.000000
  0
VERTEX
  8
C7
  10
258.427800
  20
521.244100
  0
VERTEX
  8
C7
  10
258.867800
  20
520.577600
  0
VERTEX
  8
C7
  10
259.317800
  20
519.996900
  0
VERTEX
  8
C7
  10
259.775500
  20
519.498700
  0
VERTEX
  8
C7
  10
260.238800
  20
519.079200
  0
VERTEX
  8
C7
  10
260.705400
  20
518.735200
  0
VERTEX
  8
C7
  10
261.173200
  20
518.463000
  0
VERTEX
  8
C7
  10
261.639900
  20
518.259200
  0
VERTEX
  8
C7
  10
262.103300
  20
518.120300
  0
VERTEX
  8
C7
  10
262.561300
  20
518.042700
  0
VERTEX
  8
C7
  10
263.011500
  20
518.023000
  0
VERTEX
  8
C7
  10
263.451900
  20
518.057700
  0
VERTEX
  8
C7
  10
263.880200
  20
518.143300
  0
VERTEX
  8
C7
  10
264.294100
  20
518.276300
  0
VERTEX
  8
C7
  10
264.691600
  20
518.453200
  0
VERTEX
  8
C7
  10
265.070300
  20
518.670400
  0
VERTEX
  8
C7
  10
265.428100
  20
518.924600
  0
VERTEX
  8
C7
  10
265.762800
  20
519.212200
  0
VERTEX
  8
C7
  10
266.072100
  20
519.529600
  0
VERTEX
  8
C7
  10
266.353900
  20
519.873500
  0
VERTEX
  8
C7
  10
266.605900
  20
520.240200
  0
VERTEX
  8
C7
  10
266.826000
  20
520.626400
  0
VERTEX
  8
C7
  10
267.011900
  20
521.028500
  0
VERTEX
  8
C7
  10
267.161400
  20
521.443000
  0
VERTEX
  8
C7
  10
267.272300
  20
521.866400
  0
VERTEX
  8
C7
  10
267.342500
  20
522.295300
  0
VERTEX
  8
C7
  10
267.369600
  20
522.726000
  0
VERTEX
  8
C7
  10
267.351600
  20
523.155200
  0
VERTEX
  8
C7
  10
267.286200
  20
523.579300
  0
VERTEX
  8
C7
  10
267.171100
  20
523.994900
  0
VERTEX
  8
C7
  10
267.004200
  20
524.398300
  0
VERTEX
  8
C7
  10
266.783300
  20
524.786200
  0
VERTEX
  8
C7
  10
266.506200
  20
525.155100
  0
VERTEX
  8
C7
  10
266.170600
  20
525.501400
  0
VERTEX
  8
C7
  10
265.774400
  20
525.821600
  0
VERTEX
  8
C7
  10
265.315300
  20
526.112300
  0
VERTEX
  8
C7
  10
264.791200
  20
526.369900
  0
VERTEX
  8
C7
  10
264.199800
  20
526.591000
  0
VERTEX
  8
C7
  10
263.538900
  20
526.772000
  0
VERTEX
  8
C7
  10
262.806400
  20
526.909500
  0
VERTEX
  8
C7
  10
262.000000
  20
527.000000
  0
VERTEX
  8
C7
  10
262.000000
  20
529.000000
  0
VERTEX
  8
C7
  10
268.000000
  20
529.000000
  0
VERTEX
  8
C7
  10
268.000000
  20
532.000000
  0
VERTEX
  8
C7
  10
266.748300
  20
531.979200
  0
VERTEX
  8
C7
  10
265.606000
  20
531.920700
  0
VERTEX
  8
C7
  10
264.569300
  20
531.816200
  0
VERTEX
  8
C7
  10
263.634500
  20
531.657700
  0
VERTEX
  8
C7
  10
262.797800
  20
531.436800
  0
VERTEX
  8
C7
  10
262.055400
  20
531.145500
  0
VERTEX
  8
C7
  10
261.403600
  20
530.775500
  0
VERTEX
  8
C7
  10
260.838600
  20
530.318600
  0
VERTEX
  8
C7
  10
260.356700
  20
529.766600
  0
VERTEX
  8
C7
  10
259.954200
  20
529.111400
  0
VERTEX
  8
C7
  10
259.627200
  20
528.344800
  0
VERTEX
  8
C7
  10
259.372100
  20
527.458500
  0
VERTEX
  8
C7
  10
259.185000
  20
526.444400
  0
VERTEX
  8
C7
  10
259.062200
  20
525.294300
  0
VERTEX
  8
C7
  10
259.000000
  20
524.000000
  0
SEQEND
  8
C7
  0
POLYLINE
  8
C7
  66
1
  10
269.000000
  20
532.000000
  0
VERTEX
  8
C7
  10
269.000000
  20
532.000000
  0
VERTEX
  8
C7
  10
269.000000
  20
529.000000
  0
VERTEX
  8
C7
  10
274.000000
  20
529.000000
  0
VERTEX
  8
C7
  10
271.000000
  20
518.000000
  0
VERTEX
  8
C7
  10
271.781200
  20
518.536200
  0
VERTEX
  8
C7
  10
272.511000
  20
519.155400
  0
VERTEX
  8
C7
  10
273.190600
  20
519.849400
  0
VERTEX
  8
C7
  10
273.821100
  20
520.610200
  0
VERTEX
  8
C7
  10
274.403800
  20
521.429700
  0
VERTEX
  8
C7
  10
274.939900
  20
522.299700
  0
VERTEX
  8
C7
  10
275.430500
  20
523.212100
  0
VERTEX
  8
C7
  10
275.877000
  20
524.159000
  0
VERTEX
  8
C7
  10
276.280300
  20
525.132100
  0
VERTEX
  8
C7
  10
276.641900
  20
526.123400
  0
VERTEX
  8
C7
  10
276.962800
  20
527.124800
  0
VERTEX
  8
C7
  10
277.244300
  20
528.128200
  0
VERTEX
  8
C7
  10
277.487500
  20
529.125500
  0
VERTEX
  8
C7
  10
277.693800
  20
530.108600
  0
VERTEX
  8
C7
  10
277.864200
  20
531.069500
  0
VERTEX
  8
C7
  10
278.000000
  20
532.000000
  0
VERTEX
  8
C7
  10
269.000000
  20
532.000000
  0
SEQEND
  8
C7
  0
POLYLINE
  8
C7
  66
1
  10
311.000000
  20
532.000000
  0
VERTEX
  8
C7
  10
311.000000
  20
532.000000
  0
VERTEX
  8
C7
  10
311.000000
  20
514.000000
  0
VERTEX
  8
C7
  10
311.773400
  20
514.279800
  0
VERTEX
  8
C7
  10
312.478100
  20
514.642800
  0
VERTEX
  8
C7
  10
313.115100
  20
515.082400
  0
VERTEX
  8
C7
  10
313.685700
  20
515.592300
  0
VERTEX
  8
C7
  10
314.190800
  20
516.166100
  0
VERTEX
  8
C7
  10
314.631600
  20
516.797300
  0
VERTEX
  8
C7
  10
315.009200
  20
517.479600
  0
VERTEX
  8
C7
  10
315.324800
  20
518.206700
  0
VERTEX
  8
C7
  10
315.579300
  20
518.972000
  0
VERTEX
  8
C7
  10
315.774000
  20
519.769200
  0
VERTEX
  8
C7
  10
315.910000
  20
520.591800
  0
VERTEX
  8
C7
  10
315.988300
  20
521.433600
  0
VERTEX
  8
C7
  10
316.010000
  20
522.288100
  0
VERTEX
  8
C7
  10
315.976400
  20
523.148800
  0
VERTEX
  8
C7
  10
315.888400
  20
524.009500
  0
VERTEX
  8
C7
  10
315.747200
  20
524.863600
  0
VERTEX
  8
C7
  10
315.553900
  20
525.704900
  0
VERTEX
  8
C7
  10
315.309600
  20
526.526800
  0
VERTEX
  8
C7
  10
315.015500
  20
527.323000
  0
VERTEX
  8
C7
  10
314.672600
  20
528.087200
  0
VERTEX
  8
C7
  10
314.282000
  20
528.812800
  0
VERTEX
  8
C7
  10
313.844900
  20
529.493600
  0
VERTEX
  8
C7
  10
313.362300
  20
530.123000
  0
VERTEX
  8
C7
  10
312.835500
  20
530.694800
  0
VERTEX
  8
C7
  10
312.265400
  20
531.202500
  0
VERTEX
  8
C7
  10
311.653200
  20
531.639700
  0
VERTEX
  8
C7
  10
311.000000
  20
532.000000
  0
SEQEND
  8
C7
  0
POLYLINE
  8
C7
  66
1
  10
425.000000
  20
531.000000
  0
VERTEX
  8
C7
  10
425.000000
  20
531.000000
  0
VERTEX
  8
C7
  10
425.000000
  20
524.000000
  0
VERTEX
  8
C7
  10
440.000000
  20
524.000000
  0
VERTEX
  8
C7
  10
440.000000
  20
532.000000
  0
VERTEX
  8
C7
  10
438.000000
  20
532.000000
  0
VERTEX
  8
C7
  10
437.000000
  20
526.000000
  0
VERTEX
  8
C7
  10
436.000000
  20
526.000000
  0
VERTEX
  8
C7
  10
435.000000
  20
532.000000
  0
VERTEX
  8
C7
  10
433.000000
  20
532.000000
  0
VERTEX
  8
C7
  10
433.000000
  20
525.000000
  0
VERTEX
  8
C7
  10
432.000000
  20
525.000000
  0
VERTEX
  8
C7
  10
432.000000
  20
532.000000
  0
VERTEX
  8
C7
  10
425.000000
  20
531.000000
  0
SEQEND
  8
C7
  0
POLYLINE
  8
C7
  66
1
  10
548.000000
  20
532.000000
  0
VERTEX
  8
C7
  10
548.000000
  20
532.000000
  0
VERTEX
  8
C7
  10
548.000000
  20
524.000000
  0
VERTEX
  8
C7
  10
550.000000
  20
524.000000
  0
VERTEX
  8
C7
  10
551.000000
  20
530.000000
  0
VERTEX
  8
C7
  10
552.000000
  20
530.000000
  0
VERTEX
  8
C7
  10
552.000000
  20
524.000000
  0
VERTEX
  8
C7
  10
555.000000
  20
524.000000
  0
VERTEX
  8
C7
  10
555.000000
  20
530.000000
  0
VERTEX
  8
C7
  10
557.000000
  20
530.000000
  0
VERTEX
  8
C7
  10
557.000000
  20
524.000000
  0
VERTEX
  8
C7
  10
559.000000
  20
524.000000
  0
VERTEX
  8
C7
  10
558.950300
  20
525.270300
  0
VERTEX
  8
C7
  10
558.833400
  20
526.398500
  0
VERTEX
  8
C7
  10
558.649500
  20
527.392900
  0
VERTEX
  8
C7
  10
558.398800
  20
528.262100
  0
VERTEX
  8
C7
  10
558.081500
  20
529.014500
  0
VERTEX
  8
C7
  10
557.697900
  20
529.658400
  0
VERTEX
  8
C7
  10
557.248100
  20
530.202400
  0
VERTEX
  8
C7
  10
556.732500
  20
530.654800
  0
VERTEX
  8
C7
  10
556.151100
  20
531.024100
  0
VERTEX
  8
C7
  10
555.504300
  20
531.318800
  0
VERTEX
  8
C7
  10
554.792300
  20
531.547200
  0
VERTEX
  8
C7
  10
554.015200
  20
531.717800
  0
VERTEX
  8
C7
  10
553.173300
  20
531.839100
  0
VERTEX
  8
C7
  10
552.266900
  20
531.919400
  0
VERTEX
  8
C7
  10
551.296100
  20
531.967200
  0
VERTEX
  8
C7
  10
550.261200
  20
531.990900
  0
VERTEX
  8
C7
  10
549.162400
  20
531.999000
  0
VERTEX
  8
C7
  10
548.000000
  20
532.000000
  0
SEQEND
  8
C7
  0
POLYLINE
  8
C7
  66
1
  10
560.000000
  20
532.000000
  0
VERTEX
  8
C7
  10
560.000000
  20
532.000000
  0
VERTEX
  8
C7
  10
560.000000
  20
524.000000
  0
VERTEX
  8
C7
  10
562.000000
  20
524.000000
  0
VERTEX
  8
C7
  10
562.000000
  20
530.000000
  0
VERTEX
  8
C7
  10
564.000000
  20
530.000000
  0
VERTEX
  8
C7
  10
564.000000
  20
524.000000
  0
VERTEX
  8
C7
  10
566.000000
  20
524.000000
  0
VERTEX
  8
C7
  10
567.000000
  20
530.000000
  0
VERTEX
  8
C7
  10
568.000000
  20
530.000000
  0
VERTEX
  8
C7
  10
568.000000
  20
524.000000
  0
VERTEX
  8
C7
  10
571.000000
  20
524.000000
  0
VERTEX
  8
C7
  10
570.950300
  20
525.270300
  0
VERTEX
  8
C7
  10
570.833400
  20
526.398500
  0
VERTEX
  8
C7
  10
570.649500
  20
527.392900
  0
VERTEX
  8
C7
  10
570.398800
  20
528.262100
  0
VERTEX
  8
C7
  10
570.081500
  20
529.014500
  0
VERTEX
  8
C7
  10
569.697900
  20
529.658400
  0
VERTEX
  8
C7
  10
569.248200
  20
530.202400
  0
VERTEX
  8
C7
  10
568.732500
  20
530.654800
  0
VERTEX
  8
C7
  10
568.151200
  20
531.024100
  0
VERTEX
  8
C7
  10
567.504400
  20
531.318800
  0
VERTEX
  8
C7
  10
566.792300
  20
531.547200
  0
VERTEX
  8
C7
  10
566.015200
  20
531.717800
  0
VERTEX
  8
C7
  10
565.173400
  20
531.839100
  0
VERTEX
  8
C7
  10
564.267000
  20
531.919400
  0
VERTEX
  8
C7
  10
563.296200
  20
531.967200
  0
VERTEX
  8
C7
  10
562.261300
  20
531.990900
  0
VERTEX
  8
C7
  10
561.162400
  20
531.999000
  0
VERTEX
  8
C7
  10
560.000000
  20
532.000000
  0
SEQEND
  8
C7
  0
POLYLINE
  8
C7
  66
1
  10
529.000000
  20
531.000000
  0
VERTEX
  8
C7
  10
529.000000
  20
531.000000
  0
VERTEX
  8
C7
  10
525.000000
  20
526.000000
  0
VERTEX
  8
C7
  10
526.150300
  20
526.123400
  0
VERTEX
  8
C7
  10
527.135900
  20
526.377300
  0
VERTEX
  8
C7
  10
527.946200
  20
526.768100
  0
VERTEX
  8
C7
  10
528.570600
  20
527.302200
  0
VERTEX
  8
C7
  10
528.998700
  20
527.986100
  0
VERTEX
  8
C7
  10
529.220000
  20
528.826000
  0
VERTEX
  8
C7
  10
529.223900
  20
529.828500
  0
VERTEX
  8
C7
  10
529.000000
  20
531.000000
  0
SEQEND
  8
C7
  0
POLYLINE
  8
C7
  66
1
  10
403.000000
  20
530.000000
  0
VERTEX
  8
C7
  10
403.000000
  20
530.000000
  0
VERTEX
  8
C7
  10
404.000000
  20
477.000000
  0
VERTEX
  8
C7
  10
361.000000
  20
477.000000
  0
VERTEX
  8
C7
  10
389.000000
  20
506.000000
  0
VERTEX
  8
C7
  10
388.236400
  20
505.446600
  0
VERTEX
  8
C7
  10
387.483400
  20
504.871000
  0
VERTEX
  8
C7
  10
386.740300
  20
504.274400
  0
VERTEX
  8
C7
  10
386.006500
  20
503.657900
  0
VERTEX
  8
C7
  10
385.281400
  20
503.022900
  0
VERTEX
  8
C7
  10
384.564400
  20
502.370600
  0
VERTEX
  8
C7
  10
383.854900
  20
501.702300
  0
VERTEX
  8
C7
  10
383.152300
  20
501.019300
  0
VERTEX
  8
C7
  10
382.456000
  20
500.322800
  0
VERTEX
  8
C7
  10
381.765300
  20
499.614100
  0
VERTEX
  8
C7
  10
381.079600
  20
498.894400
  0
VERTEX
  8
C7
  10
380.398400
  20
498.164900
  0
VERTEX
  8
C7
  10
379.721000
  20
497.427100
  0
VERTEX
  8
C7
  10
379.046900
  20
496.682100
  0
VERTEX
  8
C7
  10
378.375300
  20
495.931100
  0
VERTEX
  8
C7
  10
377.705800
  20
495.175500
  0
VERTEX
  8
C7
  10
377.037600
  20
494.416500
  0
VERTEX
  8
C7
  10
376.370200
  20
493.655400
  0
VERTEX
  8
C7
  10
375.703000
  20
492.893400
  0
VERTEX
  8
C7
  10
375.035300
  20
492.131800
  0
VERTEX
  8
C7
  10
374.366600
  20
491.371800
  0
VERTEX
  8
C7
  10
373.696200
  20
490.614700
  0
VERTEX
  8
C7
  10
373.023500
  20
489.861900
  0
VERTEX
  8
C7
  10
372.348000
  20
489.114400
  0
VERTEX
  8
C7
  10
371.669000
  20
488.373700
  0
VERTEX
  8
C7
  10
370.985800
  20
487.640900
  0
VERTEX
  8
C7
  10
370.298000
  20
486.917300
  0
VERTEX
  8
C7
  10
369.604800
  20
486.204200
  0
VERTEX
  8
C7
  10
368.905700
  20
485.502800
  0
VERTEX
  8
C7
  10
368.200100
  20
484.814500
  0
VERTEX
  8
C7
  10
367.487300
  20
484.140400
  0
VERTEX
  8
C7
  10
366.766700
  20
483.481800
  0
VERTEX
  8
C7
  10
366.037800
  20
482.840100
  0
VERTEX
  8
C7
  10
365.299900
  20
482.216300
  0
VERTEX
  8
C7
  10
364.552300
  20
481.611900
  0
VERTEX
  8
C7
  10
363.794600
  20
481.028100
  0
VERTEX
  8
C7
  10
363.026100
  20
480.466100
  0
VERTEX
  8
C7
  10
362.246200
  20
479.927100
  0
VERTEX
  8
C7
  10
361.454200
  20
479.412600
  0
VERTEX
  8
C7
  10
360.649600
  20
478.923600
  0
VERTEX
  8
C7
  10
359.831700
  20
478.461600
  0
VERTEX
  8
C7
  10
359.000000
  20
478.027700
  0
VERTEX
  8
C7
  10
358.281700
  20
477.691100
  0
VERTEX
  8
C7
  10
357.531000
  20
477.382300
  0
VERTEX
  8
C7
  10
356.749300
  20
477.100300
  0
VERTEX
  8
C7
  10
355.938000
  20
476.844100
  0
VERTEX
  8
C7
  10
355.098700
  20
476.613000
  0
VERTEX
  8
C7
  10
354.232700
  20
476.405800
  0
VERTEX
  8
C7
  10
353.341600
  20
476.221600
  0
VERTEX
  8
C7
  10
352.426800
  20
476.059600
  0
VERTEX
  8
C7
  10
351.489700
  20
475.918700
  0
VERTEX
  8
C7
  10
350.531900
  20
475.798100
  0
VERTEX
  8
C7
  10
349.554700
  20
475.696700
  0
VERTEX
  8
C7
  10
348.559600
  20
475.613700
  0
VERTEX
  8
C7
  10
347.548100
  20
475.548000
  0
VERTEX
  8
C7
  10
346.521700
  20
475.498800
  0
VERTEX
  8
C7
  10
345.481700
  20
475.465200
  0
VERTEX
  8
C7
  10
344.429700
  20
475.446100
  0
VERTEX
  8
C7
  10
343.367100
  20
475.440600
  0
VERTEX
  8
C7
  10
342.295400
  20
475.447800
  0
VERTEX
  8
C7
  10
341.216000
  20
475.466700
  0
VERTEX
  8
C7
  10
340.130400
  20
475.496500
  0
VERTEX
  8
C7
  10
339.040000
  20
475.536100
  0
VERTEX
  8
C7
  10
337.946300
  20
475.584600
  0
VERTEX
  8
C7
  10
336.850800
  20
475.641100
  0
VERTEX
  8
C7
  10
335.754900
  20
475.704600
  0
VERTEX
  8
C7
  10
334.660000
  20
475.774200
  0
VERTEX
  8
C7
  10
333.567700
  20
475.848900
  0
VERTEX
  8
C7
  10
332.479400
  20
475.927900
  0
VERTEX
  8
C7
  10
331.396500
  20
476.010100
  0
VERTEX
  8
C7
  10
330.320500
  20
476.094600
  0
VERTEX
  8
C7
  10
329.252900
  20
476.180500
  0
VERTEX
  8
C7
  10
328.195100
  20
476.266900
  0
VERTEX
  8
C7
  10
327.148600
  20
476.352700
  0
VERTEX
  8
C7
  10
326.114800
  20
476.437100
  0
VERTEX
  8
C7
  10
325.095100
  20
476.519100
  0
VERTEX
  8
C7
  10
324.091200
  20
476.597700
  0
VERTEX
  8
C7
  10
323.104300
  20
476.672100
  0
VERTEX
  8
C7
  10
322.136000
  20
476.741200
  0
VERTEX
  8
C7
  10
321.187700
  20
476.804200
  0
VERTEX
  8
C7
  10
320.260900
  20
476.860100
  0
VERTEX
  8
C7
  10
319.357000
  20
476.907900
  0
VERTEX
  8
C7
  10
318.477500
  20
476.946800
  0
VERTEX
  8
C7
  10
317.623900
  20
476.975700
  0
VERTEX
  8
C7
  10
316.797500
  20
476.993700
  0
VERTEX
  8
C7
  10
316.000000
  20
477.000000
  0
VERTEX
  8
C7
  10
344.000000
  20
506.000000
  0
VERTEX
  8
C7
  10
343.236400
  20
505.446700
  0
VERTEX
  8
C7
  10
342.483400
  20
504.871000
  0
VERTEX
  8
C7
  10
341.740300
  20
504.274400
  0
VERTEX
  8
C7
  10
341.006500
  20
503.657900
  0
VERTEX
  8
C7
  10
340.281400
  20
503.022900
  0
VERTEX
  8
C7
  10
339.564500
  20
502.370700
  0
VERTEX
  8
C7
  10
338.855000
  20
501.702400
  0
VERTEX
  8
C7
  10
338.152400
  20
501.019400
  0
VERTEX
  8
C7
  10
337.456000
  20
500.322800
  0
VERTEX
  8
C7
  10
336.765300
  20
499.614100
  0
VERTEX
  8
C7
  10
336.079700
  20
498.894400
  0
VERTEX
  8
C7
  10
335.398500
  20
498.165000
  0
VERTEX
  8
C7
  10
334.721100
  20
497.427100
  0
VERTEX
  8
C7
  10
334.046900
  20
496.682100
  0
VERTEX
  8
C7
  10
333.375400
  20
495.931200
  0
VERTEX
  8
C7
  10
332.705800
  20
495.175600
  0
VERTEX
  8
C7
  10
332.037600
  20
494.416600
  0
VERTEX
  8
C7
  10
331.370200
  20
493.655400
  0
VERTEX
  8
C7
  10
330.703000
  20
492.893400
  0
VERTEX
  8
C7
  10
330.035300
  20
492.131800
  0
VERTEX
  8
C7
  10
329.366600
  20
491.371800
  0
VERTEX
  8
C7
  10
328.696200
  20
490.614800
  0
VERTEX
  8
C7
  10
328.023600
  20
489.861900
  0
VERTEX
  8
C7
  10
327.348000
  20
489.114400
  0
VERTEX
  8
C7
  10
326.669000
  20
488.373700
  0
VERTEX
  8
C7
  10
325.985900
  20
487.640900
  0
VERTEX
  8
C7
  10
325.298000
  20
486.917300
  0
VERTEX
  8
C7
  10
324.604800
  20
486.204200
  0
VERTEX
  8
C7
  10
323.905700
  20
485.502900
  0
VERTEX
  8
C7
  10
323.200100
  20
484.814500
  0
VERTEX
  8
C7
  10
322.487300
  20
484.140400
  0
VERTEX
  8
C7
  10
321.766700
  20
483.481900
  0
VERTEX
  8
C7
  10
321.037800
  20
482.840100
  0
VERTEX
  8
C7
  10
320.299900
  20
482.216300
  0
VERTEX
  8
C7
  10
319.552400
  20
481.611900
  0
VERTEX
  8
C7
  10
318.794600
  20
481.028100
  0
VERTEX
  8
C7
  10
318.026100
  20
480.466100
  0
VERTEX
  8
C7
  10
317.246200
  20
479.927200
  0
VERTEX
  8
C7
  10
316.454200
  20
479.412600
  0
VERTEX
  8
C7
  10
315.649600
  20
478.923600
  0
VERTEX
  8
C7
  10
314.831700
  20
478.461600
  0
VERTEX
  8
C7
  10
314.000000
  20
478.027700
  0
VERTEX
  8
C7
  10
313.281700
  20
477.691100
  0
VERTEX
  8
C7
  10
312.531000
  20
477.382300
  0
VERTEX
  8
C7
  10
311.749300
  20
477.100300
  0
VERTEX
  8
C7
  10
310.938000
  20
476.844100
  0
VERTEX
  8
C7
  10
310.098700
  20
476.613000
  0
VERTEX
  8
C7
  10
309.232700
  20
476.405800
  0
VERTEX
  8
C7
  10
308.341600
  20
476.221600
  0
VERTEX
  8
C7
  10
307.426800
  20
476.059600
  0
VERTEX
  8
C7
  10
306.489700
  20
475.918700
  0
VERTEX
  8
C7
  10
305.531900
  20
475.798100
  0
VERTEX
  8
C7
  10
304.554700
  20
475.696700
  0
VERTEX
  8
C7
  10
303.559600
  20
475.613700
  0
VERTEX
  8
C7
  10
302.548100
  20
475.548000
  0
VERTEX
  8
C7
  10
301.521700
  20
475.498800
  0
VERTEX
  8
C7
  10
300.481700
  20
475.465200
  0
VERTEX
  8
C7
  10
299.429700
  20
475.446100
  0
VERTEX
  8
C7
  10
298.367100
  20
475.440600
  0
VERTEX
  8
C7
  10
297.295400
  20
475.447800
  0
VERTEX
  8
C7
  10
296.216000
  20
475.466700
  0
VERTEX
  8
C7
  10
295.130400
  20
475.496500
  0
VERTEX
  8
C7
  10
294.040000
  20
475.536100
  0
VERTEX
  8
C7
  10
292.946300
  20
475.584600
  0
VERTEX
  8
C7
  10
291.850800
  20
475.641100
  0
VERTEX
  8
C7
  10
290.754900
  20
475.704600
  0
VERTEX
  8
C7
  10
289.660000
  20
475.774200
  0
VERTEX
  8
C7
  10
288.567700
  20
475.848900
  0
VERTEX
  8
C7
  10
287.479400
  20
475.927900
  0
VERTEX
  8
C7
  10
286.396500
  20
476.010100
  0
VERTEX
  8
C7
  10
285.320500
  20
476.094600
  0
VERTEX
  8
C7
  10
284.252900
  20
476.180500
  0
VERTEX
  8
C7
  10
283.195100
  20
476.266900
  0
VERTEX
  8
C7
  10
282.148600
  20
476.352700
  0
VERTEX
  8
C7
  10
281.114800
  20
476.437100
  0
VERTEX
  8
C7
  10
280.095100
  20
476.519100
  0
VERTEX
  8
C7
  10
279.091200
  20
476.597700
  0
VERTEX
  8
C7
  10
278.104300
  20
476.672100
  0
VERTEX
  8
C7
  10
277.136000
  20
476.741200
  0
VERTEX
  8
C7
  10
276.187700
  20
476.804200
  0
VERTEX
  8
C7
  10
275.260900
  20
476.860100
  0
VERTEX
  8
C7
  10
274.357000
  20
476.907900
  0
VERTEX
  8
C7
  10
273.477500
  20
476.946800
  0
VERTEX
  8
C7
  10
272.623900
  20
476.975700
  0
VERTEX
  8
C7
  10
271.797500
  20
476.993700
  0
VERTEX
  8
C7
  10
271.000000
  20
477.000000
  0
VERTEX
  8
C7
  10
299.000000
  20
506.000000
  0
VERTEX
  8
C7
  10
298.286700
  20
505.483900
  0
VERTEX
  8
C7
  10
297.580900
  20
504.946700
  0
VERTEX
  8
C7
  10
296.882100
  20
504.389700
  0
VERTEX
  8
C7
  10
296.189900
  20
503.813900
  0
VERTEX
  8
C7
  10
295.503900
  20
503.220600
  0
VERTEX
  8
C7
  10
294.823500
  20
502.611000
  0
VERTEX
  8
C7
  10
294.148300
  20
501.986100
  0
VERTEX
  8
C7
  10
293.477900
  20
501.347200
  0
VERTEX
  8
C7
  10
292.811800
  20
500.695400
  0
VERTEX
  8
C7
  10
292.149600
  20
500.031900
  0
VERTEX
  8
C7
  10
291.490800
  20
499.357900
  0
VERTEX
  8
C7
  10
290.835000
  20
498.674500
  0
VERTEX
  8
C7
  10
290.181700
  20
497.982900
  0
VERTEX
  8
C7
  10
289.530400
  20
497.284300
  0
VERTEX
  8
C7
  10
288.880800
  20
496.579800
  0
VERTEX
  8
C7
  10
288.232400
  20
495.870700
  0
VERTEX
  8
C7
  10
287.584600
  20
495.158000
  0
VERTEX
  8
C7
  10
286.937100
  20
494.443000
  0
VERTEX
  8
C7
  10
286.289500
  20
493.726800
  0
VERTEX
  8
C7
  10
285.641100
  20
493.010500
  0
VERTEX
  8
C7
  10
284.991700
  20
492.295500
  0
VERTEX
  8
C7
  10
284.340800
  20
491.582800
  0
VERTEX
  8
C7
  10
283.687900
  20
490.873500
  0
VERTEX
  8
C7
  10
283.032500
  20
490.169000
  0
VERTEX
  8
C7
  10
282.374200
  20
489.470200
  0
VERTEX
  8
C7
  10
281.712600
  20
488.778500
  0
VERTEX
  8
C7
  10
281.047200
  20
488.095000
  0
VERTEX
  8
C7
  10
280.377600
  20
487.420700
  0
VERTEX
  8
C7
  10
279.703200
  20
486.757000
  0
VERTEX
  8
C7
  10
279.023800
  20
486.105000
  0
VERTEX
  8
C7
  10
278.338700
  20
485.465800
  0
VERTEX
  8
C7
  10
277.647500
  20
484.840700
  0
VERTEX
  8
C7
  10
276.949900
  20
484.230700
  0
VERTEX
  8
C7
  10
276.245300
  20
483.637100
  0
VERTEX
  8
C7
  10
275.533300
  20
483.061000
  0
VERTEX
  8
C7
  10
274.813500
  20
482.503600
  0
VERTEX
  8
C7
  10
274.085400
  20
481.966100
  0
VERTEX
  8
C7
  10
273.348500
  20
481.449600
  0
VERTEX
  8
C7
  10
272.602400
  20
480.955300
  0
VERTEX
  8
C7
  10
271.846600
  20
480.484300
  0
VERTEX
  8
C7
  10
271.080800
  20
480.038000
  0
VERTEX
  8
C7
  10
270.304400
  20
479.617300
  0
VERTEX
  8
C7
  10
269.517000
  20
479.223500
  0
VERTEX
  8
C7
  10
268.718100
  20
478.857700
  0
VERTEX
  8
C7
  10
267.907300
  20
478.521200
  0
VERTEX
  8
C7
  10
267.084100
  20
478.215000
  0
VERTEX
  8
C7
  10
266.248200
  20
477.940400
  0
VERTEX
  8
C7
  10
265.399000
  20
477.698600
  0
VERTEX
  8
C7
  10
264.536000
  20
477.490600
  0
VERTEX
  8
C7
  10
263.659000
  20
477.317600
  0
VERTEX
  8
C7
  10
262.767300
  20
477.181000
  0
VERTEX
  8
C7
  10
261.860500
  20
477.081700
  0
VERTEX
  8
C7
  10
260.938200
  20
477.020900
  0
VERTEX
  8
C7
  10
260.000000
  20
477.000000
  0
VERTEX
  8
C7
  10
262.000000
  20
490.000000
  0
VERTEX
  8
C7
  10
261.241100
  20
490.575200
  0
VERTEX
  8
C7
  10
260.607600
  20
491.225900
  0
VERTEX
  8
C7
  10
260.089000
  20
491.944700
  0
VERTEX
  8
C7
  10
259.674700
  20
492.723700
  0
VERTEX
  8
C7
  10
259.354200
  20
493.555400
  0
VERTEX
  8
C7
  10
259.116900
  20
494.432200
  0
VERTEX
  8
C7
  10
258.952300
  20
495.346400
  0
VERTEX
  8
C7
  10
258.849800
  20
496.290500
  0
VERTEX
  8
C7
  10
258.798800
  20
497.256600
  0
VERTEX
  8
C7
  10
258.788900
  20
498.237400
  0
VERTEX
  8
C7
  10
258.809400
  20
499.225000
  0
VERTEX
  8
C7
  10
258.849900
  20
500.211900
  0
VERTEX
  8
C7
  10
258.899700
  20
501.190500
  0
VERTEX
  8
C7
  10
258.948400
  20
502.153100
  0
VERTEX
  8
C7
  10
258.985300
  20
503.092200
  0
VERTEX
  8
C7
  10
259.000000
  20
504.000000
  0
VERTEX
  8
C7
  10
258.000000
  20
504.000000
  0
VERTEX
  8
C7
  10
258.000000
  20
477.000000
  0
VERTEX
  8
C7
  10
225.000000
  20
477.000000
  0
VERTEX
  8
C7
  10
253.000000
  20
505.000000
  0
VERTEX
  8
C7
  10
252.235600
  20
504.447200
  0
VERTEX
  8
C7
  10
251.479300
  20
503.872700
  0
VERTEX
  8
C7
  10
250.730600
  20
503.277500
  0
VERTEX
  8
C7
  10
249.989000
  20
502.663100
  0
VERTEX
  8
C7
  10
249.253900
  20
502.030600
  0
VERTEX
  8
C7
  10
248.525000
  20
501.381400
  0
VERTEX
  8
C7
  10
247.801600
  20
500.716700
  0
VERTEX
  8
C7
  10
247.083300
  20
500.037900
  0
VERTEX
  8
C7
  10
246.369600
  20
499.346100
  0
VERTEX
  8
C7
  10
245.660000
  20
498.642700
  0
VERTEX
  8
C7
  10
244.954000
  20
497.928900
  0
VERTEX
  8
C7
  10
244.251200
  20
497.206000
  0
VERTEX
  8
C7
  10
243.550900
  20
496.475300
  0
VERTEX
  8
C7
  10
242.852800
  20
495.738100
  0
VERTEX
  8
C7
  10
242.156300
  20
494.995600
  0
VERTEX
  8
C7
  10
241.461000
  20
494.249200
  0
VERTEX
  8
C7
  10
240.766300
  20
493.500000
  0
VERTEX
  8
C7
  10
240.071700
  20
492.749400
  0
VERTEX
  8
C7
  10
239.376800
  20
491.998700
  0
VERTEX
  8
C7
  10
238.681100
  20
491.249100
  0
VERTEX
  8
C7
  10
237.984000
  20
490.501900
  0
VERTEX
  8
C7
  10
237.285100
  20
489.758300
  0
VERTEX
  8
C7
  10
236.583900
  20
489.019800
  0
VERTEX
  8
C7
  10
235.879800
  20
488.287400
  0
VERTEX
  8
C7
  10
235.172400
  20
487.562600
  0
VERTEX
  8
C7
  10
234.461300
  20
486.846500
  0
VERTEX
  8
C7
  10
233.745800
  20
486.140500
  0
VERTEX
  8
C7
  10
233.025500
  20
485.445900
  0
VERTEX
  8
C7
  10
232.299900
  20
484.763800
  0
VERTEX
  8
C7
  10
231.568500
  20
484.095700
  0
VERTEX
  8
C7
  10
230.830900
  20
483.442700
  0
VERTEX
  8
C7
  10
230.086500
  20
482.806100
  0
VERTEX
  8
C7
  10
229.334800
  20
482.187300
  0
VERTEX
  8
C7
  10
228.575300
  20
481.587400
  0
VERTEX
  8
C7
  10
227.807600
  20
481.007900
  0
VERTEX
  8
C7
  10
227.031100
  20
480.449900
  0
VERTEX
  8
C7
  10
226.245300
  20
479.914700
  0
VERTEX
  8
C7
  10
225.449800
  20
479.403600
  0
VERTEX
  8
C7
  10
224.644100
  20
478.917800
  0
VERTEX
  8
C7
  10
223.827600
  20
478.458800
  0
VERTEX
  8
C7
  10
223.000000
  20
478.027700
  0
VERTEX
  8
C7
  10
222.281700
  20
477.691100
  0
VERTEX
  8
C7
  10
221.531000
  20
477.382300
  0
VERTEX
  8
C7
  10
220.749300
  20
477.100300
  0
VERTEX
  8
C7
  10
219.938000
  20
476.844100
  0
VERTEX
  8
C7
  10
219.098700
  20
476.613000
  0
VERTEX
  8
C7
  10
218.232700
  20
476.405800
  0
VERTEX
  8
C7
  10
217.341600
  20
476.221600
  0
VERTEX
  8
C7
  10
216.426800
  20
476.059600
  0
VERTEX
  8
C7
  10
215.489700
  20
475.918700
  0
VERTEX
  8
C7
  10
214.531900
  20
475.798100
  0
VERTEX
  8
C7
  10
213.554700
  20
475.696700
  0
VERTEX
  8
C7
  10
212.559600
  20
475.613700
  0
VERTEX
  8
C7
  10
211.548100
  20
475.548000
  0
VERTEX
  8
C7
  10
210.521700
  20
475.498800
  0
VERTEX
  8
C7
  10
209.481700
  20
475.465200
  0
VERTEX
  8
C7
  10
208.429700
  20
475.446100
  0
VERTEX
  8
C7
  10
207.367100
  20
475.440600
  0
VERTEX
  8
C7
  10
206.295400
  20
475.447800
  0
VERTEX
  8
C7
  10
205.216000
  20
475.466700
  0
VERTEX
  8
C7
  10
204.130400
  20
475.496500
  0
VERTEX
  8
C7
  10
203.040000
  20
475.536100
  0
VERTEX
  8
C7
  10
201.946300
  20
475.584600
  0
VERTEX
  8
C7
  10
200.850800
  20
475.641100
  0
VERTEX
  8
C7
  10
199.754900
  20
475.704600
  0
VERTEX
  8
C7
  10
198.660000
  20
475.774200
  0
VERTEX
  8
C7
  10
197.567700
  20
475.848900
  0
VERTEX
  8
C7
  10
196.479400
  20
475.927900
  0
VERTEX
  8
C7
  10
195.396500
  20
476.010100
  0
VERTEX
  8
C7
  10
194.320500
  20
476.094600
  0
VERTEX
  8
C7
  10
193.252900
  20
476.180500
  0
VERTEX
  8
C7
  10
192.195100
  20
476.266900
  0
VERTEX
  8
C7
  10
191.148600
  20
476.352700
  0
VERTEX
  8
C7
  10
190.114800
  20
476.437100
  0
VERTEX
  8
C7
  10
189.095100
  20
476.519100
  0
VERTEX
  8
C7
  10
188.091200
  20
476.597700
  0
VERTEX
  8
C7
  10
187.104300
  20
476.672100
  0
VERTEX
  8
C7
  10
186.136000
  20
476.741200
  0
VERTEX
  8
C7
  10
185.187700
  20
476.804200
  0
VERTEX
  8
C7
  10
184.260900
  20
476.860100
  0
VERTEX
  8
C7
  10
183.357000
  20
476.907900
  0
VERTEX
  8
C7
  10
182.477500
  20
476.946800
  0
VERTEX
  8
C7
  10
181.623900
  20
476.975700
  0
VERTEX
  8
C7
  10
180.797500
  20
476.993700
  0
VERTEX
  8
C7
  10
180.000000
  20
477.000000
  0
VERTEX
  8
C7
  10
208.000000
  20
506.000000
  0
VERTEX
  8
C7
  10
207.236400
  20
505.446700
  0
VERTEX
  8
C7
  10
206.483400
  20
504.871000
  0
VERTEX
  8
C7
  10
205.740300
  20
504.274400
  0
VERTEX
  8
C7
  10
205.006500
  20
503.657900
  0
VERTEX
  8
C7
  10
204.281400
  20
503.022900
  0
VERTEX
  8
C7
  10
203.564400
  20
502.370700
  0
VERTEX
  8
C7
  10
202.855000
  20
501.702400
  0
VERTEX
  8
C7
  10
202.152300
  20
501.019400
  0
VERTEX
  8
C7
  10
201.456000
  20
500.322800
  0
VERTEX
  8
C7
  10
200.765300
  20
499.614100
  0
VERTEX
  8
C7
  10
200.079700
  20
498.894400
  0
VERTEX
  8
C7
  10
199.398500
  20
498.165000
  0
VERTEX
  8
C7
  10
198.721100
  20
497.427100
  0
VERTEX
  8
C7
  10
198.046900
  20
496.682100
  0
VERTEX
  8
C7
  10
197.375300
  20
495.931200
  0
VERTEX
  8
C7
  10
196.705800
  20
495.175600
  0
VERTEX
  8
C7
  10
196.037600
  20
494.416600
  0
VERTEX
  8
C7
  10
195.370200
  20
493.655400
  0
VERTEX
  8
C7
  10
194.703000
  20
492.893400
  0
VERTEX
  8
C7
  10
194.035300
  20
492.131800
  0
VERTEX
  8
C7
  10
193.366600
  20
491.371800
  0
VERTEX
  8
C7
  10
192.696200
  20
490.614800
  0
VERTEX
  8
C7
  10
192.023500
  20
489.861900
  0
VERTEX
  8
C7
  10
191.348000
  20
489.114400
  0
VERTEX
  8
C7
  10
190.669000
  20
488.373700
  0
VERTEX
  8
C7
  10
189.985800
  20
487.640900
  0
VERTEX
  8
C7
  10
189.298000
  20
486.917300
  0
VERTEX
  8
C7
  10
188.604800
  20
486.204200
  0
VERTEX
  8
C7
  10
187.905700
  20
485.502900
  0
VERTEX
  8
C7
  10
187.200000
  20
484.814500
  0
VERTEX
  8
C7
  10
186.487200
  20
484.140400
  0
VERTEX
  8
C7
  10
185.766700
  20
483.481900
  0
VERTEX
  8
C7
  10
185.037700
  20
482.840100
  0
VERTEX
  8
C7
  10
184.299800
  20
482.216300
  0
VERTEX
  8
C7
  10
183.552300
  20
481.611900
  0
VERTEX
  8
C7
  10
182.794600
  20
481.028100
  0
VERTEX
  8
C7
  10
182.026100
  20
480.466100
  0
VERTEX
  8
C7
  10
181.246100
  20
479.927200
  0
VERTEX
  8
C7
  10
180.454200
  20
479.412600
  0
VERTEX
  8
C7
  10
179.649500
  20
478.923600
  0
VERTEX
  8
C7
  10
178.831700
  20
478.461600
  0
VERTEX
  8
C7
  10
178.000000
  20
478.027700
  0
VERTEX
  8
C7
  10
177.281700
  20
477.691100
  0
VERTEX
  8
C7
  10
176.531000
  20
477.382300
  0
VERTEX
  8
C7
  10
175.749300
  20
477.100300
  0
VERTEX
  8
C7
  10
174.938000
  20
476.844100
  0
VERTEX
  8
C7
  10
174.098700
  20
476.613000
  0
VERTEX
  8
C7
  10
173.232700
  20
476.405800
  0
VERTEX
  8
C7
  10
172.341600
  20
476.221600
  0
VERTEX
  8
C7
  10
171.426800
  20
476.059600
  0
VERTEX
  8
C7
  10
170.489700
  20
475.918700
  0
VERTEX
  8
C7
  10
169.531900
  20
475.798100
  0
VERTEX
  8
C7
  10
168.554700
  20
475.696700
  0
VERTEX
  8
C7
  10
167.559600
  20
475.613700
  0
VERTEX
  8
C7
  10
166.548100
  20
475.548000
  0
VERTEX
  8
C7
  10
165.521700
  20
475.498800
  0
VERTEX
  8
C7
  10
164.481700
  20
475.465200
  0
VERTEX
  8
C7
  10
163.429700
  20
475.446100
  0
VERTEX
  8
C7
  10
162.367100
  20
475.440600
  0
VERTEX
  8
C7
  10
161.295400
  20
475.447800
  0
VERTEX
  8
C7
  10
160.216000
  20
475.466700
  0
VERTEX
  8
C7
  10
159.130400
  20
475.496500
  0
VERTEX
  8
C7
  10
158.040000
  20
475.536100
  0
VERTEX
  8
C7
  10
156.946300
  20
475.584600
  0
VERTEX
  8
C7
  10
155.850800
  20
475.641100
  0
VERTEX
  8
C7
  10
154.754900
  20
475.704600
  0
VERTEX
  8
C7
  10
153.660000
  20
475.774200
  0
VERTEX
  8
C7
  10
152.567700
  20
475.848900
  0
VERTEX
  8
C7
  10
151.479400
  20
475.927900
  0
VERTEX
  8
C7
  10
150.396500
  20
476.010100
  0
VERTEX
  8
C7
  10
149.320500
  20
476.094600
  0
VERTEX
  8
C7
  10
148.252900
  20
476.180500
  0
VERTEX
  8
C7
  10
147.195100
  20
476.266900
  0
VERTEX
  8
C7
  10
146.148600
  20
476.352700
  0
VERTEX
  8
C7
  10
145.114800
  20
476.437100
  0
VERTEX
  8
C7
  10
144.095100
  20
476.519100
  0
VERTEX
  8
C7
  10
143.091200
  20
476.597700
  0
VERTEX
  8
C7
  10
142.104300
  20
476.672100
  0
VERTEX
  8
C7
  10
141.136000
  20
476.741200
  0
VERTEX
  8
C7
  10
140.187700
  20
476.804200
  0
VERTEX
  8
C7
  10
139.260900
  20
476.860100
  0
VERTEX
  8
C7
  10
138.357000
  20
476.907900
  0
VERTEX
  8
C7
  10
137.477500
  20
476.946800
  0
VERTEX
  8
C7
  10
136.623900
  20
476.975700
  0
VERTEX
  8
C7
  10
135.797500
  20
476.993700
  0
VERTEX
  8
C7
  10
135.000000
  20
477.000000
  0
VERTEX
  8
C7
  10
163.000000
  20
506.000000
  0
VERTEX
  8
C7
  10
133.000000
  20
478.027771
  0
VERTEX
  8
C7
  10
112.000000
  20
477.000000
  0
VERTEX
  8
C7
  10
112.000000
  20
476.000000
  0
VERTEX
  8
C7
  10
116.000000
  20
476.000000
  0
VERTEX
  8
C7
  10
116.000000
  20
434.000000
  0
VERTEX
  8
C7
  10
116.000000
  20
345.000000
  0
VERTEX
  8
C7
  10
117.000000
  20
345.000000
  0
VERTEX
  8
C7
  10
117.000000
  20
436.000000
  0
VERTEX
  8
C7
  10
117.000000
  20
476.000000
  0
VERTEX
  8
C7
  10
209.000000
  20
476.000000
  0
VERTEX
  8
C7
  10
209.000000
  20
255.000000
  0
VERTEX
  8
C7
  10
209.000000
  20
200.000000
  0
VERTEX
  8
C7
  10
210.603394
  20
180.603394
  0
VERTEX
  8
C7
  10
224.000000
  20
179.000000
  0
VERTEX
  8
C7
  10
260.000000
  20
179.000000
  0
VERTEX
  8
C7
  10
260.000000
  20
126.000000
  0
VERTEX
  8
C7
  10
261.000000
  20
126.000000
  0
VERTEX
  8
C7
  10
261.000000
  20
130.000000
  0
VERTEX
  8
C7
  10
274.000000
  20
128.000000
  0
VERTEX
  8
C7
  10
274.586100
  20
128.774600
  0
VERTEX
  8
C7
  10
275.243700
  20
129.415700
  0
VERTEX
  8
C7
  10
275.965400
  20
129.935100
  0
VERTEX
  8
C7
  10
276.744000
  20
130.344700
  0
VERTEX
  8
C7
  10
277.572300
  20
130.656400
  0
VERTEX
  8
C7
  10
278.443200
  20
130.882000
  0
VERTEX
  8
C7
  10
279.349200
  20
131.033500
  0
VERTEX
  8
C7
  10
280.283400
  20
131.122600
  0
VERTEX
  8
C7
  10
281.238300
  20
131.161300
  0
VERTEX
  8
C7
  10
282.206800
  20
131.161500
  0
VERTEX
  8
C7
  10
283.181600
  20
131.135000
  0
VERTEX
  8
C7
  10
284.155600
  20
131.093700
  0
VERTEX
  8
C7
  10
285.121400
  20
131.049600
  0
VERTEX
  8
C7
  10
286.072000
  20
131.014300
  0
VERTEX
  8
C7
  10
287.000000
  20
131.000000
  0
VERTEX
  8
C7
  10
324.000000
  20
131.000000
  0
VERTEX
  8
C7
  10
324.000000
  20
132.000000
  0
VERTEX
  8
C7
  10
261.000000
  20
132.000000
  0
VERTEX
  8
C7
  10
261.000000
  20
179.000000
  0
VERTEX
  8
C7
  10
547.000000
  20
179.000000
  0
VERTEX
  8
C7
  10
547.000000
  20
132.000000
  0
VERTEX
  8
C7
  10
484.000000
  20
132.000000
  0
VERTEX
  8
C7
  10
484.000000
  20
131.000000
  0
VERTEX
  8
C7
  10
521.000000
  20
131.000000
  0
VERTEX
  8
C7
  10
521.927900
  20
131.014300
  0
VERTEX
  8
C7
  10
522.878500
  20
131.049600
  0
VERTEX
  8
C7
  10
523.844300
  20
131.093800
  0
VERTEX
  8
C7
  10
524.818300
  20
131.135000
  0
VERTEX
  8
C7
  10
525.793100
  20
131.161500
  0
VERTEX
  8
C7
  10
526.761600
  20
131.161400
  0
VERTEX
  8
C7
  10
527.716500
  20
131.122600
  0
VERTEX
  8
C7
  10
528.650600
  20
131.033500
  0
VERTEX
  8
C7
  10
529.556600
  20
130.882100
  0
VERTEX
  8
C7
  10
530.427500
  20
130.656400
  0
VERTEX
  8
C7
  10
531.255800
  20
130.344800
  0
VERTEX
  8
C7
  10
532.034500
  20
129.935200
  0
VERTEX
  8
C7
  10
532.756200
  20
129.415700
  0
VERTEX
  8
C7
  10
533.413800
  20
128.774600
  0
VERTEX
  8
C7
  10
534.000000
  20
128.000000
  0
VERTEX
  8
C7
  10
547.000000
  20
130.000000
  0
VERTEX
  8
C7
  10
547.000000
  20
126.000000
  0
VERTEX
  8
C7
  10
548.000000
  20
126.000000
  0
VERTEX
  8
C7
  10
548.000000
  20
179.000000
  0
VERTEX
  8
C7
  10
585.000000
  20
179.000000
  0
VERTEX
  8
C7
  10
585.778300
  20
178.984700
  0
VERTEX
  8
C7
  10
586.628000
  20
178.946100
  0
VERTEX
  8
C7
  10
587.535500
  20
178.895200
  0
VERTEX
  8
C7
  10
588.487100
  20
178.843000
  0
VERTEX
  8
C7
  10
589.469200
  20
178.800400
  0
VERTEX
  8
C7
  10
590.468200
  20
178.778500
  0
VERTEX
  8
C7
  10
591.470500
  20
178.788100
  0
VERTEX
  8
C7
  10
592.462500
  20
178.840200
  0
VERTEX
  8
C7
  10
593.430400
  20
178.945900
  0
VERTEX
  8
C7
  10
594.360800
  20
179.116000
  0
VERTEX
  8
C7
  10
595.240000
  20
179.361600
  0
VERTEX
  8
C7
  10
596.054300
  20
179.693600
  0
VERTEX
  8
C7
  10
596.790200
  20
180.123000
  0
VERTEX
  8
C7
  10
597.434000
  20
180.660800
  0
VERTEX
  8
C7
  10
597.972200
  20
181.317900
  0
VERTEX
  8
C7
  10
598.342900
  20
181.932800
  0
VERTEX
  8
C7
  10
598.674800
  20
182.604100
  0
VERTEX
  8
C7
  10
598.969500
  20
183.328400
  0
VERTEX
  8
C7
  10
599.228600
  20
184.102400
  0
VERTEX
  8
C7
  10
599.454000
  20
184.922800
  0
VERTEX
  8
C7
  10
599.647200
  20
185.786300
  0
VERTEX
  8
C7
  10
599.810200
  20
186.689600
  0
VERTEX
  8
C7
  10
599.944500
  20
187.629300
  0
VERTEX
  8
C7
  10
600.051800
  20
188.602100
  0
VERTEX
  8
C7
  10
600.134000
  20
189.604800
  0
VERTEX
  8
C7
  10
600.192600
  20
190.634000
  0
VERTEX
  8
C7
  10
600.229500
  20
191.686300
  0
VERTEX
  8
C7
  10
600.246300
  20
192.758600
  0
VERTEX
  8
C7
  10
600.244700
  20
193.847400
  0
VERTEX
  8
C7
  10
600.226500
  20
194.949500
  0
VERTEX
  8
C7
  10
600.193400
  20
196.061500
  0
VERTEX
  8
C7
  10
600.147100
  20
197.180100
  0
VERTEX
  8
C7
  10
600.089300
  20
198.302100
  0
VERTEX
  8
C7
  10
600.021600
  20
199.424000
  0
VERTEX
  8
C7
  10
599.946000
  20
200.542700
  0
VERTEX
  8
C7
  10
599.864000
  20
201.654700
  0
VERTEX
  8
C7
  10
599.777300
  20
202.756800
  0
VERTEX
  8
C7
  10
599.687700
  20
203.845600
  0
VERTEX
  8
C7
  10
599.596900
  20
204.917800
  0
VERTEX
  8
C7
  10
599.506700
  20
205.970200
  0
VERTEX
  8
C7
  10
599.418600
  20
206.999400
  0
VERTEX
  8
C7
  10
599.334500
  20
208.002000
  0
VERTEX
  8
C7
  10
599.256000
  20
208.974800
  0
VERTEX
  8
C7
  10
599.184900
  20
209.914500
  0
VERTEX
  8
C7
  10
599.122900
  20
210.817800
  0
VERTEX
  8
C7
  10
599.071700
  20
211.681300
  0
VERTEX
  8
C7
  10
599.033000
  20
212.501700
  0
VERTEX
  8
C7
  10
599.008500
  20
213.275700
  0
VERTEX
  8
C7
  10
599.000000
  20
214.000000
  0
VERTEX
  8
C7
  10
703.000000
  20
214.000000
  0
VERTEX
  8
C7
  10
703.000000
  20
215.000000
  0
VERTEX
  8
C7
  10
699.000000
  20
215.000000
  0
VERTEX
  8
C7
  10
699.000000
  20
301.000000
  0
VERTEX
  8
C7
  10
698.000000
  20
301.000000
  0
VERTEX
  8
C7
  10
698.000000
  20
248.000000
  0
VERTEX
  8
C7
  10
698.012200
  20
247.220800
  0
VERTEX
  8
C7
  10
698.045500
  20
246.390300
  0
VERTEX
  8
C7
  10
698.094500
  20
245.515000
  0
VERTEX
  8
C7
  10
698.153900
  20
244.601400
  0
VERTEX
  8
C7
  10
698.218500
  20
243.656000
  0
VERTEX
  8
C7
  10
698.283100
  20
242.685300
  0
VERTEX
  8
C7
  10
698.342200
  20
241.695600
  0
VERTEX
  8
C7
  10
698.390700
  20
240.693600
  0
VERTEX
  8
C7
  10
698.423400
  20
239.685800
  0
VERTEX
  8
C7
  10
698.434800
  20
238.678500
  0
VERTEX
  8
C7
  10
698.419800
  20
237.678300
  0
VERTEX
  8
C7
  10
698.373000
  20
236.691700
  0
VERTEX
  8
C7
  10
698.289200
  20
235.725200
  0
VERTEX
  8
C7
  10
698.163200
  20
234.785200
  0
VERTEX
  8
C7
  10
697.989600
  20
233.878300
  0
VERTEX
  8
C7
  10
697.763200
  20
233.010900
  0
VERTEX
  8
C7
  10
697.478600
  20
232.189500
  0
VERTEX
  8
C7
  10
697.130700
  20
231.420700
  0
VERTEX
  8
C7
  10
696.714200
  20
230.710800
  0
VERTEX
  8
C7
  10
696.223700
  20
230.066400
  0
VERTEX
  8
C7
  10
695.654100
  20
229.493900
  0
VERTEX
  8
C7
  10
695.000000
  20
229.000000
  0
VERTEX
  8
C7
  10
697.000000
  20
215.000000
  0
VERTEX
  8
C7
  10
599.000000
  20
215.000000
  0
VERTEX
  8
C7
  10
599.000000
  20
412.000000
  0
VERTEX
  8
C7
  10
697.000000
  20
412.000000
  0
VERTEX
  8
C7
  10
695.000000
  20
399.000000
  0
VERTEX
  8
C7
  10
695.654100
  20
398.506000
  0
VERTEX
  8
C7
  10
696.223700
  20
397.933500
  0
VERTEX
  8
C7
  10
696.714200
  20
397.289100
  0
VERTEX
  8
C7
  10
697.130700
  20
396.579200
  0
VERTEX
  8
C7
  10
697.478600
  20
395.810400
  0
VERTEX
  8
C7
  10
697.763200
  20
394.989000
  0
VERTEX
  8
C7
  10
697.989600
  20
394.121600
  0
VERTEX
  8
C7
  10
698.163200
  20
393.214700
  0
VERTEX
  8
C7
  10
698.289200
  20
392.274700
  0
VERTEX
  8
C7
  10
698.373000
  20
391.308200
  0
VERTEX
  8
C7
  10
698.419800
  20
390.321600
  0
VERTEX
  8
C7
  10
698.434800
  20
389.321400
  0
VERTEX
  8
C7
  10
698.423400
  20
388.314100
  0
VERTEX
  8
C7
  10
698.390700
  20
387.306300
  0
VERTEX
  8
C7
  10
698.342200
  20
386.304300
  0
VERTEX
  8
C7
  10
698.283100
  20
385.314600
  0
VERTEX
  8
C7
  10
698.218500
  20
384.343900
  0
VERTEX
  8
C7
  10
698.153900
  20
383.398500
  0
VERTEX
  8
C7
  10
698.094500
  20
382.484900
  0
VERTEX
  8
C7
  10
698.045500
  20
381.609600
  0
VERTEX
  8
C7
  10
698.012200
  20
380.779100
  0
VERTEX
  8
C7
  10
698.000000
  20
380.000000
  0
VERTEX
  8
C7
  10
698.000000
  20
326.000000
  0
VERTEX
  8
C7
  10
699.000000
  20
326.000000
  0
VERTEX
  8
C7
  10
699.000000
  20
378.000000
  0
VERTEX
  8
C7
  10
701.000000
  20
399.000000
  0
VERTEX
  8
C7
  10
699.000000
  20
412.000000
  0
VERTEX
  8
C7
  10
703.000000
  20
412.000000
  0
VERTEX
  8
C7
  10
703.000000
  20
413.000000
  0
VERTEX
  8
C7
  10
699.000000
  20
413.000000
  0
VERTEX
  8
C7
  10
701.000000
  20
427.000000
  0
VERTEX
  8
C7
  10
698.000000
  20
432.000000
  0
VERTEX
  8
C7
  10
697.000000
  20
432.000000
  0
VERTEX
  8
C7
  10
697.000000
  20
413.000000
  0
VERTEX
  8
C7
  10
599.000000
  20
413.000000
  0
VERTEX
  8
C7
  10
599.003100
  20
413.901900
  0
VERTEX
  8
C7
  10
599.012500
  20
414.812800
  0
VERTEX
  8
C7
  10
599.027600
  20
415.732500
  0
VERTEX
  8
C7
  10
599.048200
  20
416.660600
  0
VERTEX
  8
C7
  10
599.074000
  20
417.596900
  0
VERTEX
  8
C7
  10
599.104600
  20
418.541000
  0
VERTEX
  8
C7
  10
599.139800
  20
419.492500
  0
VERTEX
  8
C7
  10
599.179100
  20
420.451300
  0
VERTEX
  8
C7
  10
599.222300
  20
421.416900
  0
VERTEX
  8
C7
  10
599.269000
  20
422.389100
  0
VERTEX
  8
C7
  10
599.319000
  20
423.367500
  0
VERTEX
  8
C7
  10
599.371800
  20
424.351900
  0
VERTEX
  8
C7
  10
599.427100
  20
425.341900
  0
VERTEX
  8
C7
  10
599.484700
  20
426.337200
  0
VERTEX
  8
C7
  10
599.544200
  20
427.337500
  0
VERTEX
  8
C7
  10
599.605300
  20
428.342500
  0
VERTEX
  8
C7
  10
599.667700
  20
429.351900
  0
VERTEX
  8
C7
  10
599.730900
  20
430.365400
  0
VERTEX
  8
C7
  10
599.794800
  20
431.382600
  0
VERTEX
  8
C7
  10
599.858900
  20
432.403300
  0
VERTEX
  8
C7
  10
599.923000
  20
433.427100
  0
VERTEX
  8
C7
  10
599.986600
  20
434.453800
  0
VERTEX
  8
C7
  10
600.049600
  20
435.483000
  0
VERTEX
  8
C7
  10
600.111600
  20
436.514300
  0
VERTEX
  8
C7
  10
600.172200
  20
437.547600
  0
VERTEX
  8
C7
  10
600.231100
  20
438.582400
  0
VERTEX
  8
C7
  10
600.288000
  20
439.618500
  0
VERTEX
  8
C7
  10
600.342600
  20
440.655600
  0
VERTEX
  8
C7
  10
600.394500
  20
441.693300
  0
VERTEX
  8
C7
  10
600.443400
  20
442.731300
  0
VERTEX
  8
C7
  10
600.489000
  20
443.769400
  0
VERTEX
  8
C7
  10
600.531000
  20
444.807200
  0
VERTEX
  8
C7
  10
600.568900
  20
445.844300
  0
VERTEX
  8
C7
  10
600.602600
  20
446.880600
  0
VERTEX
  8
C7
  10
600.631700
  20
447.915600
  0
VERTEX
  8
C7
  10
600.655900
  20
448.949100
  0
VERTEX
  8
C7
  10
600.674700
  20
449.980800
  0
VERTEX
  8
C7
  10
600.688000
  20
451.010300
  0
VERTEX
  8
C7
  10
600.695300
  20
452.037300
  0
VERTEX
  8
C7
  10
600.696400
  20
453.061600
  0
VERTEX
  8
C7
  10
600.691000
  20
454.082700
  0
VERTEX
  8
C7
  10
600.678600
  20
455.100500
  0
VERTEX
  8
C7
  10
600.659000
  20
456.114600
  0
VERTEX
  8
C7
  10
600.631800
  20
457.124600
  0
VERTEX
  8
C7
  10
600.596800
  20
458.130300
  0
VERTEX
  8
C7
  10
600.553500
  20
459.131300
  0
VERTEX
  8
C7
  10
600.501700
  20
460.127400
  0
VERTEX
  8
C7
  10
600.441100
  20
461.118200
  0
VERTEX
  8
C7
  10
600.371200
  20
462.103400
  0
VERTEX
  8
C7
  10
600.291900
  20
463.082700
  0
VERTEX
  8
C7
  10
600.202700
  20
464.055800
  0
VERTEX
  8
C7
  10
600.103400
  20
465.022400
  0
VERTEX
  8
C7
  10
599.993600
  20
465.982200
  0
VERTEX
  8
C7
  10
599.872900
  20
466.934800
  0
VERTEX
  8
C7
  10
599.741200
  20
467.880000
  0
VERTEX
  8
C7
  10
599.597900
  20
468.817400
  0
VERTEX
  8
C7
  10
599.442900
  20
469.746800
  0
VERTEX
  8
C7
  10
599.275700
  20
470.667700
  0
VERTEX
  8
C7
  10
599.096100
  20
471.580000
  0
VERTEX
  8
C7
  10
598.903700
  20
472.483300
  0
VERTEX
  8
C7
  10
598.698200
  20
473.377200
  0
VERTEX
  8
C7
  10
598.479300
  20
474.261500
  0
VERTEX
  8
C7
  10
598.246700
  20
475.135800
  0
VERTEX
  8
C7
  10
598.000000
  20
476.000000
  0
VERTEX
  8
C7
  10
657.000000
  20
476.000000
  0
VERTEX
  8
C7
  10
657.000000
  20
477.000000
  0
VERTEX
  8
C7
  10
632.000000
  20
477.000000
  0
VERTEX
  8
C7
  10
660.000000
  20
506.000000
  0
VERTEX
  8
C7
  10
659.236400
  20
505.446700
  0
VERTEX
  8
C7
  10
658.483400
  20
504.871000
  0
VERTEX
  8
C7
  10
657.740300
  20
504.274400
  0
VERTEX
  8
C7
  10
657.006500
  20
503.657900
  0
VERTEX
  8
C7
  10
656.281500
  20
503.022900
  0
VERTEX
  8
C7
  10
655.564500
  20
502.370700
  0
VERTEX
  8
C7
  10
654.855000
  20
501.702400
  0
VERTEX
  8
C7
  10
654.152400
  20
501.019400
  0
VERTEX
  8
C7
  10
653.456000
  20
500.322800
  0
VERTEX
  8
C7
  10
652.765300
  20
499.614100
  0
VERTEX
  8
C7
  10
652.079700
  20
498.894400
  0
VERTEX
  8
C7
  10
651.398500
  20
498.165000
  0
VERTEX
  8
C7
  10
650.721100
  20
497.427100
  0
VERTEX
  8
C7
  10
650.046900
  20
496.682100
  0
VERTEX
  8
C7
  10
649.375400
  20
495.931200
  0
VERTEX
  8
C7
  10
648.705800
  20
495.175600
  0
VERTEX
  8
C7
  10
648.037700
  20
494.416600
  0
VERTEX
  8
C7
  10
647.370300
  20
493.655400
  0
VERTEX
  8
C7
  10
646.703000
  20
492.893400
  0
VERTEX
  8
C7
  10
646.035400
  20
492.131800
  0
VERTEX
  8
C7
  10
645.366600
  20
491.371800
  0
VERTEX
  8
C7
  10
644.696200
  20
490.614800
  0
VERTEX
  8
C7
  10
644.023600
  20
489.861900
  0
VERTEX
  8
C7
  10
643.348000
  20
489.114400
  0
VERTEX
  8
C7
  10
642.669000
  20
488.373700
  0
VERTEX
  8
C7
  10
641.985800
  20
487.640900
  0
VERTEX
  8
C7
  10
641.298000
  20
486.917300
  0
VERTEX
  8
C7
  10
640.604800
  20
486.204200
  0
VERTEX
  8
C7
  10
639.905700
  20
485.502900
  0
VERTEX
  8
C7
  10
639.200100
  20
484.814500
  0
VERTEX
  8
C7
  10
638.487300
  20
484.140400
  0
VERTEX
  8
C7
  10
637.766700
  20
483.481900
  0
VERTEX
  8
C7
  10
637.037800
  20
482.840100
  0
VERTEX
  8
C7
  10
636.299800
  20
482.216300
  0
VERTEX
  8
C7
  10
635.552300
  20
481.611900
  0
VERTEX
  8
C7
  10
634.794600
  20
481.028100
  0
VERTEX
  8
C7
  10
634.026100
  20
480.466100
  0
VERTEX
  8
C7
  10
633.246100
  20
479.927200
  0
VERTEX
  8
C7
  10
632.454200
  20
479.412600
  0
VERTEX
  8
C7
  10
631.649500
  20
478.923600
  0
VERTEX
  8
C7
  10
630.831700
  20
478.461600
  0
VERTEX
  8
C7
  10
630.000000
  20
478.027700
  0
VERTEX
  8
C7
  10
629.281700
  20
477.691100
  0
VERTEX
  8
C7
  10
628.531000
  20
477.382300
  0
VERTEX
  8
C7
  10
627.749300
  20
477.100300
  0
VERTEX
  8
C7
  10
626.938000
  20
476.844100
  0
VERTEX
  8
C7
  10
626.098700
  20
476.613000
  0
VERTEX
  8
C7
  10
625.232800
  20
476.405800
  0
VERTEX
  8
C7
  10
624.341700
  20
476.221600
  0
VERTEX
  8
C7
  10
623.426900
  20
476.059600
  0
VERTEX
  8
C7
  10
622.489800
  20
475.918700
  0
VERTEX
  8
C7
  10
621.531900
  20
475.798100
  0
VERTEX
  8
C7
  10
620.554700
  20
475.696700
  0
VERTEX
  8
C7
  10
619.559700
  20
475.613700
  0
VERTEX
  8
C7
  10
618.548200
  20
475.548000
  0
VERTEX
  8
C7
  10
617.521700
  20
475.498800
  0
VERTEX
  8
C7
  10
616.481800
  20
475.465200
  0
VERTEX
  8
C7
  10
615.429800
  20
475.446100
  0
VERTEX
  8
C7
  10
614.367200
  20
475.440600
  0
VERTEX
  8
C7
  10
613.295400
  20
475.447800
  0
VERTEX
  8
C7
  10
612.216000
  20
475.466700
  0
VERTEX
  8
C7
  10
611.130400
  20
475.496500
  0
VERTEX
  8
C7
  10
610.040000
  20
475.536100
  0
VERTEX
  8
C7
  10
608.946400
  20
475.584600
  0
VERTEX
  8
C7
  10
607.850800
  20
475.641100
  0
VERTEX
  8
C7
  10
606.754900
  20
475.704600
  0
VERTEX
  8
C7
  10
605.660100
  20
475.774200
  0
VERTEX
  8
C7
  10
604.567800
  20
475.848900
  0
VERTEX
  8
C7
  10
603.479400
  20
475.927900
  0
VERTEX
  8
C7
  10
602.396500
  20
476.010100
  0
VERTEX
  8
C7
  10
601.320600
  20
476.094600
  0
VERTEX
  8
C7
  10
600.252900
  20
476.180500
  0
VERTEX
  8
C7
  10
599.195100
  20
476.266900
  0
VERTEX
  8
C7
  10
598.148600
  20
476.352700
  0
VERTEX
  8
C7
  10
597.114800
  20
476.437100
  0
VERTEX
  8
C7
  10
596.095100
  20
476.519100
  0
VERTEX
  8
C7
  10
595.091200
  20
476.597700
  0
VERTEX
  8
C7
  10
594.104300
  20
476.672100
  0
VERTEX
  8
C7
  10
593.136000
  20
476.741200
  0
VERTEX
  8
C7
  10
592.187700
  20
476.804200
  0
VERTEX
  8
C7
  10
591.260900
  20
476.860100
  0
VERTEX
  8
C7
  10
590.357000
  20
476.907900
  0
VERTEX
  8
C7
  10
589.477500
  20
476.946800
  0
VERTEX
  8
C7
  10
588.623900
  20
476.975700
  0
VERTEX
  8
C7
  10
587.797500
  20
476.993700
  0
VERTEX
  8
C7
  10
587.000000
  20
477.000000
  0
VERTEX
  8
C7
  10
615.000000
  20
506.000000
  0
VERTEX
  8
C7
  10
614.236400
  20
505.446700
  0
VERTEX
  8
C7
  10
613.483400
  20
504.871000
  0
VERTEX
  8
C7
  10
612.740300
  20
504.274400
  0
VERTEX
  8
C7
  10
612.006500
  20
503.657900
  0
VERTEX
  8
C7
  10
611.281500
  20
503.022900
  0
VERTEX
  8
C7
  10
610.564500
  20
502.370700
  0
VERTEX
  8
C7
  10
609.855000
  20
501.702400
  0
VERTEX
  8
C7
  10
609.152400
  20
501.019400
  0
VERTEX
  8
C7
  10
608.456000
  20
500.322800
  0
VERTEX
  8
C7
  10
607.765300
  20
499.614100
  0
VERTEX
  8
C7
  10
607.079700
  20
498.894400
  0
VERTEX
  8
C7
  10
606.398500
  20
498.165000
  0
VERTEX
  8
C7
  10
605.721100
  20
497.427100
  0
VERTEX
  8
C7
  10
605.047000
  20
496.682100
  0
VERTEX
  8
C7
  10
604.375400
  20
495.931200
  0
VERTEX
  8
C7
  10
603.705800
  20
495.175600
  0
VERTEX
  8
C7
  10
603.037700
  20
494.416600
  0
VERTEX
  8
C7
  10
602.370300
  20
493.655400
  0
VERTEX
  8
C7
  10
601.703000
  20
492.893400
  0
VERTEX
  8
C7
  10
601.035400
  20
492.131800
  0
VERTEX
  8
C7
  10
600.366600
  20
491.371800
  0
VERTEX
  8
C7
  10
599.696200
  20
490.614800
  0
VERTEX
  8
C7
  10
599.023600
  20
489.861900
  0
VERTEX
  8
C7
  10
598.348000
  20
489.114400
  0
VERTEX
  8
C7
  10
597.669000
  20
488.373700
  0
VERTEX
  8
C7
  10
596.985800
  20
487.640900
  0
VERTEX
  8
C7
  10
596.298000
  20
486.917300
  0
VERTEX
  8
C7
  10
595.604800
  20
486.204200
  0
VERTEX
  8
C7
  10
594.905700
  20
485.502900
  0
VERTEX
  8
C7
  10
594.200100
  20
484.814500
  0
VERTEX
  8
C7
  10
593.487300
  20
484.140400
  0
VERTEX
  8
C7
  10
592.766700
  20
483.481900
  0
VERTEX
  8
C7
  10
592.037800
  20
482.840100
  0
VERTEX
  8
C7
  10
591.299800
  20
482.216300
  0
VERTEX
  8
C7
  10
590.552300
  20
481.611900
  0
VERTEX
  8
C7
  10
589.794600
  20
481.028100
  0
VERTEX
  8
C7
  10
589.026100
  20
480.466100
  0
VERTEX
  8
C7
  10
588.246100
  20
479.927200
  0
VERTEX
  8
C7
  10
587.454200
  20
479.412600
  0
VERTEX
  8
C7
  10
586.649500
  20
478.923600
  0
VERTEX
  8
C7
  10
585.831700
  20
478.461600
  0
VERTEX
  8
C7
  10
585.000000
  20
478.027700
  0
VERTEX
  8
C7
  10
584.281700
  20
477.691100
  0
VERTEX
  8
C7
  10
583.531000
  20
477.382300
  0
VERTEX
  8
C7
  10
582.749300
  20
477.100300
  0
VERTEX
  8
C7
  10
581.938000
  20
476.844100
  0
VERTEX
  8
C7
  10
581.098700
  20
476.613000
  0
VERTEX
  8
C7
  10
580.232800
  20
476.405800
  0
VERTEX
  8
C7
  10
579.341700
  20
476.221600
  0
VERTEX
  8
C7
  10
578.426900
  20
476.059600
  0
VERTEX
  8
C7
  10
577.489800
  20
475.918700
  0
VERTEX
  8
C7
  10
576.531900
  20
475.798100
  0
VERTEX
  8
C7
  10
575.554700
  20
475.696700
  0
VERTEX
  8
C7
  10
574.559700
  20
475.613700
  0
VERTEX
  8
C7
  10
573.548200
  20
475.548000
  0
VERTEX
  8
C7
  10
572.521700
  20
475.498800
  0
VERTEX
  8
C7
  10
571.481800
  20
475.465200
  0
VERTEX
  8
C7
  10
570.429800
  20
475.446100
  0
VERTEX
  8
C7
  10
569.367200
  20
475.440600
  0
VERTEX
  8
C7
  10
568.295400
  20
475.447800
  0
VERTEX
  8
C7
  10
567.216000
  20
475.466700
  0
VERTEX
  8
C7
  10
566.130400
  20
475.496500
  0
VERTEX
  8
C7
  10
565.040000
  20
475.536100
  0
VERTEX
  8
C7
  10
563.946400
  20
475.584600
  0
VERTEX
  8
C7
  10
562.850800
  20
475.641100
  0
VERTEX
  8
C7
  10
561.754900
  20
475.704600
  0
VERTEX
  8
C7
  10
560.660100
  20
475.774200
  0
VERTEX
  8
C7
  10
559.567800
  20
475.848900
  0
VERTEX
  8
C7
  10
558.479400
  20
475.927900
  0
VERTEX
  8
C7
  10
557.396500
  20
476.010100
  0
VERTEX
  8
C7
  10
556.320600
  20
476.094600
  0
VERTEX
  8
C7
  10
555.252900
  20
476.180500
  0
VERTEX
  8
C7
  10
554.195100
  20
476.266900
  0
VERTEX
  8
C7
  10
553.148600
  20
476.352700
  0
VERTEX
  8
C7
  10
552.114800
  20
476.437100
  0
VERTEX
  8
C7
  10
551.095100
  20
476.519100
  0
VERTEX
  8
C7
  10
550.091200
  20
476.597700
  0
VERTEX
  8
C7
  10
549.104300
  20
476.672100
  0
VERTEX
  8
C7
  10
548.136000
  20
476.741200
  0
VERTEX
  8
C7
  10
547.187700
  20
476.804200
  0
VERTEX
  8
C7
  10
546.260900
  20
476.860100
  0
VERTEX
  8
C7
  10
545.357000
  20
476.907900
  0
VERTEX
  8
C7
  10
544.477500
  20
476.946800
  0
VERTEX
  8
C7
  10
543.623900
  20
476.975700
  0
VERTEX
  8
C7
  10
542.797500
  20
476.993700
  0
VERTEX
  8
C7
  10
542.000000
  20
477.000000
  0
VERTEX
  8
C7
  10
569.000000
  20
505.000000
  0
VERTEX
  8
C7
  10
568.244200
  20
504.452100
  0
VERTEX
  8
C7
  10
567.499200
  20
503.881800
  0
VERTEX
  8
C7
  10
566.764100
  20
503.290400
  0
VERTEX
  8
C7
  10
566.038400
  20
502.679300
  0
VERTEX
  8
C7
  10
565.321400
  20
502.049600
  0
VERTEX
  8
C7
  10
564.612600
  20
501.402700
  0
VERTEX
  8
C7
  10
563.911200
  20
500.739900
  0
VERTEX
  8
C7
  10
563.216700
  20
500.062600
  0
VERTEX
  8
C7
  10
562.528300
  20
499.371900
  0
VERTEX
  8
C7
  10
561.845600
  20
498.669200
  0
VERTEX
  8
C7
  10
561.167800
  20
497.955800
  0
VERTEX
  8
C7
  10
560.494300
  20
497.233000
  0
VERTEX
  8
C7
  10
559.824500
  20
496.502200
  0
VERTEX
  8
C7
  10
559.157700
  20
495.764500
  0
VERTEX
  8
C7
  10
558.493400
  20
495.021300
  0
VERTEX
  8
C7
  10
557.830900
  20
494.273900
  0
VERTEX
  8
C7
  10
557.169500
  20
493.523600
  0
VERTEX
  8
C7
  10
556.508600
  20
492.771800
  0
VERTEX
  8
C7
  10
555.847600
  20
492.019600
  0
VERTEX
  8
C7
  10
555.185900
  20
491.268400
  0
VERTEX
  8
C7
  10
554.522800
  20
490.519500
  0
VERTEX
  8
C7
  10
553.857700
  20
489.774200
  0
VERTEX
  8
C7
  10
553.190000
  20
489.033900
  0
VERTEX
  8
C7
  10
552.519000
  20
488.299700
  0
VERTEX
  8
C7
  10
551.844100
  20
487.573000
  0
VERTEX
  8
C7
  10
551.164700
  20
486.855200
  0
VERTEX
  8
C7
  10
550.480100
  20
486.147400
  0
VERTEX
  8
C7
  10
549.789700
  20
485.451000
  0
VERTEX
  8
C7
  10
549.092900
  20
484.767400
  0
VERTEX
  8
C7
  10
548.389100
  20
484.097700
  0
VERTEX
  8
C7
  10
547.677500
  20
483.443400
  0
VERTEX
  8
C7
  10
546.957600
  20
482.805600
  0
VERTEX
  8
C7
  10
546.228800
  20
482.185800
  0
VERTEX
  8
C7
  10
545.490400
  20
481.585200
  0
VERTEX
  8
C7
  10
544.741700
  20
481.005000
  0
VERTEX
  8
C7
  10
543.982200
  20
480.446700
  0
VERTEX
  8
C7
  10
543.211300
  20
479.911500
  0
VERTEX
  8
C7
  10
542.428200
  20
479.400700
  0
VERTEX
  8
C7
  10
541.632400
  20
478.915600
  0
VERTEX
  8
C7
  10
540.823200
  20
478.457500
  0
VERTEX
  8
C7
  10
540.000000
  20
478.027700
  0
VERTEX
  8
C7
  10
539.283300
  20
477.691500
  0
VERTEX
  8
C7
  10
538.534700
  20
477.382400
  0
VERTEX
  8
C7
  10
537.755500
  20
477.099700
  0
VERTEX
  8
C7
  10
536.947100
  20
476.842300
  0
VERTEX
  8
C7
  10
536.110900
  20
476.609400
  0
VERTEX
  8
C7
  10
535.248400
  20
476.400000
  0
VERTEX
  8
C7
  10
534.360800
  20
476.213400
  0
VERTEX
  8
C7
  10
533.449700
  20
476.048400
  0
VERTEX
  8
C7
  10
532.516400
  20
475.904300
  0
VERTEX
  8
C7
  10
531.562400
  20
475.780200
  0
VERTEX
  8
C7
  10
530.589000
  20
475.675200
  0
VERTEX
  8
C7
  10
529.597600
  20
475.588200
  0
VERTEX
  8
C7
  10
528.589700
  20
475.518600
  0
VERTEX
  8
C7
  10
527.566700
  20
475.465300
  0
VERTEX
  8
C7
  10
526.529900
  20
475.427400
  0
VERTEX
  8
C7
  10
525.480700
  20
475.404100
  0
VERTEX
  8
C7
  10
524.420700
  20
475.394400
  0
VERTEX
  8
C7
  10
523.351100
  20
475.397400
  0
VERTEX
  8
C7
  10
522.273300
  20
475.412300
  0
VERTEX
  8
C7
  10
521.188900
  20
475.438100
  0
VERTEX
  8
C7
  10
520.099100
  20
475.474000
  0
VERTEX
  8
C7
  10
519.005400
  20
475.519000
  0
VERTEX
  8
C7
  10
517.909200
  20
475.572200
  0
VERTEX
  8
C7
  10
516.811900
  20
475.632800
  0
VERTEX
  8
C7
  10
515.714900
  20
475.699800
  0
VERTEX
  8
C7
  10
514.619600
  20
475.772300
  0
VERTEX
  8
C7
  10
513.527500
  20
475.849400
  0
VERTEX
  8
C7
  10
512.439800
  20
475.930200
  0
VERTEX
  8
C7
  10
511.358000
  20
476.013900
  0
VERTEX
  8
C7
  10
510.283600
  20
476.099500
  0
VERTEX
  8
C7
  10
509.217800
  20
476.186100
  0
VERTEX
  8
C7
  10
508.162200
  20
476.272800
  0
VERTEX
  8
C7
  10
507.118200
  20
476.358700
  0
VERTEX
  8
C7
  10
506.087000
  20
476.442900
  0
VERTEX
  8
C7
  10
505.070300
  20
476.524600
  0
VERTEX
  8
C7
  10
504.069200
  20
476.602700
  0
VERTEX
  8
C7
  10
503.085300
  20
476.676500
  0
VERTEX
  8
C7
  10
502.120000
  20
476.744900
  0
VERTEX
  8
C7
  10
501.174600
  20
476.807200
  0
VERTEX
  8
C7
  10
500.250500
  20
476.862300
  0
VERTEX
  8
C7
  10
499.349300
  20
476.909500
  0
VERTEX
  8
C7
  10
498.472200
  20
476.947700
  0
VERTEX
  8
C7
  10
497.620700
  20
476.976100
  0
VERTEX
  8
C7
  10
496.796100
  20
476.993800
  0
VERTEX
  8
C7
  10
496.000000
  20
477.000000
  0
VERTEX
  8
C7
  10
524.000000
  20
506.000000
  0
VERTEX
  8
C7
  10
523.236400
  20
505.446600
  0
VERTEX
  8
C7
  10
522.483400
  20
504.871000
  0
VERTEX
  8
C7
  10
521.740300
  20
504.274400
  0
VERTEX
  8
C7
  10
521.006500
  20
503.657900
  0
VERTEX
  8
C7
  10
520.281500
  20
503.022900
  0
VERTEX
  8
C7
  10
519.564500
  20
502.370600
  0
VERTEX
  8
C7
  10
518.855000
  20
501.702300
  0
VERTEX
  8
C7
  10
518.152400
  20
501.019300
  0
VERTEX
  8
C7
  10
517.456000
  20
500.322800
  0
VERTEX
  8
C7
  10
516.765300
  20
499.614100
  0
VERTEX
  8
C7
  10
516.079700
  20
498.894400
  0
VERTEX
  8
C7
  10
515.398500
  20
498.164900
  0
VERTEX
  8
C7
  10
514.721100
  20
497.427100
  0
VERTEX
  8
C7
  10
514.047000
  20
496.682100
  0
VERTEX
  8
C7
  10
513.375400
  20
495.931100
  0
VERTEX
  8
C7
  10
512.705800
  20
495.175500
  0
VERTEX
  8
C7
  10
512.037700
  20
494.416500
  0
VERTEX
  8
C7
  10
511.370300
  20
493.655400
  0
VERTEX
  8
C7
  10
510.703000
  20
492.893400
  0
VERTEX
  8
C7
  10
510.035400
  20
492.131800
  0
VERTEX
  8
C7
  10
509.366600
  20
491.371800
  0
VERTEX
  8
C7
  10
508.696200
  20
490.614700
  0
VERTEX
  8
C7
  10
508.023600
  20
489.861900
  0
VERTEX
  8
C7
  10
507.348000
  20
489.114400
  0
VERTEX
  8
C7
  10
506.669000
  20
488.373700
  0
VERTEX
  8
C7
  10
505.985800
  20
487.640900
  0
VERTEX
  8
C7
  10
505.298000
  20
486.917300
  0
VERTEX
  8
C7
  10
504.604800
  20
486.204200
  0
VERTEX
  8
C7
  10
503.905700
  20
485.502800
  0
VERTEX
  8
C7
  10
503.200100
  20
484.814500
  0
VERTEX
  8
C7
  10
502.487300
  20
484.140400
  0
VERTEX
  8
C7
  10
501.766700
  20
483.481800
  0
VERTEX
  8
C7
  10
501.037800
  20
482.840100
  0
VERTEX
  8
C7
  10
500.299800
  20
482.216300
  0
VERTEX
  8
C7
  10
499.552300
  20
481.611900
  0
VERTEX
  8
C7
  10
498.794600
  20
481.028100
  0
VERTEX
  8
C7
  10
498.026100
  20
480.466100
  0
VERTEX
  8
C7
  10
497.246100
  20
479.927100
  0
VERTEX
  8
C7
  10
496.454200
  20
479.412600
  0
VERTEX
  8
C7
  10
495.649500
  20
478.923600
  0
VERTEX
  8
C7
  10
494.831700
  20
478.461600
  0
VERTEX
  8
C7
  10
494.000000
  20
478.027700
  0
VERTEX
  8
C7
  10
493.281700
  20
477.691100
  0
VERTEX
  8
C7
  10
492.531000
  20
477.382300
  0
VERTEX
  8
C7
  10
491.749300
  20
477.100300
  0
VERTEX
  8
C7
  10
490.938000
  20
476.844100
  0
VERTEX
  8
C7
  10
490.098700
  20
476.613000
  0
VERTEX
  8
C7
  10
489.232700
  20
476.405800
  0
VERTEX
  8
C7
  10
488.341600
  20
476.221600
  0
VERTEX
  8
C7
  10
487.426800
  20
476.059600
  0
VERTEX
  8
C7
  10
486.489700
  20
475.918700
  0
VERTEX
  8
C7
  10
485.531900
  20
475.798100
  0
VERTEX
  8
C7
  10
484.554700
  20
475.696700
  0
VERTEX
  8
C7
  10
483.559600
  20
475.613700
  0
VERTEX
  8
C7
  10
482.548100
  20
475.548000
  0
VERTEX
  8
C7
  10
481.521700
  20
475.498800
  0
VERTEX
  8
C7
  10
480.481700
  20
475.465200
  0
VERTEX
  8
C7
  10
479.429700
  20
475.446100
  0
VERTEX
  8
C7
  10
478.367100
  20
475.440600
  0
VERTEX
  8
C7
  10
477.295400
  20
475.447800
  0
VERTEX
  8
C7
  10
476.216000
  20
475.466700
  0
VERTEX
  8
C7
  10
475.130400
  20
475.496500
  0
VERTEX
  8
C7
  10
474.040000
  20
475.536100
  0
VERTEX
  8
C7
  10
472.946300
  20
475.584600
  0
VERTEX
  8
C7
  10
471.850800
  20
475.641100
  0
VERTEX
  8
C7
  10
470.754900
  20
475.704600
  0
VERTEX
  8
C7
  10
469.660000
  20
475.774200
  0
VERTEX
  8
C7
  10
468.567700
  20
475.848900
  0
VERTEX
  8
C7
  10
467.479400
  20
475.927900
  0
VERTEX
  8
C7
  10
466.396500
  20
476.010100
  0
VERTEX
  8
C7
  10
465.320500
  20
476.094600
  0
VERTEX
  8
C7
  10
464.252900
  20
476.180500
  0
VERTEX
  8
C7
  10
463.195100
  20
476.266900
  0
VERTEX
  8
C7
  10
462.148600
  20
476.352700
  0
VERTEX
  8
C7
  10
461.114800
  20
476.437100
  0
VERTEX
  8
C7
  10
460.095100
  20
476.519100
  0
VERTEX
  8
C7
  10
459.091200
  20
476.597700
  0
VERTEX
  8
C7
  10
458.104300
  20
476.672100
  0
VERTEX
  8
C7
  10
457.136000
  20
476.741200
  0
VERTEX
  8
C7
  10
456.187700
  20
476.804200
  0
VERTEX
  8
C7
  10
455.260900
  20
476.860100
  0
VERTEX
  8
C7
  10
454.357000
  20
476.907900
  0
VERTEX
  8
C7
  10
453.477500
  20
476.946800
  0
VERTEX
  8
C7
  10
452.623900
  20
476.975700
  0
VERTEX
  8
C7
  10
451.797500
  20
476.993700
  0
VERTEX
  8
C7
  10
451.000000
  20
477.000000
  0
VERTEX
  8
C7
  10
479.000000
  20
506.000000
  0
VERTEX
  8
C7
  10
478.236400
  20
505.446600
  0
VERTEX
  8
C7
  10
477.483400
  20
504.871000
  0
VERTEX
  8
C7
  10
476.740300
  20
504.274400
  0
VERTEX
  8
C7
  10
476.006500
  20
503.657900
  0
VERTEX
  8
C7
  10
475.281400
  20
503.022900
  0
VERTEX
  8
C7
  10
474.564500
  20
502.370600
  0
VERTEX
  8
C7
  10
473.855000
  20
501.702400
  0
VERTEX
  8
C7
  10
473.152400
  20
501.019300
  0
VERTEX
  8
C7
  10
472.456000
  20
500.322800
  0
VERTEX
  8
C7
  10
471.765300
  20
499.614100
  0
VERTEX
  8
C7
  10
471.079700
  20
498.894400
  0
VERTEX
  8
C7
  10
470.398500
  20
498.165000
  0
VERTEX
  8
C7
  10
469.721100
  20
497.427100
  0
VERTEX
  8
C7
  10
469.046900
  20
496.682100
  0
VERTEX
  8
C7
  10
468.375400
  20
495.931200
  0
VERTEX
  8
C7
  10
467.705800
  20
495.175500
  0
VERTEX
  8
C7
  10
467.037600
  20
494.416600
  0
VERTEX
  8
C7
  10
466.370200
  20
493.655400
  0
VERTEX
  8
C7
  10
465.703000
  20
492.893400
  0
VERTEX
  8
C7
  10
465.035300
  20
492.131800
  0
VERTEX
  8
C7
  10
464.366600
  20
491.371800
  0
VERTEX
  8
C7
  10
463.696200
  20
490.614800
  0
VERTEX
  8
C7
  10
463.023600
  20
489.861900
  0
VERTEX
  8
C7
  10
462.348000
  20
489.114500
  0
VERTEX
  8
C7
  10
461.669000
  20
488.373700
  0
VERTEX
  8
C7
  10
460.985900
  20
487.640900
  0
VERTEX
  8
C7
  10
460.298000
  20
486.917300
  0
VERTEX
  8
C7
  10
459.604800
  20
486.204200
  0
VERTEX
  8
C7
  10
458.905700
  20
485.502900
  0
VERTEX
  8
C7
  10
458.200100
  20
484.814500
  0
VERTEX
  8
C7
  10
457.487300
  20
484.140400
  0
VERTEX
  8
C7
  10
456.766700
  20
483.481900
  0
VERTEX
  8
C7
  10
456.037800
  20
482.840100
  0
VERTEX
  8
C7
  10
455.299900
  20
482.216400
  0
VERTEX
  8
C7
  10
454.552400
  20
481.612000
  0
VERTEX
  8
C7
  10
453.794600
  20
481.028100
  0
VERTEX
  8
C7
  10
453.026100
  20
480.466100
  0
VERTEX
  8
C7
  10
452.246200
  20
479.927200
  0
VERTEX
  8
C7
  10
451.454200
  20
479.412600
  0
VERTEX
  8
C7
  10
450.649600
  20
478.923700
  0
VERTEX
  8
C7
  10
449.831700
  20
478.461600
  0
VERTEX
  8
C7
  10
449.000000
  20
478.027700
  0
VERTEX
  8
C7
  10
448.281700
  20
477.691100
  0
VERTEX
  8
C7
  10
447.531000
  20
477.382300
  0
VERTEX
  8
C7
  10
446.749300
  20
477.100300
  0
VERTEX
  8
C7
  10
445.938000
  20
476.844100
  0
VERTEX
  8
C7
  10
445.098700
  20
476.613000
  0
VERTEX
  8
C7
  10
444.232700
  20
476.405800
  0
VERTEX
  8
C7
  10
443.341600
  20
476.221600
  0
VERTEX
  8
C7
  10
442.426800
  20
476.059600
  0
VERTEX
  8
C7
  10
441.489700
  20
475.918700
  0
VERTEX
  8
C7
  10
440.531900
  20
475.798100
  0
VERTEX
  8
C7
  10
439.554700
  20
475.696700
  0
VERTEX
  8
C7
  10
438.559600
  20
475.613700
  0
VERTEX
  8
C7
  10
437.548100
  20
475.548000
  0
VERTEX
  8
C7
  10
436.521700
  20
475.498800
  0
VERTEX
  8
C7
  10
435.481700
  20
475.465200
  0
VERTEX
  8
C7
  10
434.429700
  20
475.446100
  0
VERTEX
  8
C7
  10
433.367100
  20
475.440600
  0
VERTEX
  8
C7
  10
432.295400
  20
475.447800
  0
VERTEX
  8
C7
  10
431.216000
  20
475.466700
  0
VERTEX
  8
C7
  10
430.130400
  20
475.496500
  0
VERTEX
  8
C7
  10
429.040000
  20
475.536100
  0
VERTEX
  8
C7
  10
427.946300
  20
475.584600
  0
VERTEX
  8
C7
  10
426.850800
  20
475.641100
  0
VERTEX
  8
C7
  10
425.754900
  20
475.704600
  0
VERTEX
  8
C7
  10
424.660000
  20
475.774200
  0
VERTEX
  8
C7
  10
423.567700
  20
475.848900
  0
VERTEX
  8
C7
  10
422.479400
  20
475.927900
  0
VERTEX
  8
C7
  10
421.396500
  20
476.010100
  0
VERTEX
  8
C7
  10
420.320500
  20
476.094600
  0
VERTEX
  8
C7
  10
419.252900
  20
476.180500
  0
VERTEX
  8
C7
  10
418.195100
  20
476.266900
  0
VERTEX
  8
C7
  10
417.148600
  20
476.352700
  0
VERTEX
  8
C7
  10
416.114800
  20
476.437100
  0
VERTEX
  8
C7
  10
415.095100
  20
476.519100
  0
VERTEX
  8
C7
  10
414.091200
  20
476.597700
  0
VERTEX
  8
C7
  10
413.104300
  20
476.672100
  0
VERTEX
  8
C7
  10
412.136000
  20
476.741200
  0
VERTEX
  8
C7
  10
411.187700
  20
476.804200
  0
VERTEX
  8
C7
  10
410.260900
  20
476.860100
  0
VERTEX
  8
C7
  10
409.357000
  20
476.907900
  0
VERTEX
  8
C7
  10
408.477500
  20
476.946800
  0
VERTEX
  8
C7
  10
407.623900
  20
476.975700
  0
VERTEX
  8
C7
  10
406.797500
  20
476.993700
  0
VERTEX
  8
C7
  10
406.000000
  20
477.000000
  0
VERTEX
  8
C7
  10
434.000000
  20
506.000000
  0
VERTEX
  8
C7
  10
405.000000
  20
478.000000
  0
VERTEX
  8
C7
  10
404.000000
  20
529.000000
  0
VERTEX
  8
C7
  10
414.000000
  20
529.000000
  0
VERTEX
  8
C7
  10
403.000000
  20
530.000000
  0
SEQEND
  8
C7
  0
POLYLINE
  8
C7
  66
1
  10
427.000000
  20
530.000000
  0
VERTEX
  8
C7
  10
427.000000
  20
530.000000
  0
VERTEX
  8
C7
  10
427.000000
  20
529.000000
  0
VERTEX
  8
C7
  10
430.000000
  20
529.000000
  0
VERTEX
  8
C7
  10
427.000000
  20
530.000000
  0
SEQEND
  8
C7
  0
POLYLINE
  8
C7
  66
1
  10
443.000000
  20
530.000000
  0
VERTEX
  8
C7
  10
443.000000
  20
530.000000
  0
VERTEX
  8
C7
  10
443.000000
  20
526.000000
  0
VERTEX
  8
C7
  10
448.000000
  20
527.000000
  0
VERTEX
  8
C7
  10
443.000000
  20
530.000000
  0
SEQEND
  8
C7
  0
POLYLINE
  8
C7
  66
1
  10
450.666656
  20
529.666687
  0
VERTEX
  8
C7
  10
450.666656
  20
529.666687
  0
VERTEX
  8
C7
  10
451.333344
  20
529.333313
  0
VERTEX
  8
C7
  10
450.666656
  20
529.666687
  0
SEQEND
  8
C7
  0
POLYLINE
  8
C7
  66
1
  10
476.000000
  20
530.000000
  0
VERTEX
  8
C7
  10
476.000000
  20
530.000000
  0
VERTEX
  8
C7
  10
476.000000
  20
526.000000
  0
VERTEX
  8
C7
  10
478.000000
  20
526.000000
  0
VERTEX
  8
C7
  10
478.000000
  20
530.000000
  0
VERTEX
  8
C7
  10
476.000000
  20
530.000000
  0
SEQEND
  8
C7
  0
POLYLINE
  8
C7
  66
1
  10
487.666656
  20
529.666687
  0
VERTEX
  8
C7
  10
487.666656
  20
529.666687
  0
VERTEX
  8
C7
  10
488.333344
  20
529.333313
  0
VERTEX
  8
C7
  10
487.666656
  20
529.666687
  0
SEQEND
  8
C7
  0
POLYLINE
  8
C7
  66
1
  10
512.666687
  20
529.666687
  0
VERTEX
  8
C7
  10
512.666687
  20
529.666687
  0
VERTEX
  8
C7
  10
513.333313
  20
529.333313
  0
VERTEX
  8
C7
  10
512.666687
  20
529.666687
  0
SEQEND
  8
C7
  0
POLYLINE
  8
C7
  66
1
  10
280.000000
  20
528.000000
  0
VERTEX
  8
C7
  10
280.000000
  20
528.000000
  0
VERTEX
  8
C7
  10
280.000000
  20
518.000000
  0
VERTEX
  8
C7
  10
282.000000
  20
518.000000
  0
VERTEX
  8
C7
  10
285.000000
  20
526.000000
  0
VERTEX
  8
C7
  10
285.000000
  20
518.000000
  0
VERTEX
  8
C7
  10
288.000000
  20
518.000000
  0
VERTEX
  8
C7
  10
291.000000
  20
526.000000
  0
VERTEX
  8
C7
  10
291.000000
  20
518.000000
  0
VERTEX
  8
C7
  10
294.000000
  20
518.000000
  0
VERTEX
  8
C7
  10
293.976400
  20
519.278000
  0
VERTEX
  8
C7
  10
293.907700
  20
520.451000
  0
VERTEX
  8
C7
  10
293.793200
  20
521.523200
  0
VERTEX
  8
C7
  10
293.632500
  20
522.498500
  0
VERTEX
  8
C7
  10
293.425100
  20
523.381100
  0
VERTEX
  8
C7
  10
293.170700
  20
524.175100
  0
VERTEX
  8
C7
  10
292.868600
  20
524.884700
  0
VERTEX
  8
C7
  10
292.518500
  20
525.513800
  0
VERTEX
  8
C7
  10
292.119800
  20
526.066700
  0
VERTEX
  8
C7
  10
291.672200
  20
526.547400
  0
VERTEX
  8
C7
  10
291.175100
  20
526.960100
  0
VERTEX
  8
C7
  10
290.628100
  20
527.308800
  0
VERTEX
  8
C7
  10
290.030700
  20
527.597700
  0
VERTEX
  8
C7
  10
289.382400
  20
527.830800
  0
VERTEX
  8
C7
  10
288.682800
  20
528.012300
  0
VERTEX
  8
C7
  10
287.931400
  20
528.146300
  0
VERTEX
  8
C7
  10
287.127800
  20
528.236800
  0
VERTEX
  8
C7
  10
286.271400
  20
528.288100
  0
VERTEX
  8
C7
  10
285.361900
  20
528.304100
  0
VERTEX
  8
C7
  10
284.398700
  20
528.289000
  0
VERTEX
  8
C7
  10
283.381300
  20
528.247000
  0
VERTEX
  8
C7
  10
282.309400
  20
528.182000
  0
VERTEX
  8
C7
  10
281.182400
  20
528.098300
  0
VERTEX
  8
C7
  10
280.000000
  20
528.000000
  0
SEQEND
  8
C7
  0
POLYLINE
  8
C7
  66
1
  10
295.000000
  20
528.000000
  0
VERTEX
  8
C7
  10
295.000000
  20
528.000000
  0
VERTEX
  8
C7
  10
295.000000
  20
518.000000
  0
VERTEX
  8
C7
  10
298.000000
  20
518.000000
  0
VERTEX
  8
C7
  10
301.000000
  20
526.000000
  0
VERTEX
  8
C7
  10
301.000000
  20
518.000000
  0
VERTEX
  8
C7
  10
304.000000
  20
518.000000
  0
VERTEX
  8
C7
  10
305.000000
  20
526.000000
  0
VERTEX
  8
C7
  10
306.000000
  20
526.000000
  0
VERTEX
  8
C7
  10
307.000000
  20
518.000000
  0
VERTEX
  8
C7
  10
309.000000
  20
518.000000
  0
VERTEX
  8
C7
  10
308.979800
  20
519.307700
  0
VERTEX
  8
C7
  10
308.918900
  20
520.507800
  0
VERTEX
  8
C7
  10
308.816200
  20
521.604500
  0
VERTEX
  8
C7
  10
308.670500
  20
522.601800
  0
VERTEX
  8
C7
  10
308.480700
  20
523.503900
  0
VERTEX
  8
C7
  10
308.245600
  20
524.314700
  0
VERTEX
  8
C7
  10
307.964300
  20
525.038500
  0
VERTEX
  8
C7
  10
307.635400
  20
525.679400
  0
VERTEX
  8
C7
  10
307.257900
  20
526.241400
  0
VERTEX
  8
C7
  10
306.830700
  20
526.728700
  0
VERTEX
  8
C7
  10
306.352700
  20
527.145300
  0
VERTEX
  8
C7
  10
305.822700
  20
527.495400
  0
VERTEX
  8
C7
  10
305.239600
  20
527.783000
  0
VERTEX
  8
C7
  10
304.602300
  20
528.012300
  0
VERTEX
  8
C7
  10
303.909600
  20
528.187400
  0
VERTEX
  8
C7
  10
303.160500
  20
528.312400
  0
VERTEX
  8
C7
  10
302.353800
  20
528.391300
  0
VERTEX
  8
C7
  10
301.488400
  20
528.428300
  0
VERTEX
  8
C7
  10
300.563100
  20
528.427500
  0
VERTEX
  8
C7
  10
299.576900
  20
528.393000
  0
VERTEX
  8
C7
  10
298.528600
  20
528.328900
  0
VERTEX
  8
C7
  10
297.417100
  20
528.239300
  0
VERTEX
  8
C7
  10
296.241200
  20
528.128300
  0
VERTEX
  8
C7
  10
295.000000
  20
528.000000
  0
SEQEND
  8
C7
  0
POLYLINE
  8
C7
  66
1
  10
509.000000
  20
529.000000
  0
VERTEX
  8
C7
  10
509.000000
  20
529.000000
  0
VERTEX
  8
C7
  10
510.000000
  20
528.000000
  0
VERTEX
  8
C7
  10
509.000000
  20
529.000000
  0
SEQEND
  8
C7
  0
POLYLINE
  8
C7
  66
1
  10
543.000000
  20
529.000000
  0
VERTEX
  8
C7
  10
543.000000
  20
529.000000
  0
VERTEX
  8
C7
  10
542.000000
  20
528.000000
  0
VERTEX
  8
C7
  10
545.000000
  20
526.000000
  0
VERTEX
  8
C7
  10
543.000000
  20
529.000000
  0
SEQEND
  8
C7
  0
POLYLINE
  8
C7
  66
1
  10
427.666656
  20
526.666687
  0
VERTEX
  8
C7
  10
427.666656
  20
526.666687
  0
VERTEX
  8
C7
  10
428.333344
  20
526.333313
  0
VERTEX
  8
C7
  10
427.666656
  20
526.666687
  0
SEQEND
  8
C7
  0
POLYLINE
  8
C7
  66
1
  10
450.666656
  20
526.666687
  0
VERTEX
  8
C7
  10
450.666656
  20
526.666687
  0
VERTEX
  8
C7
  10
451.333344
  20
526.333313
  0
VERTEX
  8
C7
  10
450.666656
  20
526.666687
  0
SEQEND
  8
C7
  0
POLYLINE
  8
C7
  66
1
  10
487.666656
  20
526.666687
  0
VERTEX
  8
C7
  10
487.666656
  20
526.666687
  0
VERTEX
  8
C7
  10
488.333344
  20
526.333313
  0
VERTEX
  8
C7
  10
487.666656
  20
526.666687
  0
SEQEND
  8
C7
  0
POLYLINE
  8
C7
  66
1
  10
512.666687
  20
526.666687
  0
VERTEX
  8
C7
  10
512.666687
  20
526.666687
  0
VERTEX
  8
C7
  10
513.333313
  20
526.333313
  0
VERTEX
  8
C7
  10
512.666687
  20
526.666687
  0
SEQEND
  8
C7
  0
POLYLINE
  8
C7
  66
1
  10
239.000000
  20
526.000000
  0
VERTEX
  8
C7
  10
239.000000
  20
526.000000
  0
VERTEX
  8
C7
  10
238.000000
  20
523.000000
  0
VERTEX
  8
C7
  10
239.000000
  20
526.000000
  0
SEQEND
  8
C7
  0
POLYLINE
  8
C7
  66
1
  10
518.000000
  20
526.000000
  0
VERTEX
  8
C7
  10
518.000000
  20
526.000000
  0
VERTEX
  8
C7
  10
518.000000
  20
524.000000
  0
VERTEX
  8
C7
  10
520.000000
  20
524.000000
  0
VERTEX
  8
C7
  10
520.000000
  20
526.000000
  0
VERTEX
  8
C7
  10
518.000000
  20
526.000000
  0
SEQEND
  8
C7
  0
POLYLINE
  8
C7
  66
1
  10
72.000000
  20
506.000000
  0
VERTEX
  8
C7
  10
72.000000
  20
506.000000
  0
VERTEX
  8
C7
  10
65.000000
  20
498.000000
  0
VERTEX
  8
C7
  10
72.000000
  20
506.000000
  0
SEQEND
  8
C7
  0
POLYLINE
  8
C7
  66
1
  10
117.000000
  20
506.000000
  0
VERTEX
  8
C7
  10
117.000000
  20
506.000000
  0
VERTEX
  8
C7
  10
88.000000
  20
476.000000
  0
VERTEX
  8
C7
  10
88.573600
  20
476.406900
  0
VERTEX
  8
C7
  10
89.180100
  20
476.842700
  0
VERTEX
  8
C7
  10
89.817300
  20
477.306300
  0
VERTEX
  8
C7
  10
90.483300
  20
477.796600
  0
VERTEX
  8
C7
  10
91.175800
  20
478.312500
  0
VERTEX
  8
C7
  10
91.893000
  20
478.852900
  0
VERTEX
  8
C7
  10
92.632700
  20
479.416700
  0
VERTEX
  8
C7
  10
93.393000
  20
480.002900
  0
VERTEX
  8
C7
  10
94.171700
  20
480.610200
  0
VERTEX
  8
C7
  10
94.966800
  20
481.237600
  0
VERTEX
  8
C7
  10
95.776200
  20
481.883900
  0
VERTEX
  8
C7
  10
96.598000
  20
482.548200
  0
VERTEX
  8
C7
  10
97.430000
  20
483.229300
  0
VERTEX
  8
C7
  10
98.270300
  20
483.926000
  0
VERTEX
  8
C7
  10
99.116700
  20
484.637300
  0
VERTEX
  8
C7
  10
99.967200
  20
485.362100
  0
VERTEX
  8
C7
  10
100.819700
  20
486.099300
  0
VERTEX
  8
C7
  10
101.672300
  20
486.847800
  0
VERTEX
  8
C7
  10
102.522900
  20
487.606400
  0
VERTEX
  8
C7
  10
103.369400
  20
488.374100
  0
VERTEX
  8
C7
  10
104.209700
  20
489.149700
  0
VERTEX
  8
C7
  10
105.041900
  20
489.932300
  0
VERTEX
  8
C7
  10
105.863900
  20
490.720600
  0
VERTEX
  8
C7
  10
106.673500
  20
491.513500
  0
VERTEX
  8
C7
  10
107.468900
  20
492.310100
  0
VERTEX
  8
C7
  10
108.247900
  20
493.109000
  0
VERTEX
  8
C7
  10
109.008400
  20
493.909400
  0
VERTEX
  8
C7
  10
109.748500
  20
494.710000
  0
VERTEX
  8
C7
  10
110.466100
  20
495.509700
  0
VERTEX
  8
C7
  10
111.159000
  20
496.307500
  0
VERTEX
  8
C7
  10
111.825400
  20
497.102200
  0
VERTEX
  8
C7
  10
112.463100
  20
497.892800
  0
VERTEX
  8
C7
  10
113.070100
  20
498.678200
  0
VERTEX
  8
C7
  10
113.644300
  20
499.457100
  0
VERTEX
  8
C7
  10
114.183800
  20
500.228600
  0
VERTEX
  8
C7
  10
114.686300
  20
500.991600
  0
VERTEX
  8
C7
  10
115.150000
  20
501.744900
  0
VERTEX
  8
C7
  10
115.572600
  20
502.487400
  0
VERTEX
  8
C7
  10
115.952300
  20
503.218100
  0
VERTEX
  8
C7
  10
116.286900
  20
503.935700
  0
VERTEX
  8
C7
  10
116.574400
  20
504.639400
  0
VERTEX
  8
C7
  10
116.812800
  20
505.327800
  0
VERTEX
  8
C7
  10
117.000000
  20
506.000000
  0
SEQEND
  8
C7
  0
POLYLINE
  8
C7
  66
1
  10
704.000000
  20
506.000000
  0
VERTEX
  8
C7
  10
704.000000
  20
506.000000
  0
VERTEX
  8
C7
  10
703.413100
  20
505.404400
  0
VERTEX
  8
C7
  10
702.817000
  20
504.783000
  0
VERTEX
  8
C7
  10
702.211700
  20
504.137400
  0
VERTEX
  8
C7
  10
701.597500
  20
503.469200
  0
VERTEX
  8
C7
  10
700.974700
  20
502.780100
  0
VERTEX
  8
C7
  10
700.343500
  20
502.071700
  0
VERTEX
  8
C7
  10
699.704100
  20
501.345700
  0
VERTEX
  8
C7
  10
699.056700
  20
500.603700
  0
VERTEX
  8
C7
  10
698.401700
  20
499.847300
  0
VERTEX
  8
C7
  10
697.739100
  20
499.078200
  0
VERTEX
  8
C7
  10
697.069400
  20
498.298100
  0
VERTEX
  8
C7
  10
696.392600
  20
497.508600
  0
VERTEX
  8
C7
  10
695.709100
  20
496.711300
  0
VERTEX
  8
C7
  10
695.019000
  20
495.907800
  0
VERTEX
  8
C7
  10
694.322600
  20
495.099900
  0
VERTEX
  8
C7
  10
693.620200
  20
494.289200
  0
VERTEX
  8
C7
  10
692.912000
  20
493.477300
  0
VERTEX
  8
C7
  10
692.198100
  20
492.665800
  0
VERTEX
  8
C7
  10
691.478900
  20
491.856400
  0
VERTEX
  8
C7
  10
690.754600
  20
491.050800
  0
VERTEX
  8
C7
  10
690.025400
  20
490.250600
  0
VERTEX
  8
C7
  10
689.291500
  20
489.457400
  0
VERTEX
  8
C7
  10
688.553300
  20
488.672900
  0
VERTEX
  8
C7
  10
687.810800
  20
487.898700
  0
VERTEX
  8
C7
  10
687.064400
  20
487.136400
  0
VERTEX
  8
C7
  10
686.314300
  20
486.387800
  0
VERTEX
  8
C7
  10
685.560700
  20
485.654400
  0
VERTEX
  8
C7
  10
684.803900
  20
484.938000
  0
VERTEX
  8
C7
  10
684.044100
  20
484.240100
  0
VERTEX
  8
C7
  10
683.281500
  20
483.562400
  0
VERTEX
  8
C7
  10
682.516400
  20
482.906500
  0
VERTEX
  8
C7
  10
681.748900
  20
482.274100
  0
VERTEX
  8
C7
  10
680.979400
  20
481.666800
  0
VERTEX
  8
C7
  10
680.208100
  20
481.086300
  0
VERTEX
  8
C7
  10
679.435200
  20
480.534200
  0
VERTEX
  8
C7
  10
678.660900
  20
480.012200
  0
VERTEX
  8
C7
  10
677.885500
  20
479.521800
  0
VERTEX
  8
C7
  10
677.109300
  20
479.064900
  0
VERTEX
  8
C7
  10
676.332300
  20
478.642900
  0
VERTEX
  8
C7
  10
675.555000
  20
478.257500
  0
VERTEX
  8
C7
  10
674.777400
  20
477.910500
  0
VERTEX
  8
C7
  10
674.000000
  20
477.603400
  0
SEQEND
  8
C7
  0
POLYLINE
  8
C7
  66
1
  10
674.000000
  20
477.603300
  0
VERTEX
  8
C7
  10
674.000000
  20
477.603300
  0
VERTEX
  8
C7
  10
673.097600
  20
477.314300
  0
VERTEX
  8
C7
  10
672.156800
  20
477.092400
  0
VERTEX
  8
C7
  10
671.183500
  20
476.930300
  0
VERTEX
  8
C7
  10
670.183400
  20
476.820600
  0
VERTEX
  8
C7
  10
669.162500
  20
476.756000
  0
VERTEX
  8
C7
  10
668.126600
  20
476.729300
  0
VERTEX
  8
C7
  10
667.081400
  20
476.733000
  0
VERTEX
  8
C7
  10
666.033000
  20
476.760000
  0
VERTEX
  8
C7
  10
664.987100
  20
476.802900
  0
VERTEX
  8
C7
  10
663.949500
  20
476.854300
  0
VERTEX
  8
C7
  10
662.926200
  20
476.907100
  0
VERTEX
  8
C7
  10
661.922900
  20
476.953800
  0
VERTEX
  8
C7
  10
660.945600
  20
476.987200
  0
VERTEX
  8
C7
  10
660.000000
  20
477.000000
  0
VERTEX
  8
C7
  10
660.000000
  20
476.000000
  0
VERTEX
  8
C7
  10
697.000000
  20
476.000000
  0
VERTEX
  8
C7
  10
697.000000
  20
457.000000
  0
VERTEX
  8
C7
  10
698.000000
  20
457.000000
  0
VERTEX
  8
C7
  10
701.000000
  20
463.000000
  0
VERTEX
  8
C7
  10
699.000000
  20
476.000000
  0
VERTEX
  8
C7
  10
703.000000
  20
476.000000
  0
VERTEX
  8
C7
  10
703.000000
  20
477.000000
  0
VERTEX
  8
C7
  10
677.000000
  20
477.000000
  0
VERTEX
  8
C7
  10
677.549300
  20
477.539700
  0
VERTEX
  8
C7
  10
678.132400
  20
478.095000
  0
VERTEX
  8
C7
  10
678.747000
  20
478.665200
  0
VERTEX
  8
C7
  10
679.391000
  20
479.249900
  0
VERTEX
  8
C7
  10
680.062100
  20
479.848500
  0
VERTEX
  8
C7
  10
680.758300
  20
480.460300
  0
VERTEX
  8
C7
  10
681.477200
  20
481.085000
  0
VERTEX
  8
C7
  10
682.216900
  20
481.721800
  0
VERTEX
  8
C7
  10
682.975000
  20
482.370400
  0
VERTEX
  8
C7
  10
683.749500
  20
483.030000
  0
VERTEX
  8
C7
  10
684.538100
  20
483.700300
  0
VERTEX
  8
C7
  10
685.338600
  20
484.380600
  0
VERTEX
  8
C7
  10
686.149000
  20
485.070300
  0
VERTEX
  8
C7
  10
686.967000
  20
485.769000
  0
VERTEX
  8
C7
  10
687.790500
  20
486.476000
  0
VERTEX
  8
C7
  10
688.617200
  20
487.190900
  0
VERTEX
  8
C7
  10
689.445100
  20
487.913000
  0
VERTEX
  8
C7
  10
690.271900
  20
488.641900
  0
VERTEX
  8
C7
  10
691.095400
  20
489.377000
  0
VERTEX
  8
C7
  10
691.913600
  20
490.117700
  0
VERTEX
  8
C7
  10
692.724200
  20
490.863500
  0
VERTEX
  8
C7
  10
693.525000
  20
491.613800
  0
VERTEX
  8
C7
  10
694.314000
  20
492.368000
  0
VERTEX
  8
C7
  10
695.088800
  20
493.125800
  0
VERTEX
  8
C7
  10
695.847300
  20
493.886400
  0
VERTEX
  8
C7
  10
696.587500
  20
494.649300
  0
VERTEX
  8
C7
  10
697.307000
  20
495.414000
  0
VERTEX
  8
C7
  10
698.003700
  20
496.180000
  0
VERTEX
  8
C7
  10
698.675500
  20
496.946700
  0
VERTEX
  8
C7
  10
699.320200
  20
497.713400
  0
VERTEX
  8
C7
  10
699.935600
  20
498.479800
  0
VERTEX
  8
C7
  10
700.519400
  20
499.245200
  0
VERTEX
  8
C7
  10
701.069700
  20
500.009100
  0
VERTEX
  8
C7
  10
701.584100
  20
500.770900
  0
VERTEX
  8
C7
  10
702.060600
  20
501.530200
  0
VERTEX
  8
C7
  10
702.496900
  20
502.286200
  0
VERTEX
  8
C7
  10
702.890800
  20
503.038600
  0
VERTEX
  8
C7
  10
703.240300
  20
503.786700
  0
VERTEX
  8
C7
  10
703.543100
  20
504.530000
  0
VERTEX
  8
C7
  10
703.797000
  20
505.267900
  0
VERTEX
  8
C7
  10
704.000000
  20
506.000000
  0
SEQEND
  8
C7
  0
POLYLINE
  8
C7
  66
1
  10
260.000000
  20
180.000000
  0
VERTEX
  8
C7
  10
260.000000
  20
180.000000
  0
VERTEX
  8
C7
  10
260.000000
  20
211.000000
  0
VERTEX
  8
C7
  10
261.000000
  20
211.000000
  0
VERTEX
  8
C7
  10
261.000000
  20
180.000000
  0
VERTEX
  8
C7
  10
547.000000
  20
180.000000
  0
VERTEX
  8
C7
  10
547.000000
  20
211.000000
  0
VERTEX
  8
C7
  10
548.000000
  20
211.000000
  0
VERTEX
  8
C7
  10
548.000000
  20
180.000000
  0
VERTEX
  8
C7
  10
584.000000
  20
180.000000
  0
VERTEX
  8
C7
  10
584.768400
  20
179.981300
  0
VERTEX
  8
C7
  10
585.639700
  20
179.933700
  0
VERTEX
  8
C7
  10
586.594200
  20
179.869500
  0
VERTEX
  8
C7
  10
587.612300
  20
179.801000
  0
VERTEX
  8
C7
  10
588.674400
  20
179.740700
  0
VERTEX
  8
C7
  10
589.760800
  20
179.700800
  0
VERTEX
  8
C7
  10
590.851900
  20
179.693800
  0
VERTEX
  8
C7
  10
591.928100
  20
179.732000
  0
VERTEX
  8
C7
  10
592.969700
  20
179.827700
  0
VERTEX
  8
C7
  10
593.957100
  20
179.993500
  0
VERTEX
  8
C7
  10
594.870700
  20
180.241500
  0
VERTEX
  8
C7
  10
595.690800
  20
180.584300
  0
VERTEX
  8
C7
  10
596.397900
  20
181.034000
  0
VERTEX
  8
C7
  10
596.972200
  20
181.603300
  0
VERTEX
  8
C7
  10
597.348400
  20
182.139400
  0
VERTEX
  8
C7
  10
597.685200
  20
182.743400
  0
VERTEX
  8
C7
  10
597.984000
  20
183.411200
  0
VERTEX
  8
C7
  10
598.246800
  20
184.139000
  0
VERTEX
  8
C7
  10
598.475200
  20
184.922700
  0
VERTEX
  8
C7
  10
598.671000
  20
185.758200
  0
VERTEX
  8
C7
  10
598.836000
  20
186.641700
  0
VERTEX
  8
C7
  10
598.971800
  20
187.569100
  0
VERTEX
  8
C7
  10
599.080200
  20
188.536300
  0
VERTEX
  8
C7
  10
599.163100
  20
189.539500
  0
VERTEX
  8
C7
  10
599.222000
  20
190.574600
  0
VERTEX
  8
C7
  10
599.258800
  20
191.637700
  0
VERTEX
  8
C7
  10
599.275200
  20
192.724600
  0
VERTEX
  8
C7
  10
599.273000
  20
193.831500
  0
VERTEX
  8
C7
  10
599.253900
  20
194.954300
  0
VERTEX
  8
C7
  10
599.219600
  20
196.089100
  0
VERTEX
  8
C7
  10
599.171900
  20
197.231800
  0
VERTEX
  8
C7
  10
599.112500
  20
198.378400
  0
VERTEX
  8
C7
  10
599.043200
  20
199.525000
  0
VERTEX
  8
C7
  10
598.965800
  20
200.667500
  0
VERTEX
  8
C7
  10
598.881900
  20
201.802000
  0
VERTEX
  8
C7
  10
598.793300
  20
202.924400
  0
VERTEX
  8
C7
  10
598.701800
  20
204.030800
  0
VERTEX
  8
C7
  10
598.609100
  20
205.117200
  0
VERTEX
  8
C7
  10
598.516900
  20
206.179500
  0
VERTEX
  8
C7
  10
598.427000
  20
207.213900
  0
VERTEX
  8
C7
  10
598.341200
  20
208.216200
  0
VERTEX
  8
C7
  10
598.261100
  20
209.182400
  0
VERTEX
  8
C7
  10
598.188600
  20
210.108700
  0
VERTEX
  8
C7
  10
598.125300
  20
210.991000
  0
VERTEX
  8
C7
  10
598.073100
  20
211.825200
  0
VERTEX
  8
C7
  10
598.033600
  20
212.607400
  0
VERTEX
  8
C7
  10
598.008700
  20
213.333700
  0
VERTEX
  8
C7
  10
598.000000
  20
214.000000
  0
VERTEX
  8
C7
  10
552.000000
  20
214.000000
  0
VERTEX
  8
C7
  10
552.000000
  20
215.000000
  0
VERTEX
  8
C7
  10
598.000000
  20
215.000000
  0
VERTEX
  8
C7
  10
598.000000
  20
412.000000
  0
VERTEX
  8
C7
  10
552.000000
  20
412.000000
  0
VERTEX
  8
C7
  10
552.000000
  20
413.000000
  0
VERTEX
  8
C7
  10
598.000000
  20
413.000000
  0
VERTEX
  8
C7
  10
598.000000
  20
458.000000
  0
VERTEX
  8
C7
  10
596.972229
  20
474.396606
  0
VERTEX
  8
C7
  10
585.000000
  20
476.000000
  0
VERTEX
  8
C7
  10
549.000000
  20
476.000000
  0
VERTEX
  8
C7
  10
405.000000
  20
476.000000
  0
VERTEX
  8
C7
  10
405.013400
  20
475.228600
  0
VERTEX
  8
C7
  10
405.050900
  20
474.408800
  0
VERTEX
  8
C7
  10
405.108400
  20
473.545200
  0
VERTEX
  8
C7
  10
405.182000
  20
472.642600
  0
VERTEX
  8
C7
  10
405.267600
  20
471.705800
  0
VERTEX
  8
C7
  10
405.361100
  20
470.739300
  0
VERTEX
  8
C7
  10
405.458500
  20
469.748100
  0
VERTEX
  8
C7
  10
405.555800
  20
468.736800
  0
VERTEX
  8
C7
  10
405.648900
  20
467.710100
  0
VERTEX
  8
C7
  10
405.733700
  20
466.672800
  0
VERTEX
  8
C7
  10
405.806300
  20
465.629600
  0
VERTEX
  8
C7
  10
405.862500
  20
464.585200
  0
VERTEX
  8
C7
  10
405.898400
  20
463.544500
  0
VERTEX
  8
C7
  10
405.909900
  20
462.512000
  0
VERTEX
  8
C7
  10
405.893000
  20
461.492600
  0
VERTEX
  8
C7
  10
405.843600
  20
460.491000
  0
VERTEX
  8
C7
  10
405.757600
  20
459.511800
  0
VERTEX
  8
C7
  10
405.631100
  20
458.560000
  0
VERTEX
  8
C7
  10
405.460000
  20
457.640000
  0
VERTEX
  8
C7
  10
405.240200
  20
456.756900
  0
VERTEX
  8
C7
  10
404.967700
  20
455.915100
  0
VERTEX
  8
C7
  10
404.638500
  20
455.119500
  0
VERTEX
  8
C7
  10
404.248500
  20
454.374900
  0
VERTEX
  8
C7
  10
403.793700
  20
453.685800
  0
VERTEX
  8
C7
  10
403.270000
  20
453.057200
  0
VERTEX
  8
C7
  10
402.673500
  20
452.493600
  0
VERTEX
  8
C7
  10
402.000000
  20
452.000000
  0
VERTEX
  8
C7
  10
404.000000
  20
476.000000
  0
VERTEX
  8
C7
  10
259.000000
  20
476.000000
  0
VERTEX
  8
C7
  10
223.000000
  20
476.000000
  0
VERTEX
  8
C7
  10
211.027786
  20
474.396606
  0
VERTEX
  8
C7
  10
210.000000
  20
457.000000
  0
VERTEX
  8
C7
  10
210.000000
  20
409.000000
  0
VERTEX
  8
C7
  10
210.000000
  20
241.000000
  0
VERTEX
  8
C7
  10
210.000000
  20
198.000000
  0
VERTEX
  8
C7
  10
211.027786
  20
181.603394
  0
VERTEX
  8
C7
  10
224.000000
  20
180.000000
  0
VERTEX
  8
C7
  10
260.000000
  20
180.000000
  0
SEQEND
  8
C7
  0
POLYLINE
  8
C7
  66
1
  10
626.000000
  20
449.000000
  0
VERTEX
  8
C7
  10
626.000000
  20
449.000000
  0
VERTEX
  8
C7
  10
632.000000
  20
451.000000
  0
VERTEX
  8
C7
  10
629.000000
  20
446.000000
  0
VERTEX
  8
C7
  10
633.000000
  20
445.000000
  0
VERTEX
  8
C7
  10
633.000000
  20
443.000000
  0
VERTEX
  8
C7
  10
626.000000
  20
444.000000
  0
VERTEX
  8
C7
  10
626.277500
  20
443.289700
  0
VERTEX
  8
C7
  10
626.643400
  20
442.617800
  0
VERTEX
  8
C7
  10
627.086700
  20
441.991500
  0
VERTEX
  8
C7
  10
627.596100
  20
441.418300
  0
VERTEX
  8
C7
  10
628.160600
  20
440.905500
  0
VERTEX
  8
C7
  10
628.769000
  20
440.460500
  0
VERTEX
  8
C7
  10
629.410300
  20
440.090700
  0
VERTEX
  8
C7
  10
630.073200
  20
439.803400
  0
VERTEX
  8
C7
  10
630.746800
  20
439.606100
  0
VERTEX
  8
C7
  10
631.419900
  20
439.506100
  0
VERTEX
  8
C7
  10
632.081300
  20
439.510700
  0
VERTEX
  8
C7
  10
632.720000
  20
439.627400
  0
VERTEX
  8
C7
  10
633.324800
  20
439.863600
  0
VERTEX
  8
C7
  10
633.884700
  20
440.226600
  0
VERTEX
  8
C7
  10
634.388400
  20
440.723700
  0
VERTEX
  8
C7
  10
634.825000
  20
441.362400
  0
VERTEX
  8
C7
  10
635.183200
  20
442.150100
  0
VERTEX
  8
C7
  10
635.452100
  20
443.094100
  0
VERTEX
  8
C7
  10
635.580000
  20
443.848100
  0
VERTEX
  8
C7
  10
635.643500
  20
444.606800
  0
VERTEX
  8
C7
  10
635.646000
  20
445.365100
  0
VERTEX
  8
C7
  10
635.591000
  20
446.117800
  0
VERTEX
  8
C7
  10
635.481900
  20
446.859600
  0
VERTEX
  8
C7
  10
635.322300
  20
447.585300
  0
VERTEX
  8
C7
  10
635.115400
  20
448.289900
  0
VERTEX
  8
C7
  10
634.864900
  20
448.968000
  0
VERTEX
  8
C7
  10
634.574100
  20
449.614600
  0
VERTEX
  8
C7
  10
634.246500
  20
450.224400
  0
VERTEX
  8
C7
  10
633.885600
  20
450.792200
  0
VERTEX
  8
C7
  10
633.494800
  20
451.312900
  0
VERTEX
  8
C7
  10
633.077600
  20
451.781300
  0
VERTEX
  8
C7
  10
632.637500
  20
452.192100
  0
VERTEX
  8
C7
  10
632.177800
  20
452.540300
  0
VERTEX
  8
C7
  10
631.702100
  20
452.820500
  0
VERTEX
  8
C7
  10
631.213800
  20
453.027700
  0
VERTEX
  8
C7
  10
630.716400
  20
453.156600
  0
VERTEX
  8
C7
  10
630.213300
  20
453.202000
  0
VERTEX
  8
C7
  10
629.707900
  20
453.158800
  0
VERTEX
  8
C7
  10
629.203800
  20
453.021800
  0
VERTEX
  8
C7
  10
628.704400
  20
452.785800
  0
VERTEX
  8
C7
  10
628.213100
  20
452.445600
  0
VERTEX
  8
C7
  10
627.733500
  20
451.996000
  0
VERTEX
  8
C7
  10
627.268900
  20
451.431800
  0
VERTEX
  8
C7
  10
626.822800
  20
450.747800
  0
VERTEX
  8
C7
  10
626.398600
  20
449.939000
  0
VERTEX
  8
C7
  10
626.000000
  20
449.000000
  0
SEQEND
  8
C7
  0
POLYLINE
  8
C7
  66
1
  10
643.000000
  20
448.000000
  0
VERTEX
  8
C7
  10
643.000000
  20
448.000000
  0
VERTEX
  8
C7
  10
646.000000
  20
449.000000
  0
VERTEX
  8
C7
  10
646.000000
  20
439.000000
  0
VERTEX
  8
C7
  10
649.000000
  20
439.000000
  0
VERTEX
  8
C7
  10
649.000000
  20
454.000000
  0
VERTEX
  8
C7
  10
643.000000
  20
448.000000
  0
SEQEND
  8
C7
  0
POLYLINE
  8
C7
  66
1
  10
652.000000
  20
446.000000
  0
VERTEX
  8
C7
  10
652.000000
  20
446.000000
  0
VERTEX
  8
C7
  10
658.000000
  20
447.000000
  0
VERTEX
  8
C7
  10
659.000000
  20
442.000000
  0
VERTEX
  8
C7
  10
652.000000
  20
444.000000
  0
VERTEX
  8
C7
  10
652.398000
  20
443.097100
  0
VERTEX
  8
C7
  10
652.866100
  20
442.277600
  0
VERTEX
  8
C7
  10
653.396300
  20
441.549800
  0
VERTEX
  8
C7
  10
653.980400
  20
440.922000
  0
VERTEX
  8
C7
  10
654.610300
  20
440.402800
  0
VERTEX
  8
C7
  10
655.277800
  20
440.000400
  0
VERTEX
  8
C7
  10
655.974900
  20
439.723400
  0
VERTEX
  8
C7
  10
656.693400
  20
439.580200
  0
VERTEX
  8
C7
  10
657.425300
  20
439.579000
  0
VERTEX
  8
C7
  10
658.162300
  20
439.728500
  0
VERTEX
  8
C7
  10
658.896400
  20
440.036900
  0
VERTEX
  8
C7
  10
659.619400
  20
440.512600
  0
VERTEX
  8
C7
  10
660.323300
  20
441.164200
  0
VERTEX
  8
C7
  10
661.000000
  20
442.000000
  0
VERTEX
  8
C7
  10
662.000000
  20
442.000000
  0
VERTEX
  8
C7
  10
663.000000
  20
439.000000
  0
VERTEX
  8
C7
  10
664.000000
  20
439.000000
  0
VERTEX
  8
C7
  10
668.000000
  20
454.000000
  0
VERTEX
  8
C7
  10
667.165800
  20
453.421600
  0
VERTEX
  8
C7
  10
666.436200
  20
452.777500
  0
VERTEX
  8
C7
  10
665.803500
  20
452.073300
  0
VERTEX
  8
C7
  10
665.259800
  20
451.314600
  0
VERTEX
  8
C7
  10
664.797300
  20
450.507400
  0
VERTEX
  8
C7
  10
664.408200
  20
449.657200
  0
VERTEX
  8
C7
  10
664.084600
  20
448.769900
  0
VERTEX
  8
C7
  10
663.818900
  20
447.851200
  0
VERTEX
  8
C7
  10
663.603000
  20
446.906800
  0
VERTEX
  8
C7
  10
663.429400
  20
445.942400
  0
VERTEX
  8
C7
  10
663.290000
  20
444.963800
  0
VERTEX
  8
C7
  10
663.177200
  20
443.976700
  0
VERTEX
  8
C7
  10
663.083100
  20
442.986800
  0
VERTEX
  8
C7
  10
663.000000
  20
442.000000
  0
VERTEX
  8
C7
  10
662.000000
  20
442.000000
  0
VERTEX
  8
C7
  10
661.884800
  20
443.137500
  0
VERTEX
  8
C7
  10
661.715200
  20
444.157000
  0
VERTEX
  8
C7
  10
661.480700
  20
445.064600
  0
VERTEX
  8
C7
  10
661.170600
  20
445.866000
  0
VERTEX
  8
C7
  10
660.774400
  20
446.567200
  0
VERTEX
  8
C7
  10
660.281700
  20
447.174000
  0
VERTEX
  8
C7
  10
659.681800
  20
447.692400
  0
VERTEX
  8
C7
  10
658.964200
  20
448.128300
  0
VERTEX
  8
C7
  10
658.118400
  20
448.487600
  0
VERTEX
  8
C7
  10
657.133800
  20
448.776200
  0
VERTEX
  8
C7
  10
656.000000
  20
449.000000
  0
VERTEX
  8
C7
  10
656.000000
  20
451.000000
  0
VERTEX
  8
C7
  10
661.000000
  20
451.000000
  0
VERTEX
  8
C7
  10
661.000000
  20
454.000000
  0
VERTEX
  8
C7
  10
659.707500
  20
453.953600
  0
VERTEX
  8
C7
  10
658.566500
  20
453.844100
  0
VERTEX
  8
C7
  10
657.564300
  20
453.667200
  0
VERTEX
  8
C7
  10
656.687700
  20
453.418300
  0
VERTEX
  8
C7
  10
655.924000
  20
453.093100
  0
VERTEX
  8
C7
  10
655.260200
  20
452.687200
  0
VERTEX
  8
C7
  10
654.683500
  20
452.196000
  0
VERTEX
  8
C7
  10
654.180900
  20
451.615200
  0
VERTEX
  8
C7
  10
653.739600
  20
450.940400
  0
VERTEX
  8
C7
  10
653.346500
  20
450.167000
  0
VERTEX
  8
C7
  10
652.989000
  20
449.290700
  0
VERTEX
  8
C7
  10
652.654000
  20
448.307100
  0
VERTEX
  8
C7
  10
652.328600
  20
447.211600
  0
VERTEX
  8
C7
  10
652.000000
  20
446.000000
  0
SEQEND
  8
C7
  0
POLYLINE
  8
C7
  66
1
  10
669.000000
  20
448.000000
  0
VERTEX
  8
C7
  10
669.000000
  20
448.000000
  0
VERTEX
  8
C7
  10
672.000000
  20
449.000000
  0
VERTEX
  8
C7
  10
672.000000
  20
439.000000
  0
VERTEX
  8
C7
  10
675.000000
  20
439.000000
  0
VERTEX
  8
C7
  10
675.000000
  20
454.000000
  0
VERTEX
  8
C7
  10
669.000000
  20
448.000000
  0
SEQEND
  8
C7
  0
POLYLINE
  8
C7
  66
1
  10
686.000000
  20
448.000000
  0
VERTEX
  8
C7
  10
686.000000
  20
448.000000
  0
VERTEX
  8
C7
  10
686.401500
  20
448.787700
  0
VERTEX
  8
C7
  10
686.637700
  20
449.569500
  0
VERTEX
  8
C7
  10
686.718600
  20
450.328400
  0
VERTEX
  8
C7
  10
686.654500
  20
451.047600
  0
VERTEX
  8
C7
  10
686.455500
  20
451.710000
  0
VERTEX
  8
C7
  10
686.131800
  20
452.298600
  0
VERTEX
  8
C7
  10
685.693600
  20
452.796500
  0
VERTEX
  8
C7
  10
685.150900
  20
453.186600
  0
VERTEX
  8
C7
  10
684.514000
  20
453.452200
  0
VERTEX
  8
C7
  10
683.793100
  20
453.576000
  0
VERTEX
  8
C7
  10
682.998300
  20
453.541300
  0
VERTEX
  8
C7
  10
682.139700
  20
453.331000
  0
VERTEX
  8
C7
  10
681.227600
  20
452.928200
  0
VERTEX
  8
C7
  10
680.557800
  20
452.549500
  0
VERTEX
  8
C7
  10
679.946400
  20
452.169000
  0
VERTEX
  8
C7
  10
679.391900
  20
451.786900
  0
VERTEX
  8
C7
  10
678.892500
  20
451.403900
  0
VERTEX
  8
C7
  10
678.446600
  20
451.020400
  0
VERTEX
  8
C7
  10
678.052500
  20
450.636900
  0
VERTEX
  8
C7
  10
677.708700
  20
450.253900
  0
VERTEX
  8
C7
  10
677.413500
  20
449.871800
  0
VERTEX
  8
C7
  10
677.165200
  20
449.491300
  0
VERTEX
  8
C7
  10
676.962200
  20
449.112700
  0
VERTEX
  8
C7
  10
676.802800
  20
448.736600
  0
VERTEX
  8
C7
  10
676.685500
  20
448.363500
  0
VERTEX
  8
C7
  10
676.608500
  20
447.993800
  0
VERTEX
  8
C7
  10
676.570200
  20
447.628100
  0
VERTEX
  8
C7
  10
676.569000
  20
447.266800
  0
VERTEX
  8
C7
  10
676.603300
  20
446.910400
  0
VERTEX
  8
C7
  10
676.671300
  20
446.559400
  0
VERTEX
  8
C7
  10
676.771400
  20
446.214400
  0
VERTEX
  8
C7
  10
676.902100
  20
445.875800
  0
VERTEX
  8
C7
  10
677.061600
  20
445.544000
  0
VERTEX
  8
C7
  10
677.248300
  20
445.219700
  0
VERTEX
  8
C7
  10
677.460600
  20
444.903300
  0
VERTEX
  8
C7
  10
677.696900
  20
444.595200
  0
VERTEX
  8
C7
  10
677.955400
  20
444.296000
  0
VERTEX
  8
C7
  10
678.234500
  20
444.006100
  0
VERTEX
  8
C7
  10
678.532600
  20
443.726200
  0
VERTEX
  8
C7
  10
678.848100
  20
443.456500
  0
VERTEX
  8
C7
  10
679.179300
  20
443.197700
  0
VERTEX
  8
C7
  10
679.524600
  20
442.950300
  0
VERTEX
  8
C7
  10
679.882300
  20
442.714600
  0
VERTEX
  8
C7
  10
680.250700
  20
442.491300
  0
VERTEX
  8
C7
  10
680.628300
  20
442.280800
  0
VERTEX
  8
C7
  10
681.013400
  20
442.083600
  0
VERTEX
  8
C7
  10
681.404300
  20
441.900200
  0
VERTEX
  8
C7
  10
681.799500
  20
441.731100
  0
VERTEX
  8
C7
  10
682.197100
  20
441.576800
  0
VERTEX
  8
C7
  10
682.595700
  20
441.437700
  0
VERTEX
  8
C7
  10
682.993600
  20
441.314400
  0
VERTEX
  8
C7
  10
683.389100
  20
441.207400
  0
VERTEX
  8
C7
  10
683.780600
  20
441.117100
  0
VERTEX
  8
C7
  10
684.166500
  20
441.044100
  0
VERTEX
  8
C7
  10
684.545000
  20
440.988800
  0
VERTEX
  8
C7
  10
684.914600
  20
440.951700
  0
VERTEX
  8
C7
  10
685.273600
  20
440.933400
  0
VERTEX
  8
C7
  10
685.620300
  20
440.934200
  0
VERTEX
  8
C7
  10
685.953200
  20
440.954800
  0
VERTEX
  8
C7
  10
686.270600
  20
440.995600
  0
VERTEX
  8
C7
  10
686.570800
  20
441.057000
  0
VERTEX
  8
C7
  10
686.852200
  20
441.139700
  0
VERTEX
  8
C7
  10
687.113200
  20
441.244000
  0
VERTEX
  8
C7
  10
687.352000
  20
441.370500
  0
VERTEX
  8
C7
  10
687.567200
  20
441.519600
  0
VERTEX
  8
C7
  10
687.756900
  20
441.692000
  0
VERTEX
  8
C7
  10
687.919600
  20
441.887900
  0
VERTEX
  8
C7
  10
688.053700
  20
442.108000
  0
VERTEX
  8
C7
  10
688.157400
  20
442.352800
  0
VERTEX
  8
C7
  10
688.229200
  20
442.622600
  0
VERTEX
  8
C7
  10
688.267400
  20
442.918100
  0
VERTEX
  8
C7
  10
688.270300
  20
443.239700
  0
VERTEX
  8
C7
  10
688.236400
  20
443.587900
  0
VERTEX
  8
C7
  10
688.163900
  20
443.963100
  0
VERTEX
  8
C7
  10
688.051300
  20
444.366000
  0
VERTEX
  8
C7
  10
687.896800
  20
444.797000
  0
VERTEX
  8
C7
  10
687.698900
  20
445.256500
  0
VERTEX
  8
C7
  10
687.455900
  20
445.745100
  0
VERTEX
  8
C7
  10
687.166100
  20
446.263200
  0
VERTEX
  8
C7
  10
686.828000
  20
446.811400
  0
VERTEX
  8
C7
  10
686.439800
  20
447.390200
  0
VERTEX
  8
C7
  10
686.000000
  20
448.000000
  0
SEQEND
  8
C7
  0
POLYLINE
  8
C7
  66
1
  10
689.000000
  20
454.000000
  0
VERTEX
  8
C7
  10
689.000000
  20
454.000000
  0
VERTEX
  8
C7
  10
689.000000
  20
448.000000
  0
VERTEX
  8
C7
  10
691.000000
  20
448.000000
  0
VERTEX
  8
C7
  10
691.000000
  20
454.000000
  0
VERTEX
  8
C7
  10
689.000000
  20
454.000000
  0
SEQEND
  8
C7
  0
POLYLINE
  8
C7
  66
1
  10
692.000000
  20
454.000000
  0
VERTEX
  8
C7
  10
692.000000
  20
454.000000
  0
VERTEX
  8
C7
  10
692.000000
  20
448.000000
  0
VERTEX
  8
C7
  10
695.000000
  20
454.000000
  0
VERTEX
  8
C7
  10
692.000000
  20
454.000000
  0
SEQEND
  8
C7
  0
POLYLINE
  8
C7
  66
1
  10
698.000000
  20
454.000000
  0
VERTEX
  8
C7
  10
698.000000
  20
454.000000
  0
VERTEX
  8
C7
  10
697.762400
  20
453.146900
  0
VERTEX
  8
C7
  10
697.526100
  20
452.273400
  0
VERTEX
  8
C7
  10
697.295500
  20
451.382800
  0
VERTEX
  8
C7
  10
697.075300
  20
450.478300
  0
VERTEX
  8
C7
  10
696.870100
  20
449.563300
  0
VERTEX
  8
C7
  10
696.684600
  20
448.640900
  0
VERTEX
  8
C7
  10
696.523200
  20
447.714500
  0
VERTEX
  8
C7
  10
696.390700
  20
446.787200
  0
VERTEX
  8
C7
  10
696.291700
  20
445.862400
  0
VERTEX
  8
C7
  10
696.230700
  20
444.943300
  0
VERTEX
  8
C7
  10
696.212400
  20
444.033200
  0
VERTEX
  8
C7
  10
696.241400
  20
443.135400
  0
VERTEX
  8
C7
  10
696.322200
  20
442.253000
  0
VERTEX
  8
C7
  10
696.459600
  20
441.389400
  0
VERTEX
  8
C7
  10
696.658100
  20
440.547800
  0
VERTEX
  8
C7
  10
696.922400
  20
439.731600
  0
VERTEX
  8
C7
  10
697.257000
  20
438.943900
  0
VERTEX
  8
C7
  10
697.666500
  20
438.188000
  0
VERTEX
  8
C7
  10
698.155600
  20
437.467200
  0
VERTEX
  8
C7
  10
698.728900
  20
436.784700
  0
VERTEX
  8
C7
  10
699.391000
  20
436.143800
  0
VERTEX
  8
C7
  10
700.146500
  20
435.547800
  0
VERTEX
  8
C7
  10
701.000000
  20
435.000000
  0
VERTEX
  8
C7
  10
701.000000
  20
454.000000
  0
VERTEX
  8
C7
  10
698.000000
  20
454.000000
  0
SEQEND
  8
C7
  0
POLYLINE
  8
C7
  66
1
  10
703.000000
  20
448.000000
  0
VERTEX
  8
C7
  10
703.000000
  20
448.000000
  0
VERTEX
  8
C7
  10
706.000000
  20
449.000000
  0
VERTEX
  8
C7
  10
706.000000
  20
439.000000
  0
VERTEX
  8
C7
  10
709.000000
  20
439.000000
  0
VERTEX
  8
C7
  10
709.000000
  20
454.000000
  0
VERTEX
  8
C7
  10
703.000000
  20
448.000000
  0
SEQEND
  8
C7
  0
POLYLINE
  8
C7
  66
1
  10
722.000000
  20
444.000000
  0
VERTEX
  8
C7
  10
722.000000
  20
444.000000
  0
VERTEX
  8
C7
  10
722.396100
  20
443.382000
  0
VERTEX
  8
C7
  10
722.783000
  20
442.812100
  0
VERTEX
  8
C7
  10
723.160900
  20
442.289000
  0
VERTEX
  8
C7
  10
723.529600
  20
441.811700
  0
VERTEX
  8
C7
  10
723.889100
  20
441.379000
  0
VERTEX
  8
C7
  10
724.239500
  20
440.989700
  0
VERTEX
  8
C7
  10
724.580700
  20
440.642700
  0
VERTEX
  8
C7
  10
724.912700
  20
440.336900
  0
VERTEX
  8
C7
  10
725.235500
  20
440.071100
  0
VERTEX
  8
C7
  10
725.549200
  20
439.844100
  0
VERTEX
  8
C7
  10
725.853700
  20
439.654800
  0
VERTEX
  8
C7
  10
726.148900
  20
439.502100
  0
VERTEX
  8
C7
  10
726.435000
  20
439.384700
  0
VERTEX
  8
C7
  10
726.711800
  20
439.301700
  0
VERTEX
  8
C7
  10
726.979400
  20
439.251700
  0
VERTEX
  8
C7
  10
727.237800
  20
439.233700
  0
VERTEX
  8
C7
  10
727.486900
  20
439.246600
  0
VERTEX
  8
C7
  10
727.726800
  20
439.289100
  0
VERTEX
  8
C7
  10
727.957500
  20
439.360200
  0
VERTEX
  8
C7
  10
728.178900
  20
439.458600
  0
VERTEX
  8
C7
  10
728.391000
  20
439.583200
  0
VERTEX
  8
C7
  10
728.593900
  20
439.733000
  0
VERTEX
  8
C7
  10
728.787500
  20
439.906700
  0
VERTEX
  8
C7
  10
728.971800
  20
440.103100
  0
VERTEX
  8
C7
  10
729.146900
  20
440.321200
  0
VERTEX
  8
C7
  10
729.312600
  20
440.559800
  0
VERTEX
  8
C7
  10
729.469100
  20
440.817800
  0
VERTEX
  8
C7
  10
729.616200
  20
441.094000
  0
VERTEX
  8
C7
  10
729.754000
  20
441.387200
  0
VERTEX
  8
C7
  10
729.882500
  20
441.696300
  0
VERTEX
  8
C7
  10
730.001700
  20
442.020200
  0
VERTEX
  8
C7
  10
730.111500
  20
442.357700
  0
VERTEX
  8
C7
  10
730.212000
  20
442.707700
  0
VERTEX
  8
C7
  10
730.303200
  20
443.069000
  0
VERTEX
  8
C7
  10
730.385000
  20
443.440400
  0
VERTEX
  8
C7
  10
730.457400
  20
443.820900
  0
VERTEX
  8
C7
  10
730.520500
  20
444.209300
  0
VERTEX
  8
C7
  10
730.574200
  20
444.604300
  0
VERTEX
  8
C7
  10
730.618500
  20
445.005000
  0
VERTEX
  8
C7
  10
730.653400
  20
445.410100
  0
VERTEX
  8
C7
  10
730.679000
  20
445.818500
  0
VERTEX
  8
C7
  10
730.695100
  20
446.229100
  0
VERTEX
  8
C7
  10
730.701800
  20
446.640600
  0
VERTEX
  8
C7
  10
730.699100
  20
447.052000
  0
VERTEX
  8
C7
  10
730.687000
  20
447.462100
  0
VERTEX
  8
C7
  10
730.665500
  20
447.869700
  0
VERTEX
  8
C7
  10
730.634600
  20
448.273800
  0
VERTEX
  8
C7
  10
730.594200
  20
448.673100
  0
VERTEX
  8
C7
  10
730.544300
  20
449.066500
  0
VERTEX
  8
C7
  10
730.485000
  20
449.452900
  0
VERTEX
  8
C7
  10
730.416300
  20
449.831100
  0
VERTEX
  8
C7
  10
730.338100
  20
450.200000
  0
VERTEX
  8
C7
  10
730.250400
  20
450.558300
  0
VERTEX
  8
C7
  10
730.153200
  20
450.905100
  0
VERTEX
  8
C7
  10
730.046600
  20
451.239100
  0
VERTEX
  8
C7
  10
729.930400
  20
451.559200
  0
VERTEX
  8
C7
  10
729.804800
  20
451.864200
  0
VERTEX
  8
C7
  10
729.669600
  20
452.153000
  0
VERTEX
  8
C7
  10
729.525000
  20
452.424500
  0
VERTEX
  8
C7
  10
729.370800
  20
452.677400
  0
VERTEX
  8
C7
  10
729.207100
  20
452.910700
  0
VERTEX
  8
C7
  10
729.033900
  20
453.123200
  0
VERTEX
  8
C7
  10
728.851100
  20
453.313700
  0
VERTEX
  8
C7
  10
728.658800
  20
453.481200
  0
VERTEX
  8
C7
  10
728.456900
  20
453.624400
  0
VERTEX
  8
C7
  10
728.245500
  20
453.742200
  0
VERTEX
  8
C7
  10
728.024500
  20
453.833400
  0
VERTEX
  8
C7
  10
727.794000
  20
453.897000
  0
VERTEX
  8
C7
  10
727.553900
  20
453.931800
  0
VERTEX
  8
C7
  10
727.304100
  20
453.936600
  0
VERTEX
  8
C7
  10
727.044800
  20
453.910200
  0
VERTEX
  8
C7
  10
726.775900
  20
453.851600
  0
VERTEX
  8
C7
  10
726.497400
  20
453.759600
  0
VERTEX
  8
C7
  10
726.209300
  20
453.633000
  0
VERTEX
  8
C7
  10
725.911600
  20
453.470600
  0
VERTEX
  8
C7
  10
725.604200
  20
453.271500
  0
VERTEX
  8
C7
  10
725.287200
  20
453.034300
  0
VERTEX
  8
C7
  10
724.960600
  20
452.757900
  0
VERTEX
  8
C7
  10
724.624400
  20
452.441300
  0
VERTEX
  8
C7
  10
724.278400
  20
452.083200
  0
VERTEX
  8
C7
  10
723.922900
  20
451.682500
  0
VERTEX
  8
C7
  10
723.557600
  20
451.238100
  0
VERTEX
  8
C7
  10
723.182700
  20
450.748700
  0
VERTEX
  8
C7
  10
722.798200
  20
450.213400
  0
VERTEX
  8
C7
  10
722.403900
  20
449.630800
  0
VERTEX
  8
C7
  10
722.000000
  20
449.000000
  0
VERTEX
  8
C7
  10
721.595700
  20
449.631000
  0
VERTEX
  8
C7
  10
721.200900
  20
450.213400
  0
VERTEX
  8
C7
  10
720.815700
  20
450.748400
  0
VERTEX
  8
C7
  10
720.440000
  20
451.237000
  0
VERTEX
  8
C7
  10
720.073800
  20
451.680400
  0
VERTEX
  8
C7
  10
719.717100
  20
452.079800
  0
VERTEX
  8
C7
  10
719.369900
  20
452.436300
  0
VERTEX
  8
C7
  10
719.032200
  20
452.751200
  0
VERTEX
  8
C7
  10
718.704000
  20
453.025500
  0
VERTEX
  8
C7
  10
718.385400
  20
453.260400
  0
VERTEX
  8
C7
  10
718.076300
  20
453.457100
  0
VERTEX
  8
C7
  10
717.776600
  20
453.616700
  0
VERTEX
  8
C7
  10
717.486500
  20
453.740400
  0
VERTEX
  8
C7
  10
717.205900
  20
453.829400
  0
VERTEX
  8
C7
  10
716.934800
  20
453.884800
  0
VERTEX
  8
C7
  10
716.673200
  20
453.907700
  0
VERTEX
  8
C7
  10
716.421200
  20
453.899400
  0
VERTEX
  8
C7
  10
716.178600
  20
453.860900
  0
VERTEX
  8
C7
  10
715.945600
  20
453.793500
  0
VERTEX
  8
C7
  10
715.722000
  20
453.698300
  0
VERTEX
  8
C7
  10
715.508000
  20
453.576500
  0
VERTEX
  8
C7
  10
715.303500
  20
453.429100
  0
VERTEX
  8
C7
  10
715.108500
  20
453.257500
  0
VERTEX
  8
C7
  10
714.923000
  20
453.062600
  0
VERTEX
  8
C7
  10
714.747100
  20
452.845800
  0
VERTEX
  8
C7
  10
714.580600
  20
452.608100
  0
VERTEX
  8
C7
  10
714.423700
  20
452.350800
  0
VERTEX
  8
C7
  10
714.276200
  20
452.074800
  0
VERTEX
  8
C7
  10
714.138300
  20
451.781600
  0
VERTEX
  8
C7
  10
714.009900
  20
451.472100
  0
VERTEX
  8
C7
  10
713.891000
  20
451.147500
  0
VERTEX
  8
C7
  10
713.781600
  20
450.809100
  0
VERTEX
  8
C7
  10
713.681700
  20
450.457900
  0
VERTEX
  8
C7
  10
713.591400
  20
450.095100
  0
VERTEX
  8
C7
  10
713.510500
  20
449.721900
  0
VERTEX
  8
C7
  10
713.439200
  20
449.339400
  0
VERTEX
  8
C7
  10
713.377300
  20
448.948800
  0
VERTEX
  8
C7
  10
713.325000
  20
448.551300
  0
VERTEX
  8
C7
  10
713.282200
  20
448.148000
  0
VERTEX
  8
C7
  10
713.248900
  20
447.740000
  0
VERTEX
  8
C7
  10
713.225100
  20
447.328600
  0
VERTEX
  8
C7
  10
713.210900
  20
446.914800
  0
VERTEX
  8
C7
  10
713.206100
  20
446.499900
  0
VERTEX
  8
C7
  10
713.210900
  20
446.085000
  0
VERTEX
  8
C7
  10
713.225100
  20
445.671300
  0
VERTEX
  8
C7
  10
713.248900
  20
445.259800
  0
VERTEX
  8
C7
  10
713.282200
  20
444.851900
  0
VERTEX
  8
C7
  10
713.325000
  20
444.448500
  0
VERTEX
  8
C7
  10
713.377300
  20
444.051000
  0
VERTEX
  8
C7
  10
713.439200
  20
443.660400
  0
VERTEX
  8
C7
  10
713.510500
  20
443.278000
  0
VERTEX
  8
C7
  10
713.591400
  20
442.904800
  0
VERTEX
  8
C7
  10
713.681700
  20
442.542000
  0
VERTEX
  8
C7
  10
713.781600
  20
442.190800
  0
VERTEX
  8
C7
  10
713.891000
  20
441.852300
  0
VERTEX
  8
C7
  10
714.009900
  20
441.527800
  0
VERTEX
  8
C7
  10
714.138300
  20
441.218300
  0
VERTEX
  8
C7
  10
714.276200
  20
440.925000
  0
VERTEX
  8
C7
  10
714.423700
  20
440.649100
  0
VERTEX
  8
C7
  10
714.580600
  20
440.391700
  0
VERTEX
  8
C7
  10
714.747100
  20
440.154000
  0
VERTEX
  8
C7
  10
714.923000
  20
439.937200
  0
VERTEX
  8
C7
  10
715.108500
  20
439.742400
  0
VERTEX
  8
C7
  10
715.303500
  20
439.570700
  0
VERTEX
  8
C7
  10
715.508000
  20
439.423400
  0
VERTEX
  8
C7
  10
715.722000
  20
439.301500
  0
VERTEX
  8
C7
  10
715.945600
  20
439.206300
  0
VERTEX
  8
C7
  10
716.178600
  20
439.138900
  0
VERTEX
  8
C7
  10
716.421200
  20
439.100500
  0
VERTEX
  8
C7
  10
716.673200
  20
439.092200
  0
VERTEX
  8
C7
  10
716.934800
  20
439.115100
  0
VERTEX
  8
C7
  10
717.205900
  20
439.170500
  0
VERTEX
  8
C7
  10
717.486500
  20
439.259400
  0
VERTEX
  8
C7
  10
717.776600
  20
439.383200
  0
VERTEX
  8
C7
  10
718.076300
  20
439.542800
  0
VERTEX
  8
C7
  10
718.385400
  20
439.739500
  0
VERTEX
  8
C7
  10
718.704000
  20
439.974400
  0
VERTEX
  8
C7
  10
719.032200
  20
440.248700
  0
VERTEX
  8
C7
  10
719.369900
  20
440.563600
  0
VERTEX
  8
C7
  10
719.717100
  20
440.920100
  0
VERTEX
  8
C7
  10
720.073800
  20
441.319500
  0
VERTEX
  8
C7
  10
720.440000
  20
441.762900
  0
VERTEX
  8
C7
  10
720.815700
  20
442.251500
  0
VERTEX
  8
C7
  10
721.200900
  20
442.786500
  0
VERTEX
  8
C7
  10
721.595700
  20
443.368900
  0
VERTEX
  8
C7
  10
722.000000
  20
444.000000
  0
SEQEND
  8
C7
  0
POLYLINE
  8
C7
  66
1
  10
764.000000
  20
454.000000
  0
VERTEX
  8
C7
  10
764.000000
  20
454.000000
  0
VERTEX
  8
C7
  10
764.402200
  20
452.867800
  0
VERTEX
  8
C7
  10
764.748400
  20
451.780400
  0
VERTEX
  8
C7
  10
765.040700
  20
450.732500
  0
VERTEX
  8
C7
  10
765.280900
  20
449.718800
  0
VERTEX
  8
C7
  10
765.471200
  20
448.734000
  0
VERTEX
  8
C7
  10
765.613400
  20
447.772600
  0
VERTEX
  8
C7
  10
765.709600
  20
446.829500
  0
VERTEX
  8
C7
  10
765.761800
  20
445.899400
  0
VERTEX
  8
C7
  10
765.772000
  20
444.976800
  0
VERTEX
  8
C7
  10
765.742100
  20
444.056500
  0
VERTEX
  8
C7
  10
765.674100
  20
443.133200
  0
VERTEX
  8
C7
  10
765.570100
  20
442.201500
  0
VERTEX
  8
C7
  10
765.432100
  20
441.256200
  0
VERTEX
  8
C7
  10
765.261900
  20
440.291900
  0
VERTEX
  8
C7
  10
765.061700
  20
439.303300
  0
VERTEX
  8
C7
  10
764.833400
  20
438.285100
  0
VERTEX
  8
C7
  10
764.579000
  20
437.232100
  0
VERTEX
  8
C7
  10
764.300500
  20
436.138800
  0
VERTEX
  8
C7
  10
764.000000
  20
435.000000
  0
VERTEX
  8
C7
  10
764.739900
  20
435.306200
  0
VERTEX
  8
C7
  10
765.428000
  20
435.688200
  0
VERTEX
  8
C7
  10
766.064000
  20
436.140300
  0
VERTEX
  8
C7
  10
766.647800
  20
436.656700
  0
VERTEX
  8
C7
  10
767.179400
  20
437.232000
  0
VERTEX
  8
C7
  10
767.658600
  20
437.860400
  0
VERTEX
  8
C7
  10
768.085400
  20
438.536400
  0
VERTEX
  8
C7
  10
768.459700
  20
439.254100
  0
VERTEX
  8
C7
  10
768.781200
  20
440.008100
  0
VERTEX
  8
C7
  10
769.050000
  20
440.792700
  0
VERTEX
  8
C7
  10
769.266000
  20
441.602100
  0
VERTEX
  8
C7
  10
769.429000
  20
442.430900
  0
VERTEX
  8
C7
  10
769.539000
  20
443.273300
  0
VERTEX
  8
C7
  10
769.595700
  20
444.123600
  0
VERTEX
  8
C7
  10
769.599300
  20
444.976300
  0
VERTEX
  8
C7
  10
769.549400
  20
445.825800
  0
VERTEX
  8
C7
  10
769.446200
  20
446.666200
  0
VERTEX
  8
C7
  10
769.289300
  20
447.492100
  0
VERTEX
  8
C7
  10
769.078800
  20
448.297800
  0
VERTEX
  8
C7
  10
768.814500
  20
449.077600
  0
VERTEX
  8
C7
  10
768.496300
  20
449.825800
  0
VERTEX
  8
C7
  10
768.124200
  20
450.536900
  0
VERTEX
  8
C7
  10
767.698100
  20
451.205200
  0
VERTEX
  8
C7
  10
767.217700
  20
451.825100
  0
VERTEX
  8
C7
  10
766.683100
  20
452.390800
  0
VERTEX
  8
C7
  10
766.094100
  20
452.896800
  0
VERTEX
  8
C7
  10
765.450700
  20
453.337400
  0
VERTEX
  8
C7
  10
764.752600
  20
453.707000
  0
VERTEX
  8
C7
  10
764.000000
  20
454.000000
  0
SEQEND
  8
C7
  0
POLYLINE
  8
C7
  66
1
  10
405.000000
  20
452.000000
  0
VERTEX
  8
C7
  10
405.000000
  20
452.000000
  0
VERTEX
  8
C7
  10
405.000000
  20
451.000000
  0
VERTEX
  8
C7
  10
405.832800
  20
450.803900
  0
VERTEX
  8
C7
  10
406.629300
  20
450.561100
  0
VERTEX
  8
C7
  10
407.389300
  20
450.273700
  0
VERTEX
  8
C7
  10
408.112500
  20
449.944100
  0
VERTEX
  8
C7
  10
408.798700
  20
449.574700
  0
VERTEX
  8
C7
  10
409.447600
  20
449.167900
  0
VERTEX
  8
C7
  10
410.058900
  20
448.725900
  0
VERTEX
  8
C7
  10
410.632500
  20
448.251200
  0
VERTEX
  8
C7
  10
411.168100
  20
447.746000
  0
VERTEX
  8
C7
  10
411.665400
  20
447.212800
  0
VERTEX
  8
C7
  10
412.124200
  20
446.653800
  0
VERTEX
  8
C7
  10
412.544300
  20
446.071400
  0
VERTEX
  8
C7
  10
412.925300
  20
445.468000
  0
VERTEX
  8
C7
  10
413.267200
  20
444.845900
  0
VERTEX
  8
C7
  10
413.569500
  20
444.207500
  0
VERTEX
  8
C7
  10
413.832000
  20
443.555100
  0
VERTEX
  8
C7
  10
414.054600
  20
442.891000
  0
VERTEX
  8
C7
  10
414.237000
  20
442.217600
  0
VERTEX
  8
C7
  10
414.378900
  20
441.537300
  0
VERTEX
  8
C7
  10
414.480000
  20
440.852400
  0
VERTEX
  8
C7
  10
414.540200
  20
440.165200
  0
VERTEX
  8
C7
  10
414.559200
  20
439.478100
  0
VERTEX
  8
C7
  10
414.536600
  20
438.793500
  0
VERTEX
  8
C7
  10
414.472400
  20
438.113700
  0
VERTEX
  8
C7
  10
414.366300
  20
437.441000
  0
VERTEX
  8
C7
  10
414.217900
  20
436.777700
  0
VERTEX
  8
C7
  10
414.027100
  20
436.126300
  0
VERTEX
  8
C7
  10
413.793600
  20
435.489100
  0
VERTEX
  8
C7
  10
413.517100
  20
434.868500
  0
VERTEX
  8
C7
  10
413.197500
  20
434.266600
  0
VERTEX
  8
C7
  10
412.834400
  20
433.686100
  0
VERTEX
  8
C7
  10
412.427600
  20
433.129100
  0
VERTEX
  8
C7
  10
411.976900
  20
432.598000
  0
VERTEX
  8
C7
  10
411.482100
  20
432.095100
  0
VERTEX
  8
C7
  10
410.942800
  20
431.622900
  0
VERTEX
  8
C7
  10
410.358900
  20
431.183700
  0
VERTEX
  8
C7
  10
409.730000
  20
430.779800
  0
VERTEX
  8
C7
  10
409.056000
  20
430.413500
  0
VERTEX
  8
C7
  10
408.336600
  20
430.087200
  0
VERTEX
  8
C7
  10
407.571500
  20
429.803300
  0
VERTEX
  8
C7
  10
406.760500
  20
429.564100
  0
VERTEX
  8
C7
  10
405.903400
  20
429.371900
  0
VERTEX
  8
C7
  10
405.000000
  20
429.229200
  0
SEQEND
  8
C7
  0
POLYLINE
  8
C7
  66
1
  10
405.000000
  20
429.229100
  0
VERTEX
  8
C7
  10
405.000000
  20
429.229100
  0
VERTEX
  8
C7
  10
404.083800
  20
429.139200
  0
VERTEX
  8
C7
  10
403.204700
  20
429.104700
  0
VERTEX
  8
C7
  10
402.362600
  20
429.123500
  0
VERTEX
  8
C7
  10
401.557600
  20
429.193600
  0
VERTEX
  8
C7
  10
400.789500
  20
429.312800
  0
VERTEX
  8
C7
  10
400.058400
  20
429.479100
  0
VERTEX
  8
C7
  10
399.364400
  20
429.690300
  0
VERTEX
  8
C7
  10
398.707400
  20
429.944400
  0
VERTEX
  8
C7
  10
398.087400
  20
430.239200
  0
VERTEX
  8
C7
  10
397.504500
  20
430.572700
  0
VERTEX
  8
C7
  10
396.958600
  20
430.942900
  0
VERTEX
  8
C7
  10
396.449800
  20
431.347500
  0
VERTEX
  8
C7
  10
395.977900
  20
431.784500
  0
VERTEX
  8
C7
  10
395.543200
  20
432.251900
  0
VERTEX
  8
C7
  10
395.145400
  20
432.747500
  0
VERTEX
  8
C7
  10
394.784800
  20
433.269200
  0
VERTEX
  8
C7
  10
394.461200
  20
433.815000
  0
VERTEX
  8
C7
  10
394.174600
  20
434.382700
  0
VERTEX
  8
C7
  10
393.925100
  20
434.970300
  0
VERTEX
  8
C7
  10
393.712700
  20
435.575700
  0
VERTEX
  8
C7
  10
393.537300
  20
436.196700
  0
VERTEX
  8
C7
  10
393.399000
  20
436.831400
  0
VERTEX
  8
C7
  10
393.297800
  20
437.477500
  0
VERTEX
  8
C7
  10
393.233700
  20
438.133100
  0
VERTEX
  8
C7
  10
393.206700
  20
438.795900
  0
VERTEX
  8
C7
  10
393.216700
  20
439.464100
  0
VERTEX
  8
C7
  10
393.263800
  20
440.135300
  0
VERTEX
  8
C7
  10
393.348000
  20
440.807600
  0
VERTEX
  8
C7
  10
393.469300
  20
441.478900
  0
VERTEX
  8
C7
  10
393.627800
  20
442.147000
  0
VERTEX
  8
C7
  10
393.823300
  20
442.809900
  0
VERTEX
  8
C7
  10
394.055900
  20
443.465500
  0
VERTEX
  8
C7
  10
394.325600
  20
444.111700
  0
VERTEX
  8
C7
  10
394.632400
  20
444.746400
  0
VERTEX
  8
C7
  10
394.976400
  20
445.367500
  0
VERTEX
  8
C7
  10
395.357500
  20
445.972900
  0
VERTEX
  8
C7
  10
395.775700
  20
446.560600
  0
VERTEX
  8
C7
  10
396.231000
  20
447.128400
  0
VERTEX
  8
C7
  10
396.723400
  20
447.674200
  0
VERTEX
  8
C7
  10
397.253000
  20
448.196000
  0
VERTEX
  8
C7
  10
397.819700
  20
448.691700
  0
VERTEX
  8
C7
  10
398.423500
  20
449.159200
  0
VERTEX
  8
C7
  10
399.064500
  20
449.596300
  0
VERTEX
  8
C7
  10
399.742700
  20
450.001100
  0
VERTEX
  8
C7
  10
400.457900
  20
450.371300
  0
VERTEX
  8
C7
  10
401.210400
  20
450.705000
  0
VERTEX
  8
C7
  10
402.000000
  20
451.000000
  0
VERTEX
  8
C7
  10
401.260700
  20
451.174000
  0
VERTEX
  8
C7
  10
400.547100
  20
451.284900
  0
VERTEX
  8
C7
  10
399.859500
  20
451.335000
  0
VERTEX
  8
C7
  10
399.198000
  20
451.326700
  0
VERTEX
  8
C7
  10
398.563000
  20
451.262400
  0
VERTEX
  8
C7
  10
397.954600
  20
451.144300
  0
VERTEX
  8
C7
  10
397.373100
  20
450.974800
  0
VERTEX
  8
C7
  10
396.818600
  20
450.756200
  0
VERTEX
  8
C7
  10
396.291500
  20
450.490900
  0
VERTEX
  8
C7
  10
395.791900
  20
450.181200
  0
VERTEX
  8
C7
  10
395.320000
  20
449.829400
  0
VERTEX
  8
C7
  10
394.876200
  20
449.438000
  0
VERTEX
  8
C7
  10
394.460600
  20
449.009100
  0
VERTEX
  8
C7
  10
394.073400
  20
448.545200
  0
VERTEX
  8
C7
  10
393.714900
  20
448.048600
  0
VERTEX
  8
C7
  10
393.385400
  20
447.521600
  0
VERTEX
  8
C7
  10
393.084900
  20
446.966600
  0
VERTEX
  8
C7
  10
392.813800
  20
446.385900
  0
VERTEX
  8
C7
  10
392.572300
  20
445.781900
  0
VERTEX
  8
C7
  10
392.360600
  20
445.156800
  0
VERTEX
  8
C7
  10
392.179000
  20
444.513100
  0
VERTEX
  8
C7
  10
392.027600
  20
443.853000
  0
VERTEX
  8
C7
  10
391.906700
  20
443.179000
  0
VERTEX
  8
C7
  10
391.816500
  20
442.493200
  0
VERTEX
  8
C7
  10
391.757300
  20
441.798200
  0
VERTEX
  8
C7
  10
391.729300
  20
441.096100
  0
VERTEX
  8
C7
  10
391.732600
  20
440.389400
  0
VERTEX
  8
C7
  10
391.767600
  20
439.680400
  0
VERTEX
  8
C7
  10
391.834500
  20
438.971400
  0
VERTEX
  8
C7
  10
391.933400
  20
438.264800
  0
VERTEX
  8
C7
  10
392.064600
  20
437.562900
  0
VERTEX
  8
C7
  10
392.228400
  20
436.868000
  0
VERTEX
  8
C7
  10
392.425000
  20
436.182500
  0
VERTEX
  8
C7
  10
392.654500
  20
435.508700
  0
VERTEX
  8
C7
  10
392.917300
  20
434.848900
  0
VERTEX
  8
C7
  10
393.213500
  20
434.205600
  0
VERTEX
  8
C7
  10
393.543400
  20
433.581000
  0
VERTEX
  8
C7
  10
393.907200
  20
432.977400
  0
VERTEX
  8
C7
  10
394.305200
  20
432.397300
  0
VERTEX
  8
C7
  10
394.737400
  20
431.842900
  0
VERTEX
  8
C7
  10
395.204300
  20
431.316600
  0
VERTEX
  8
C7
  10
395.706000
  20
430.820700
  0
VERTEX
  8
C7
  10
396.242700
  20
430.357500
  0
VERTEX
  8
C7
  10
396.814700
  20
429.929500
  0
VERTEX
  8
C7
  10
397.422200
  20
429.538800
  0
VERTEX
  8
C7
  10
398.065400
  20
429.188000
  0
VERTEX
  8
C7
  10
398.744500
  20
428.879300
  0
VERTEX
  8
C7
  10
399.459900
  20
428.615000
  0
VERTEX
  8
C7
  10
400.211600
  20
428.397400
  0
VERTEX
  8
C7
  10
401.000000
  20
428.229100
  0
VERTEX
  8
C7
  10
401.846600
  20
428.101500
  0
VERTEX
  8
C7
  10
402.670900
  20
428.021900
  0
VERTEX
  8
C7
  10
403.472700
  20
427.988700
  0
VERTEX
  8
C7
  10
404.251700
  20
428.000400
  0
VERTEX
  8
C7
  10
405.007600
  20
428.055400
  0
VERTEX
  8
C7
  10
405.740100
  20
428.152200
  0
VERTEX
  8
C7
  10
406.449100
  20
428.289100
  0
VERTEX
  8
C7
  10
407.134100
  20
428.464700
  0
VERTEX
  8
C7
  10
407.795000
  20
428.677300
  0
VERTEX
  8
C7
  10
408.431500
  20
428.925400
  0
VERTEX
  8
C7
  10
409.043200
  20
429.207400
  0
VERTEX
  8
C7
  10
409.630000
  20
429.521900
  0
VERTEX
  8
C7
  10
410.191600
  20
429.867100
  0
VERTEX
  8
C7
  10
410.727700
  20
430.241600
  0
VERTEX
  8
C7
  10
411.238000
  20
430.643800
  0
VERTEX
  8
C7
  10
411.722300
  20
431.072200
  0
VERTEX
  8
C7
  10
412.180200
  20
431.525100
  0
VERTEX
  8
C7
  10
412.611600
  20
432.001000
  0
VERTEX
  8
C7
  10
413.016200
  20
432.498400
  0
VERTEX
  8
C7
  10
413.393600
  20
433.015700
  0
VERTEX
  8
C7
  10
413.743700
  20
433.551300
  0
VERTEX
  8
C7
  10
414.066200
  20
434.103800
  0
VERTEX
  8
C7
  10
414.360700
  20
434.671400
  0
VERTEX
  8
C7
  10
414.627000
  20
435.252600
  0
VERTEX
  8
C7
  10
414.864900
  20
435.846000
  0
VERTEX
  8
C7
  10
415.074100
  20
436.449900
  0
VERTEX
  8
C7
  10
415.254300
  20
437.062800
  0
VERTEX
  8
C7
  10
415.405200
  20
437.683100
  0
VERTEX
  8
C7
  10
415.526600
  20
438.309300
  0
VERTEX
  8
C7
  10
415.618300
  20
438.939700
  0
VERTEX
  8
C7
  10
415.679800
  20
439.572900
  0
VERTEX
  8
C7
  10
415.711100
  20
440.207200
  0
VERTEX
  8
C7
  10
415.711700
  20
440.841200
  0
VERTEX
  8
C7
  10
415.681500
  20
441.473200
  0
VERTEX
  8
C7
  10
415.620200
  20
442.101700
  0
VERTEX
  8
C7
  10
415.527400
  20
442.725100
  0
VERTEX
  8
C7
  10
415.403000
  20
443.341900
  0
VERTEX
  8
C7
  10
415.246600
  20
443.950500
  0
VERTEX
  8
C7
  10
415.058100
  20
444.549400
  0
VERTEX
  8
C7
  10
414.837100
  20
445.136900
  0
VERTEX
  8
C7
  10
414.583300
  20
445.711600
  0
VERTEX
  8
C7
  10
414.296500
  20
446.271900
  0
VERTEX
  8
C7
  10
413.976500
  20
446.816100
  0
VERTEX
  8
C7
  10
413.622900
  20
447.342800
  0
VERTEX
  8
C7
  10
413.235400
  20
447.850400
  0
VERTEX
  8
C7
  10
412.813900
  20
448.337300
  0
VERTEX
  8
C7
  10
412.358100
  20
448.802000
  0
VERTEX
  8
C7
  10
411.867600
  20
449.242900
  0
VERTEX
  8
C7
  10
411.342300
  20
449.658500
  0
VERTEX
  8
C7
  10
410.781800
  20
450.047100
  0
VERTEX
  8
C7
  10
410.185800
  20
450.407200
  0
VERTEX
  8
C7
  10
409.554200
  20
450.737400
  0
VERTEX
  8
C7
  10
408.886600
  20
451.035900
  0
VERTEX
  8
C7
  10
408.182800
  20
451.301300
  0
VERTEX
  8
C7
  10
407.442500
  20
451.531900
  0
VERTEX
  8
C7
  10
406.665500
  20
451.726300
  0
VERTEX
  8
C7
  10
405.851400
  20
451.882800
  0
VERTEX
  8
C7
  10
405.000000
  20
452.000000
  0
SEQEND
  8
C7
  0
POLYLINE
  8
C7
  66
1
  10
681.000000
  20
450.000000
  0
VERTEX
  8
C7
  10
681.000000
  20
450.000000
  0
VERTEX
  8
C7
  10
681.000000
  20
449.000000
  0
VERTEX
  8
C7
  10
685.000000
  20
451.000000
  0
VERTEX
  8
C7
  10
681.000000
  20
450.000000
  0
SEQEND
  8
C7
  0
POLYLINE
  8
C7
  66
1
  10
715.000000
  20
451.000000
  0
VERTEX
  8
C7
  10
715.000000
  20
451.000000
  0
VERTEX
  8
C7
  10
715.000000
  20
442.000000
  0
VERTEX
  8
C7
  10
715.878900
  20
442.356300
  0
VERTEX
  8
C7
  10
716.640600
  20
442.795100
  0
VERTEX
  8
C7
  10
717.285200
  20
443.304500
  0
VERTEX
  8
C7
  10
717.812500
  20
443.872900
  0
VERTEX
  8
C7
  10
718.222700
  20
444.488500
  0
VERTEX
  8
C7
  10
718.515600
  20
445.139300
  0
VERTEX
  8
C7
  10
718.691400
  20
445.813700
  0
VERTEX
  8
C7
  10
718.750000
  20
446.500000
  0
VERTEX
  8
C7
  10
718.691400
  20
447.186200
  0
VERTEX
  8
C7
  10
718.515600
  20
447.860600
  0
VERTEX
  8
C7
  10
718.222700
  20
448.511400
  0
VERTEX
  8
C7
  10
717.812500
  20
449.127000
  0
VERTEX
  8
C7
  10
717.285200
  20
449.695400
  0
VERTEX
  8
C7
  10
716.640600
  20
450.204800
  0
VERTEX
  8
C7
  10
715.878900
  20
450.643600
  0
VERTEX
  8
C7
  10
715.000000
  20
451.000000
  0
SEQEND
  8
C7
  0
POLYLINE
  8
C7
  66
1
  10
726.000000
  20
451.000000
  0
VERTEX
  8
C7
  10
726.000000
  20
451.000000
  0
VERTEX
  8
C7
  10
726.000000
  20
442.000000
  0
VERTEX
  8
C7
  10
728.000000
  20
442.000000
  0
VERTEX
  8
C7
  10
728.000000
  20
451.000000
  0
VERTEX
  8
C7
  10
726.000000
  20
451.000000
  0
SEQEND
  8
C7
  0
POLYLINE
  8
C7
  66
1
  10
733.000000
  20
450.000000
  0
VERTEX
  8
C7
  10
733.000000
  20
450.000000
  0
VERTEX
  8
C7
  10
733.000000
  20
439.000000
  0
VERTEX
  8
C7
  10
736.000000
  20
439.000000
  0
VERTEX
  8
C7
  10
737.000000
  20
448.000000
  0
VERTEX
  8
C7
  10
738.000000
  20
448.000000
  0
VERTEX
  8
C7
  10
739.000000
  20
439.000000
  0
VERTEX
  8
C7
  10
742.000000
  20
439.000000
  0
VERTEX
  8
C7
  10
743.000000
  20
448.000000
  0
VERTEX
  8
C7
  10
744.000000
  20
448.000000
  0
VERTEX
  8
C7
  10
745.000000
  20
439.000000
  0
VERTEX
  8
C7
  10
747.000000
  20
439.000000
  0
VERTEX
  8
C7
  10
746.981900
  20
440.291600
  0
VERTEX
  8
C7
  10
746.927400
  20
441.478100
  0
VERTEX
  8
C7
  10
746.835200
  20
442.563700
  0
VERTEX
  8
C7
  10
746.704300
  20
443.553100
  0
VERTEX
  8
C7
  10
746.533500
  20
444.450500
  0
VERTEX
  8
C7
  10
746.321600
  20
445.260700
  0
VERTEX
  8
C7
  10
746.067600
  20
445.987900
  0
VERTEX
  8
C7
  10
745.770400
  20
446.636700
  0
VERTEX
  8
C7
  10
745.428700
  20
447.211500
  0
VERTEX
  8
C7
  10
745.041400
  20
447.716900
  0
VERTEX
  8
C7
  10
744.607500
  20
448.157200
  0
VERTEX
  8
C7
  10
744.125900
  20
448.537000
  0
VERTEX
  8
C7
  10
743.595200
  20
448.860800
  0
VERTEX
  8
C7
  10
743.014500
  20
449.132900
  0
VERTEX
  8
C7
  10
742.382700
  20
449.357900
  0
VERTEX
  8
C7
  10
741.698500
  20
449.540300
  0
VERTEX
  8
C7
  10
740.960800
  20
449.684400
  0
VERTEX
  8
C7
  10
740.168600
  20
449.794900
  0
VERTEX
  8
C7
  10
739.320700
  20
449.876100
  0
VERTEX
  8
C7
  10
738.415900
  20
449.932600
  0
VERTEX
  8
C7
  10
737.453200
  20
449.968800
  0
VERTEX
  8
C7
  10
736.431300
  20
449.989100
  0
VERTEX
  8
C7
  10
735.349300
  20
449.998100
  0
VERTEX
  8
C7
  10
734.205900
  20
450.000200
  0
VERTEX
  8
C7
  10
733.000000
  20
450.000000
  0
SEQEND
  8
C7
  0
POLYLINE
  8
C7
  66
1
  10
749.000000
  20
450.000000
  0
VERTEX
  8
C7
  10
749.000000
  20
450.000000
  0
VERTEX
  8
C7
  10
749.000000
  20
439.000000
  0
VERTEX
  8
C7
  10
751.000000
  20
439.000000
  0
VERTEX
  8
C7
  10
753.000000
  20
448.000000
  0
VERTEX
  8
C7
  10
754.000000
  20
448.000000
  0
VERTEX
  8
C7
  10
755.000000
  20
439.000000
  0
VERTEX
  8
C7
  10
757.000000
  20
439.000000
  0
VERTEX
  8
C7
  10
759.000000
  20
448.000000
  0
VERTEX
  8
C7
  10
760.000000
  20
439.000000
  0
VERTEX
  8
C7
  10
763.000000
  20
439.000000
  0
VERTEX
  8
C7
  10
762.981400
  20
440.289800
  0
VERTEX
  8
C7
  10
762.925600
  20
441.474100
  0
VERTEX
  8
C7
  10
762.831300
  20
442.557600
  0
VERTEX
  8
C7
  10
762.697600
  20
443.544500
  0
VERTEX
  8
C7
  10
762.523600
  20
444.439600
  0
VERTEX
  8
C7
  10
762.308100
  20
445.247200
  0
VERTEX
  8
C7
  10
762.050200
  20
445.972000
  0
VERTEX
  8
C7
  10
761.748800
  20
446.618400
  0
VERTEX
  8
C7
  10
761.403000
  20
447.191000
  0
VERTEX
  8
C7
  10
761.011800
  20
447.694300
  0
VERTEX
  8
C7
  10
760.574000
  20
448.132800
  0
VERTEX
  8
C7
  10
760.088800
  20
448.511000
  0
VERTEX
  8
C7
  10
759.555100
  20
448.833500
  0
VERTEX
  8
C7
  10
758.971900
  20
449.104700
  0
VERTEX
  8
C7
  10
758.338100
  20
449.329200
  0
VERTEX
  8
C7
  10
757.652900
  20
449.511500
  0
VERTEX
  8
C7
  10
756.915100
  20
449.656200
  0
VERTEX
  8
C7
  10
756.123700
  20
449.767700
  0
VERTEX
  8
C7
  10
755.277800
  20
449.850600
  0
VERTEX
  8
C7
  10
754.376300
  20
449.909400
  0
VERTEX
  8
C7
  10
753.418200
  20
449.948600
  0
VERTEX
  8
C7
  10
752.402600
  20
449.972700
  0
VERTEX
  8
C7
  10
751.328300
  20
449.986300
  0
VERTEX
  8
C7
  10
750.194500
  20
449.993900
  0
VERTEX
  8
C7
  10
749.000000
  20
450.000000
  0
SEQEND
  8
C7
  0
POLYLINE
  8
C7
  66
1
  10
681.000000
  20
445.000000
  0
VERTEX
  8
C7
  10
681.000000
  20
445.000000
  0
VERTEX
  8
C7
  10
681.000000
  20
443.000000
  0
VERTEX
  8
C7
  10
685.000000
  20
442.000000
  0
VERTEX
  8
C7
  10
685.000000
  20
446.000000
  0
VERTEX
  8
C7
  10
681.000000
  20
445.000000
  0
SEQEND
  8
C7
  0
POLYLINE
  8
C7
  66
1
  10
254.000000
  20
441.000000
  0
VERTEX
  8
C7
  10
254.000000
  20
441.000000
  0
VERTEX
  8
C7
  10
254.000000
  20
440.000000
  0
VERTEX
  8
C7
  10
258.000000
  20
440.000000
  0
VERTEX
  8
C7
  10
258.000000
  20
413.000000
  0
VERTEX
  8
C7
  10
259.000000
  20
413.000000
  0
VERTEX
  8
C7
  10
258.985600
  20
413.927600
  0
VERTEX
  8
C7
  10
258.950500
  20
414.878000
  0
VERTEX
  8
C7
  10
258.906400
  20
415.843700
  0
VERTEX
  8
C7
  10
258.865300
  20
416.817700
  0
VERTEX
  8
C7
  10
258.839000
  20
417.792700
  0
VERTEX
  8
C7
  10
258.839400
  20
418.761300
  0
VERTEX
  8
C7
  10
258.878300
  20
419.716400
  0
VERTEX
  8
C7
  10
258.967600
  20
420.650700
  0
VERTEX
  8
C7
  10
259.119100
  20
421.556900
  0
VERTEX
  8
C7
  10
259.344800
  20
422.427900
  0
VERTEX
  8
C7
  10
259.656400
  20
423.256400
  0
VERTEX
  8
C7
  10
260.065900
  20
424.035000
  0
VERTEX
  8
C7
  10
260.585000
  20
424.756700
  0
VERTEX
  8
C7
  10
261.225800
  20
425.414100
  0
VERTEX
  8
C7
  10
262.000000
  20
426.000000
  0
VERTEX
  8
C7
  10
259.000000
  20
440.000000
  0
VERTEX
  8
C7
  10
388.000000
  20
440.000000
  0
VERTEX
  8
C7
  10
387.218100
  20
440.308700
  0
VERTEX
  8
C7
  10
386.410400
  20
440.590500
  0
VERTEX
  8
C7
  10
385.578200
  20
440.846300
  0
VERTEX
  8
C7
  10
384.722600
  20
441.077200
  0
VERTEX
  8
C7
  10
383.845000
  20
441.284100
  0
VERTEX
  8
C7
  10
382.946600
  20
441.468000
  0
VERTEX
  8
C7
  10
382.028500
  20
441.629900
  0
VERTEX
  8
C7
  10
381.092200
  20
441.770700
  0
VERTEX
  8
C7
  10
380.138600
  20
441.891400
  0
VERTEX
  8
C7
  10
379.169300
  20
441.993100
  0
VERTEX
  8
C7
  10
378.185200
  20
442.076600
  0
VERTEX
  8
C7
  10
377.187800
  20
442.142900
  0
VERTEX
  8
C7
  10
376.178200
  20
442.193100
  0
VERTEX
  8
C7
  10
375.157700
  20
442.228100
  0
VERTEX
  8
C7
  10
374.127500
  20
442.248900
  0
VERTEX
  8
C7
  10
373.088800
  20
442.256500
  0
VERTEX
  8
C7
  10
372.042900
  20
442.251700
  0
VERTEX
  8
C7
  10
370.991100
  20
442.235700
  0
VERTEX
  8
C7
  10
369.934500
  20
442.209400
  0
VERTEX
  8
C7
  10
368.874500
  20
442.173800
  0
VERTEX
  8
C7
  10
367.812200
  20
442.129800
  0
VERTEX
  8
C7
  10
366.748800
  20
442.078400
  0
VERTEX
  8
C7
  10
365.685700
  20
442.020600
  0
VERTEX
  8
C7
  10
364.624100
  20
441.957400
  0
VERTEX
  8
C7
  10
363.565100
  20
441.889800
  0
VERTEX
  8
C7
  10
362.510100
  20
441.818700
  0
VERTEX
  8
C7
  10
361.460300
  20
441.745100
  0
VERTEX
  8
C7
  10
360.416900
  20
441.669900
  0
VERTEX
  8
C7
  10
359.381100
  20
441.594300
  0
VERTEX
  8
C7
  10
358.354300
  20
441.519000
  0
VERTEX
  8
C7
  10
357.337500
  20
441.445200
  0
VERTEX
  8
C7
  10
356.332200
  20
441.373800
  0
VERTEX
  8
C7
  10
355.339400
  20
441.305800
  0
VERTEX
  8
C7
  10
354.360500
  20
441.242100
  0
VERTEX
  8
C7
  10
353.396700
  20
441.183700
  0
VERTEX
  8
C7
  10
352.449200
  20
441.131600
  0
VERTEX
  8
C7
  10
351.519300
  20
441.086800
  0
VERTEX
  8
C7
  10
350.608100
  20
441.050300
  0
VERTEX
  8
C7
  10
349.717000
  20
441.023000
  0
VERTEX
  8
C7
  10
348.847200
  20
441.005900
  0
VERTEX
  8
C7
  10
348.000000
  20
441.000000
  0
VERTEX
  8
C7
  10
254.000000
  20
441.000000
  0
SEQEND
  8
C7
  0
POLYLINE
  8
C7
  66
1
  10
378.000000
  20
426.000000
  0
VERTEX
  8
C7
  10
378.000000
  20
426.000000
  0
VERTEX
  8
C7
  10
378.000000
  20
422.000000
  0
VERTEX
  8
C7
  10
379.000000
  20
422.000000
  0
VERTEX
  8
C7
  10
379.000000
  20
425.000000
  0
VERTEX
  8
C7
  10
383.000000
  20
425.000000
  0
VERTEX
  8
C7
  10
378.000000
  20
426.000000
  0
SEQEND
  8
C7
  0
POLYLINE
  8
C7
  66
1
  10
387.000000
  20
426.000000
  0
VERTEX
  8
C7
  10
387.000000
  20
426.000000
  0
VERTEX
  8
C7
  10
387.000000
  20
425.000000
  0
VERTEX
  8
C7
  10
392.000000
  20
425.000000
  0
VERTEX
  8
C7
  10
387.000000
  20
426.000000
  0
SEQEND
  8
C7
  0
POLYLINE
  8
C7
  66
1
  10
396.000000
  20
426.000000
  0
VERTEX
  8
C7
  10
396.000000
  20
426.000000
  0
VERTEX
  8
C7
  10
396.000000
  20
425.000000
  0
VERTEX
  8
C7
  10
402.000000
  20
425.000000
  0
VERTEX
  8
C7
  10
396.000000
  20
426.000000
  0
SEQEND
  8
C7
  0
POLYLINE
  8
C7
  66
1
  10
406.000000
  20
426.000000
  0
VERTEX
  8
C7
  10
406.000000
  20
426.000000
  0
VERTEX
  8
C7
  10
406.000000
  20
425.000000
  0
VERTEX
  8
C7
  10
412.000000
  20
425.000000
  0
VERTEX
  8
C7
  10
406.000000
  20
426.000000
  0
SEQEND
  8
C7
  0
POLYLINE
  8
C7
  66
1
  10
415.000000
  20
426.000000
  0
VERTEX
  8
C7
  10
415.000000
  20
426.000000
  0
VERTEX
  8
C7
  10
415.000000
  20
425.000000
  0
VERTEX
  8
C7
  10
421.000000
  20
425.000000
  0
VERTEX
  8
C7
  10
415.000000
  20
426.000000
  0
SEQEND
  8
C7
  0
POLYLINE
  8
C7
  66
1
  10
425.000000
  20
426.000000
  0
VERTEX
  8
C7
  10
425.000000
  20
426.000000
  0
VERTEX
  8
C7
  10
425.000000
  20
425.000000
  0
VERTEX
  8
C7
  10
429.000000
  20
422.000000
  0
VERTEX
  8
C7
  10
430.000000
  20
422.000000
  0
VERTEX
  8
C7
  10
430.000000
  20
426.000000
  0
VERTEX
  8
C7
  10
425.000000
  20
426.000000
  0
SEQEND
  8
C7
  0
POLYLINE
  8
C7
  66
1
  10
378.000000
  20
417.000000
  0
VERTEX
  8
C7
  10
378.000000
  20
417.000000
  0
VERTEX
  8
C7
  10
378.000000
  20
413.000000
  0
VERTEX
  8
C7
  10
374.000000
  20
413.000000
  0
VERTEX
  8
C7
  10
374.000000
  20
412.000000
  0
VERTEX
  8
C7
  10
379.000000
  20
412.000000
  0
VERTEX
  8
C7
  10
378.000000
  20
417.000000
  0
SEQEND
  8
C7
  0
POLYLINE
  8
C7
  66
1
  10
429.000000
  20
417.000000
  0
VERTEX
  8
C7
  10
429.000000
  20
417.000000
  0
VERTEX
  8
C7
  10
429.000000
  20
412.000000
  0
VERTEX
  8
C7
  10
434.000000
  20
412.000000
  0
VERTEX
  8
C7
  10
434.000000
  20
413.000000
  0
VERTEX
  8
C7
  10
430.000000
  20
413.000000
  0
VERTEX
  8
C7
  10
429.000000
  20
417.000000
  0
SEQEND
  8
C7
  0
POLYLINE
  8
C7
  66
1
  10
260.000000
  20
413.000000
  0
VERTEX
  8
C7
  10
260.000000
  20
413.000000
  0
VERTEX
  8
C7
  10
260.000000
  20
407.000000
  0
VERTEX
  8
C7
  10
261.000000
  20
407.000000
  0
VERTEX
  8
C7
  10
261.000000
  20
412.000000
  0
VERTEX
  8
C7
  10
265.000000
  20
412.000000
  0
VERTEX
  8
C7
  10
260.000000
  20
413.000000
  0
SEQEND
  8
C7
  0
POLYLINE
  8
C7
  66
1
  10
268.000000
  20
413.000000
  0
VERTEX
  8
C7
  10
268.000000
  20
413.000000
  0
VERTEX
  8
C7
  10
268.000000
  20
412.000000
  0
VERTEX
  8
C7
  10
274.000000
  20
412.000000
  0
VERTEX
  8
C7
  10
268.000000
  20
413.000000
  0
SEQEND
  8
C7
  0
POLYLINE
  8
C7
  66
1
  10
278.000000
  20
413.000000
  0
VERTEX
  8
C7
  10
278.000000
  20
413.000000
  0
VERTEX
  8
C7
  10
278.000000
  20
412.000000
  0
VERTEX
  8
C7
  10
284.000000
  20
412.000000
  0
VERTEX
  8
C7
  10
278.000000
  20
413.000000
  0
SEQEND
  8
C7
  0
POLYLINE
  8
C7
  66
1
  10
288.000000
  20
413.000000
  0
VERTEX
  8
C7
  10
288.000000
  20
413.000000
  0
VERTEX
  8
C7
  10
288.000000
  20
412.000000
  0
VERTEX
  8
C7
  10
293.000000
  20
412.000000
  0
VERTEX
  8
C7
  10
288.000000
  20
413.000000
  0
SEQEND
  8
C7
  0
POLYLINE
  8
C7
  66
1
  10
297.000000
  20
413.000000
  0
VERTEX
  8
C7
  10
297.000000
  20
413.000000
  0
VERTEX
  8
C7
  10
297.000000
  20
412.000000
  0
VERTEX
  8
C7
  10
303.000000
  20
412.000000
  0
VERTEX
  8
C7
  10
297.000000
  20
413.000000
  0
SEQEND
  8
C7
  0
POLYLINE
  8
C7
  66
1
  10
307.000000
  20
413.000000
  0
VERTEX
  8
C7
  10
307.000000
  20
413.000000
  0
VERTEX
  8
C7
  10
307.000000
  20
412.000000
  0
VERTEX
  8
C7
  10
313.000000
  20
412.000000
  0
VERTEX
  8
C7
  10
307.000000
  20
413.000000
  0
SEQEND
  8
C7
  0
POLYLINE
  8
C7
  66
1
  10
316.000000
  20
413.000000
  0
VERTEX
  8
C7
  10
316.000000
  20
413.000000
  0
VERTEX
  8
C7
  10
316.000000
  20
412.000000
  0
VERTEX
  8
C7
  10
322.000000
  20
412.000000
  0
VERTEX
  8
C7
  10
316.000000
  20
413.000000
  0
SEQEND
  8
C7
  0
POLYLINE
  8
C7
  66
1
  10
326.000000
  20
413.000000
  0
VERTEX
  8
C7
  10
326.000000
  20
413.000000
  0
VERTEX
  8
C7
  10
326.000000
  20
412.000000
  0
VERTEX
  8
C7
  10
332.000000
  20
412.000000
  0
VERTEX
  8
C7
  10
326.000000
  20
413.000000
  0
SEQEND
  8
C7
  0
POLYLINE
  8
C7
  66
1
  10
336.000000
  20
413.000000
  0
VERTEX
  8
C7
  10
336.000000
  20
413.000000
  0
VERTEX
  8
C7
  10
336.000000
  20
412.000000
  0
VERTEX
  8
C7
  10
341.000000
  20
412.000000
  0
VERTEX
  8
C7
  10
336.000000
  20
413.000000
  0
SEQEND
  8
C7
  0
POLYLINE
  8
C7
  66
1
  10
345.000000
  20
413.000000
  0
VERTEX
  8
C7
  10
345.000000
  20
413.000000
  0
VERTEX
  8
C7
  10
345.000000
  20
412.000000
  0
VERTEX
  8
C7
  10
351.000000
  20
412.000000
  0
VERTEX
  8
C7
  10
345.000000
  20
413.000000
  0
SEQEND
  8
C7
  0
POLYLINE
  8
C7
  66
1
  10
355.000000
  20
413.000000
  0
VERTEX
  8
C7
  10
355.000000
  20
413.000000
  0
VERTEX
  8
C7
  10
355.000000
  20
412.000000
  0
VERTEX
  8
C7
  10
360.000000
  20
412.000000
  0
VERTEX
  8
C7
  10
355.000000
  20
413.000000
  0
SEQEND
  8
C7
  0
POLYLINE
  8
C7
  66
1
  10
364.000000
  20
413.000000
  0
VERTEX
  8
C7
  10
364.000000
  20
413.000000
  0
VERTEX
  8
C7
  10
364.000000
  20
412.000000
  0
VERTEX
  8
C7
  10
370.000000
  20
412.000000
  0
VERTEX
  8
C7
  10
364.000000
  20
413.000000
  0
SEQEND
  8
C7
  0
POLYLINE
  8
C7
  66
1
  10
438.000000
  20
413.000000
  0
VERTEX
  8
C7
  10
438.000000
  20
413.000000
  0
VERTEX
  8
C7
  10
438.000000
  20
412.000000
  0
VERTEX
  8
C7
  10
443.000000
  20
412.000000
  0
VERTEX
  8
C7
  10
438.000000
  20
413.000000
  0
SEQEND
  8
C7
  0
POLYLINE
  8
C7
  66
1
  10
447.000000
  20
413.000000
  0
VERTEX
  8
C7
  10
447.000000
  20
413.000000
  0
VERTEX
  8
C7
  10
447.000000
  20
412.000000
  0
VERTEX
  8
C7
  10
453.000000
  20
412.000000
  0
VERTEX
  8
C7
  10
447.000000
  20
413.000000
  0
SEQEND
  8
C7
  0
POLYLINE
  8
C7
  66
1
  10
457.000000
  20
413.000000
  0
VERTEX
  8
C7
  10
457.000000
  20
413.000000
  0
VERTEX
  8
C7
  10
457.000000
  20
412.000000
  0
VERTEX
  8
C7
  10
463.000000
  20
412.000000
  0
VERTEX
  8
C7
  10
457.000000
  20
413.000000
  0
SEQEND
  8
C7
  0
POLYLINE
  8
C7
  66
1
  10
466.000000
  20
413.000000
  0
VERTEX
  8
C7
  10
466.000000
  20
413.000000
  0
VERTEX
  8
C7
  10
466.000000
  20
412.000000
  0
VERTEX
  8
C7
  10
472.000000
  20
412.000000
  0
VERTEX
  8
C7
  10
466.000000
  20
413.000000
  0
SEQEND
  8
C7
  0
POLYLINE
  8
C7
  66
1
  10
476.000000
  20
413.000000
  0
VERTEX
  8
C7
  10
476.000000
  20
413.000000
  0
VERTEX
  8
C7
  10
476.000000
  20
412.000000
  0
VERTEX
  8
C7
  10
482.000000
  20
412.000000
  0
VERTEX
  8
C7
  10
476.000000
  20
413.000000
  0
SEQEND
  8
C7
  0
POLYLINE
  8
C7
  66
1
  10
486.000000
  20
413.000000
  0
VERTEX
  8
C7
  10
486.000000
  20
413.000000
  0
VERTEX
  8
C7
  10
486.000000
  20
412.000000
  0
VERTEX
  8
C7
  10
491.000000
  20
412.000000
  0
VERTEX
  8
C7
  10
486.000000
  20
413.000000
  0
SEQEND
  8
C7
  0
POLYLINE
  8
C7
  66
1
  10
495.000000
  20
413.000000
  0
VERTEX
  8
C7
  10
495.000000
  20
413.000000
  0
VERTEX
  8
C7
  10
495.000000
  20
412.000000
  0
VERTEX
  8
C7
  10
501.000000
  20
412.000000
  0
VERTEX
  8
C7
  10
495.000000
  20
413.000000
  0
SEQEND
  8
C7
  0
POLYLINE
  8
C7
  66
1
  10
505.000000
  20
413.000000
  0
VERTEX
  8
C7
  10
505.000000
  20
413.000000
  0
VERTEX
  8
C7
  10
505.000000
  20
412.000000
  0
VERTEX
  8
C7
  10
511.000000
  20
412.000000
  0
VERTEX
  8
C7
  10
505.000000
  20
413.000000
  0
SEQEND
  8
C7
  0
POLYLINE
  8
C7
  66
1
  10
514.000000
  20
413.000000
  0
VERTEX
  8
C7
  10
514.000000
  20
413.000000
  0
VERTEX
  8
C7
  10
514.000000
  20
412.000000
  0
VERTEX
  8
C7
  10
520.000000
  20
412.000000
  0
VERTEX
  8
C7
  10
514.000000
  20
413.000000
  0
SEQEND
  8
C7
  0
POLYLINE
  8
C7
  66
1
  10
524.000000
  20
413.000000
  0
VERTEX
  8
C7
  10
524.000000
  20
413.000000
  0
VERTEX
  8
C7
  10
524.000000
  20
412.000000
  0
VERTEX
  8
C7
  10
530.000000
  20
412.000000
  0
VERTEX
  8
C7
  10
524.000000
  20
413.000000
  0
SEQEND
  8
C7
  0
POLYLINE
  8
C7
  66
1
  10
533.000000
  20
413.000000
  0
VERTEX
  8
C7
  10
533.000000
  20
413.000000
  0
VERTEX
  8
C7
  10
533.000000
  20
412.000000
  0
VERTEX
  8
C7
  10
539.000000
  20
412.000000
  0
VERTEX
  8
C7
  10
533.000000
  20
413.000000
  0
SEQEND
  8
C7
  0
POLYLINE
  8
C7
  66
1
  10
543.000000
  20
413.000000
  0
VERTEX
  8
C7
  10
543.000000
  20
413.000000
  0
VERTEX
  8
C7
  10
543.000000
  20
412.000000
  0
VERTEX
  8
C7
  10
547.000000
  20
412.000000
  0
VERTEX
  8
C7
  10
547.000000
  20
407.000000
  0
VERTEX
  8
C7
  10
548.000000
  20
407.000000
  0
VERTEX
  8
C7
  10
548.000000
  20
413.000000
  0
VERTEX
  8
C7
  10
543.000000
  20
413.000000
  0
SEQEND
  8
C7
  0
POLYLINE
  8
C7
  66
1
  10
260.000000
  20
403.000000
  0
VERTEX
  8
C7
  10
260.000000
  20
403.000000
  0
VERTEX
  8
C7
  10
260.000000
  20
398.000000
  0
VERTEX
  8
C7
  10
261.000000
  20
398.000000
  0
VERTEX
  8
C7
  10
260.000000
  20
403.000000
  0
SEQEND
  8
C7
  0
POLYLINE
  8
C7
  66
1
  10
547.000000
  20
403.000000
  0
VERTEX
  8
C7
  10
547.000000
  20
403.000000
  0
VERTEX
  8
C7
  10
547.000000
  20
398.000000
  0
VERTEX
  8
C7
  10
548.000000
  20
398.000000
  0
VERTEX
  8
C7
  10
547.000000
  20
403.000000
  0
SEQEND
  8
C7
  0
POLYLINE
  8
C7
  66
1
  10
260.000000
  20
393.000000
  0
VERTEX
  8
C7
  10
260.000000
  20
393.000000
  0
VERTEX
  8
C7
  10
260.000000
  20
387.000000
  0
VERTEX
  8
C7
  10
261.000000
  20
387.000000
  0
VERTEX
  8
C7
  10
260.000000
  20
393.000000
  0
SEQEND
  8
C7
  0
POLYLINE
  8
C7
  66
1
  10
547.000000
  20
393.000000
  0
VERTEX
  8
C7
  10
547.000000
  20
393.000000
  0
VERTEX
  8
C7
  10
547.000000
  20
387.000000
  0
VERTEX
  8
C7
  10
548.000000
  20
387.000000
  0
VERTEX
  8
C7
  10
547.000000
  20
393.000000
  0
SEQEND
  8
C7
  0
POLYLINE
  8
C7
  66
1
  10
260.000000
  20
384.000000
  0
VERTEX
  8
C7
  10
260.000000
  20
384.000000
  0
VERTEX
  8
C7
  10
260.000000
  20
378.000000
  0
VERTEX
  8
C7
  10
261.000000
  20
378.000000
  0
VERTEX
  8
C7
  10
260.000000
  20
384.000000
  0
SEQEND
  8
C7
  0
POLYLINE
  8
C7
  66
1
  10
547.000000
  20
384.000000
  0
VERTEX
  8
C7
  10
547.000000
  20
384.000000
  0
VERTEX
  8
C7
  10
547.000000
  20
378.000000
  0
VERTEX
  8
C7
  10
548.000000
  20
378.000000
  0
VERTEX
  8
C7
  10
547.000000
  20
384.000000
  0
SEQEND
  8
C7
  0
POLYLINE
  8
C7
  66
1
  10
338.000000
  20
379.000000
  0
VERTEX
  8
C7
  10
338.000000
  20
379.000000
  0
VERTEX
  8
C7
  10
338.000000
  20
364.000000
  0
VERTEX
  8
C7
  10
348.000000
  20
364.000000
  0
VERTEX
  8
C7
  10
348.000000
  20
367.000000
  0
VERTEX
  8
C7
  10
341.000000
  20
367.000000
  0
VERTEX
  8
C7
  10
341.000000
  20
379.000000
  0
VERTEX
  8
C7
  10
338.000000
  20
379.000000
  0
SEQEND
  8
C7
  0
POLYLINE
  8
C7
  66
1
  10
349.000000
  20
379.000000
  0
VERTEX
  8
C7
  10
349.000000
  20
379.000000
  0
VERTEX
  8
C7
  10
349.000000
  20
364.000000
  0
VERTEX
  8
C7
  10
350.000100
  20
364.022500
  0
VERTEX
  8
C7
  10
350.953200
  20
364.087400
  0
VERTEX
  8
C7
  10
351.859300
  20
364.192800
  0
VERTEX
  8
C7
  10
352.718600
  20
364.336600
  0
VERTEX
  8
C7
  10
353.531300
  20
364.517000
  0
VERTEX
  8
C7
  10
354.297300
  20
364.731800
  0
VERTEX
  8
C7
  10
355.016900
  20
364.979200
  0
VERTEX
  8
C7
  10
355.690000
  20
365.257100
  0
VERTEX
  8
C7
  10
356.316900
  20
365.563700
  0
VERTEX
  8
C7
  10
356.897700
  20
365.896800
  0
VERTEX
  8
C7
  10
357.432400
  20
366.254600
  0
VERTEX
  8
C7
  10
357.921200
  20
366.635100
  0
VERTEX
  8
C7
  10
358.364100
  20
367.036300
  0
VERTEX
  8
C7
  10
358.761300
  20
367.456300
  0
VERTEX
  8
C7
  10
359.112900
  20
367.893000
  0
VERTEX
  8
C7
  10
359.419000
  20
368.344400
  0
VERTEX
  8
C7
  10
359.679800
  20
368.808700
  0
VERTEX
  8
C7
  10
359.895200
  20
369.283800
  0
VERTEX
  8
C7
  10
360.065500
  20
369.767800
  0
VERTEX
  8
C7
  10
360.190800
  20
370.258700
  0
VERTEX
  8
C7
  10
360.271000
  20
370.754500
  0
VERTEX
  8
C7
  10
360.306500
  20
371.253200
  0
VERTEX
  8
C7
  10
360.297200
  20
371.753000
  0
VERTEX
  8
C7
  10
360.243300
  20
372.251700
  0
VERTEX
  8
C7
  10
360.144900
  20
372.747400
  0
VERTEX
  8
C7
  10
360.002100
  20
373.238200
  0
VERTEX
  8
C7
  10
359.815000
  20
373.722100
  0
VERTEX
  8
C7
  10
359.583800
  20
374.197100
  0
VERTEX
  8
C7
  10
359.308500
  20
374.661300
  0
VERTEX
  8
C7
  10
358.989200
  20
375.112600
  0
VERTEX
  8
C7
  10
358.626000
  20
375.549000
  0
VERTEX
  8
C7
  10
358.219200
  20
375.968700
  0
VERTEX
  8
C7
  10
357.768700
  20
376.369700
  0
VERTEX
  8
C7
  10
357.274700
  20
376.749900
  0
VERTEX
  8
C7
  10
356.737300
  20
377.107400
  0
VERTEX
  8
C7
  10
356.156500
  20
377.440300
  0
VERTEX
  8
C7
  10
355.532700
  20
377.746500
  0
VERTEX
  8
C7
  10
354.865700
  20
378.024000
  0
VERTEX
  8
C7
  10
354.155700
  20
378.271000
  0
VERTEX
  8
C7
  10
353.402900
  20
378.485400
  0
VERTEX
  8
C7
  10
352.607400
  20
378.665300
  0
VERTEX
  8
C7
  10
351.769200
  20
378.808700
  0
VERTEX
  8
C7
  10
350.888500
  20
378.913500
  0
VERTEX
  8
C7
  10
349.965400
  20
378.978000
  0
VERTEX
  8
C7
  10
349.000000
  20
379.000000
  0
SEQEND
  8
C7
  0
POLYLINE
  8
C7
  66
1
  10
361.000000
  20
379.000000
  0
VERTEX
  8
C7
  10
361.000000
  20
379.000000
  0
VERTEX
  8
C7
  10
361.000000
  20
377.000000
  0
VERTEX
  8
C7
  10
366.000000
  20
377.000000
  0
VERTEX
  8
C7
  10
366.000000
  20
364.000000
  0
VERTEX
  8
C7
  10
369.000000
  20
364.000000
  0
VERTEX
  8
C7
  10
369.000000
  20
377.000000
  0
VERTEX
  8
C7
  10
374.000000
  20
374.000000
  0
VERTEX
  8
C7
  10
378.000000
  20
377.000000
  0
VERTEX
  8
C7
  10
380.000000
  20
377.000000
  0
VERTEX
  8
C7
  10
374.000000
  20
364.000000
  0
VERTEX
  8
C7
  10
384.000000
  20
364.000000
  0
VERTEX
  8
C7
  10
384.000000
  20
367.000000
  0
VERTEX
  8
C7
  10
379.000000
  20
367.000000
  0
VERTEX
  8
C7
  10
379.496000
  20
367.573700
  0
VERTEX
  8
C7
  10
379.956000
  20
368.180100
  0
VERTEX
  8
C7
  10
380.379300
  20
368.814000
  0
VERTEX
  8
C7
  10
380.764900
  20
369.469900
  0
VERTEX
  8
C7
  10
381.112200
  20
370.142700
  0
VERTEX
  8
C7
  10
381.420300
  20
370.827000
  0
VERTEX
  8
C7
  10
381.688400
  20
371.517600
  0
VERTEX
  8
C7
  10
381.915800
  20
372.209300
  0
VERTEX
  8
C7
  10
382.101600
  20
372.896600
  0
VERTEX
  8
C7
  10
382.245100
  20
373.574400
  0
VERTEX
  8
C7
  10
382.345400
  20
374.237400
  0
VERTEX
  8
C7
  10
382.401800
  20
374.880300
  0
VERTEX
  8
C7
  10
382.413400
  20
375.497800
  0
VERTEX
  8
C7
  10
382.379600
  20
376.084700
  0
VERTEX
  8
C7
  10
382.299400
  20
376.635600
  0
VERTEX
  8
C7
  10
382.172100
  20
377.145400
  0
VERTEX
  8
C7
  10
381.997000
  20
377.608600
  0
VERTEX
  8
C7
  10
381.773100
  20
378.020100
  0
VERTEX
  8
C7
  10
381.499700
  20
378.374500
  0
VERTEX
  8
C7
  10
381.176100
  20
378.666700
  0
VERTEX
  8
C7
  10
380.801400
  20
378.891200
  0
VERTEX
  8
C7
  10
380.374800
  20
379.042900
  0
VERTEX
  8
C7
  10
379.895600
  20
379.116400
  0
VERTEX
  8
C7
  10
379.362900
  20
379.106600
  0
VERTEX
  8
C7
  10
378.776000
  20
379.008000
  0
VERTEX
  8
C7
  10
378.134000
  20
378.815400
  0
VERTEX
  8
C7
  10
377.436200
  20
378.523600
  0
VERTEX
  8
C7
  10
376.681800
  20
378.127300
  0
VERTEX
  8
C7
  10
375.870000
  20
377.621200
  0
VERTEX
  8
C7
  10
375.000000
  20
377.000000
  0
VERTEX
  8
C7
  10
361.000000
  20
379.000000
  0
SEQEND
  8
C7
  0
POLYLINE
  8
C7
  66
1
  10
385.000000
  20
367.000000
  0
VERTEX
  8
C7
  10
385.000000
  20
367.000000
  0
VERTEX
  8
C7
  10
391.000000
  20
364.000000
  0
VERTEX
  8
C7
  10
394.000000
  20
364.000000
  0
VERTEX
  8
C7
  10
394.000000
  20
379.000000
  0
VERTEX
  8
C7
  10
393.023900
  20
378.680200
  0
VERTEX
  8
C7
  10
392.109700
  20
378.300400
  0
VERTEX
  8
C7
  10
391.256200
  20
377.862800
  0
VERTEX
  8
C7
  10
390.462100
  20
377.370000
  0
VERTEX
  8
C7
  10
389.726300
  20
376.824100
  0
VERTEX
  8
C7
  10
389.047500
  20
376.227600
  0
VERTEX
  8
C7
  10
388.424500
  20
375.582800
  0
VERTEX
  8
C7
  10
387.856200
  20
374.892100
  0
VERTEX
  8
C7
  10
387.341200
  20
374.157900
  0
VERTEX
  8
C7
  10
386.878500
  20
373.382500
  0
VERTEX
  8
C7
  10
386.466800
  20
372.568200
  0
VERTEX
  8
C7
  10
386.104900
  20
371.717600
  0
VERTEX
  8
C7
  10
385.791600
  20
370.832800
  0
VERTEX
  8
C7
  10
385.525600
  20
369.916300
  0
VERTEX
  8
C7
  10
385.305800
  20
368.970400
  0
VERTEX
  8
C7
  10
385.131000
  20
367.997500
  0
VERTEX
  8
C7
  10
385.000000
  20
367.000000
  0
SEQEND
  8
C7
  0
POLYLINE
  8
C7
  66
1
  10
398.000000
  20
373.000000
  0
VERTEX
  8
C7
  10
398.000000
  20
373.000000
  0
VERTEX
  8
C7
  10
401.000000
  20
374.000000
  0
VERTEX
  8
C7
  10
401.000000
  20
364.000000
  0
VERTEX
  8
C7
  10
404.000000
  20
364.000000
  0
VERTEX
  8
C7
  10
404.000000
  20
379.000000
  0
VERTEX
  8
C7
  10
398.000000
  20
373.000000
  0
SEQEND
  8
C7
  0
POLYLINE
  8
C7
  66
1
  10
409.606476
  20
377.972229
  0
VERTEX
  8
C7
  10
409.606476
  20
377.972229
  0
VERTEX
  8
C7
  10
409.187100
  20
377.584600
  0
VERTEX
  8
C7
  10
408.816900
  20
377.123800
  0
VERTEX
  8
C7
  10
408.495300
  20
376.597400
  0
VERTEX
  8
C7
  10
408.221700
  20
376.013200
  0
VERTEX
  8
C7
  10
407.995800
  20
375.378600
  0
VERTEX
  8
C7
  10
407.817100
  20
374.701500
  0
VERTEX
  8
C7
  10
407.685000
  20
373.989600
  0
VERTEX
  8
C7
  10
407.599300
  20
373.250400
  0
VERTEX
  8
C7
  10
407.559400
  20
372.491600
  0
VERTEX
  8
C7
  10
407.564800
  20
371.721000
  0
VERTEX
  8
C7
  10
407.615100
  20
370.946200
  0
VERTEX
  8
C7
  10
407.709900
  20
370.174800
  0
VERTEX
  8
C7
  10
407.848700
  20
369.414600
  0
VERTEX
  8
C7
  10
408.031000
  20
368.673200
  0
VERTEX
  8
C7
  10
408.256400
  20
367.958400
  0
VERTEX
  8
C7
  10
408.524500
  20
367.277600
  0
VERTEX
  8
C7
  10
408.834700
  20
366.638800
  0
VERTEX
  8
C7
  10
409.186600
  20
366.049400
  0
VERTEX
  8
C7
  10
409.579800
  20
365.517200
  0
VERTEX
  8
C7
  10
410.013800
  20
365.049900
  0
VERTEX
  8
C7
  10
410.488200
  20
364.655100
  0
VERTEX
  8
C7
  10
411.002400
  20
364.340400
  0
VERTEX
  8
C7
  10
411.556200
  20
364.113700
  0
VERTEX
  8
C7
  10
412.148800
  20
363.982500
  0
VERTEX
  8
C7
  10
412.780100
  20
363.954600
  0
VERTEX
  8
C7
  10
413.449400
  20
364.037500
  0
VERTEX
  8
C7
  10
414.156300
  20
364.239000
  0
VERTEX
  8
C7
  10
414.900400
  20
364.566800
  0
VERTEX
  8
C7
  10
415.681300
  20
365.028500
  0
VERTEX
  8
C7
  10
416.127200
  20
365.382900
  0
VERTEX
  8
C7
  10
416.516100
  20
365.810000
  0
VERTEX
  8
C7
  10
416.849300
  20
366.302600
  0
VERTEX
  8
C7
  10
417.128200
  20
366.853400
  0
VERTEX
  8
C7
  10
417.354000
  20
367.455300
  0
VERTEX
  8
C7
  10
417.528100
  20
368.101000
  0
VERTEX
  8
C7
  10
417.651800
  20
368.783300
  0
VERTEX
  8
C7
  10
417.726300
  20
369.494900
  0
VERTEX
  8
C7
  10
417.753100
  20
370.228800
  0
VERTEX
  8
C7
  10
417.733400
  20
370.977500
  0
VERTEX
  8
C7
  10
417.668600
  20
371.734000
  0
VERTEX
  8
C7
  10
417.559900
  20
372.491000
  0
VERTEX
  8
C7
  10
417.408600
  20
373.241200
  0
VERTEX
  8
C7
  10
417.216200
  20
373.977500
  0
VERTEX
  8
C7
  10
416.983900
  20
374.692700
  0
VERTEX
  8
C7
  10
416.713000
  20
375.379500
  0
VERTEX
  8
C7
  10
416.404800
  20
376.030700
  0
VERTEX
  8
C7
  10
416.060700
  20
376.639100
  0
VERTEX
  8
C7
  10
415.682000
  20
377.197400
  0
VERTEX
  8
C7
  10
415.269900
  20
377.698500
  0
VERTEX
  8
C7
  10
414.825900
  20
378.135100
  0
VERTEX
  8
C7
  10
414.351100
  20
378.500000
  0
VERTEX
  8
C7
  10
413.847000
  20
378.786000
  0
VERTEX
  8
C7
  10
413.314800
  20
378.985900
  0
VERTEX
  8
C7
  10
412.755900
  20
379.092400
  0
VERTEX
  8
C7
  10
412.171600
  20
379.098400
  0
VERTEX
  8
C7
  10
411.563200
  20
378.996600
  0
VERTEX
  8
C7
  10
410.931900
  20
378.779700
  0
VERTEX
  8
C7
  10
410.279200
  20
378.440700
  0
VERTEX
  8
C7
  10
409.606400
  20
377.972200
  0
SEQEND
  8
C7
  0
POLYLINE
  8
C7
  66
1
  10
419.000000
  20
379.000000
  0
VERTEX
  8
C7
  10
419.000000
  20
379.000000
  0
VERTEX
  8
C7
  10
419.000000
  20
376.000000
  0
VERTEX
  8
C7
  10
424.000000
  20
376.000000
  0
VERTEX
  8
C7
  10
421.000000
  20
364.000000
  0
VERTEX
  8
C7
  10
424.000000
  20
364.000000
  0
VERTEX
  8
C7
  10
430.000000
  20
377.000000
  0
VERTEX
  8
C7
  10
433.000000
  20
364.000000
  0
VERTEX
  8
C7
  10
436.000000
  20
364.000000
  0
VERTEX
  8
C7
  10
440.000000
  20
373.000000
  0
VERTEX
  8
C7
  10
440.088800
  20
371.970300
  0
VERTEX
  8
C7
  10
440.191800
  20
370.977500
  0
VERTEX
  8
C7
  10
440.322600
  20
370.025900
  0
VERTEX
  8
C7
  10
440.494700
  20
369.119600
  0
VERTEX
  8
C7
  10
440.721900
  20
368.262700
  0
VERTEX
  8
C7
  10
441.017800
  20
367.459500
  0
VERTEX
  8
C7
  10
441.396000
  20
366.714100
  0
VERTEX
  8
C7
  10
441.870300
  20
366.030600
  0
VERTEX
  8
C7
  10
442.454100
  20
365.413300
  0
VERTEX
  8
C7
  10
443.161200
  20
364.866300
  0
VERTEX
  8
C7
  10
444.005300
  20
364.393800
  0
VERTEX
  8
C7
  10
445.000000
  20
364.000000
  0
VERTEX
  8
C7
  10
449.000000
  20
379.000000
  0
VERTEX
  8
C7
  10
448.005300
  20
378.606100
  0
VERTEX
  8
C7
  10
447.161200
  20
378.133500
  0
VERTEX
  8
C7
  10
446.454100
  20
377.586500
  0
VERTEX
  8
C7
  10
445.870200
  20
376.969200
  0
VERTEX
  8
C7
  10
445.396000
  20
376.285800
  0
VERTEX
  8
C7
  10
445.017800
  20
375.540300
  0
VERTEX
  8
C7
  10
444.721900
  20
374.737100
  0
VERTEX
  8
C7
  10
444.494700
  20
373.880300
  0
VERTEX
  8
C7
  10
444.322600
  20
372.974000
  0
VERTEX
  8
C7
  10
444.191800
  20
372.022400
  0
VERTEX
  8
C7
  10
444.088800
  20
371.029600
  0
VERTEX
  8
C7
  10
444.000000
  20
370.000000
  0
VERTEX
  8
C7
  10
443.000000
  20
370.000000
  0
VERTEX
  8
C7
  10
441.000000
  20
379.000000
  0
VERTEX
  8
C7
  10
439.951200
  20
378.753400
  0
VERTEX
  8
C7
  10
439.040300
  20
378.407400
  0
VERTEX
  8
C7
  10
438.256600
  20
377.968800
  0
VERTEX
  8
C7
  10
437.589600
  20
377.444500
  0
VERTEX
  8
C7
  10
437.028600
  20
376.841300
  0
VERTEX
  8
C7
  10
436.563000
  20
376.166200
  0
VERTEX
  8
C7
  10
436.182300
  20
375.426100
  0
VERTEX
  8
C7
  10
435.875700
  20
374.627700
  0
VERTEX
  8
C7
  10
435.632700
  20
373.778000
  0
VERTEX
  8
C7
  10
435.442600
  20
372.883800
  0
VERTEX
  8
C7
  10
435.295000
  20
371.952000
  0
VERTEX
  8
C7
  10
435.179000
  20
370.989600
  0
VERTEX
  8
C7
  10
435.084200
  20
370.003200
  0
VERTEX
  8
C7
  10
435.000000
  20
369.000000
  0
VERTEX
  8
C7
  10
434.506300
  20
370.277300
  0
VERTEX
  8
C7
  10
434.029700
  20
371.441000
  0
VERTEX
  8
C7
  10
433.564300
  20
372.496300
  0
VERTEX
  8
C7
  10
433.104200
  20
373.448600
  0
VERTEX
  8
C7
  10
432.643500
  20
374.303200
  0
VERTEX
  8
C7
  10
432.176300
  20
375.065200
  0
VERTEX
  8
C7
  10
431.696700
  20
375.740100
  0
VERTEX
  8
C7
  10
431.198800
  20
376.333100
  0
VERTEX
  8
C7
  10
430.676700
  20
376.849500
  0
VERTEX
  8
C7
  10
430.124400
  20
377.294600
  0
VERTEX
  8
C7
  10
429.536200
  20
377.673700
  0
VERTEX
  8
C7
  10
428.906000
  20
377.992100
  0
VERTEX
  8
C7
  10
428.228000
  20
378.255000
  0
VERTEX
  8
C7
  10
427.496200
  20
378.467800
  0
VERTEX
  8
C7
  10
426.704900
  20
378.635700
  0
VERTEX
  8
C7
  10
425.848000
  20
378.764100
  0
VERTEX
  8
C7
  10
424.919600
  20
378.858200
  0
VERTEX
  8
C7
  10
423.914000
  20
378.923300
  0
VERTEX
  8
C7
  10
422.825100
  20
378.964800
  0
VERTEX
  8
C7
  10
421.647000
  20
378.987900
  0
VERTEX
  8
C7
  10
420.374000
  20
378.997800
  0
VERTEX
  8
C7
  10
419.000000
  20
379.000000
  0
SEQEND
  8
C7
  0
POLYLINE
  8
C7
  66
1
  10
450.000000
  20
373.000000
  0
VERTEX
  8
C7
  10
450.000000
  20
373.000000
  0
VERTEX
  8
C7
  10
454.000000
  20
374.000000
  0
VERTEX
  8
C7
  10
454.000000
  20
364.000000
  0
VERTEX
  8
C7
  10
456.000000
  20
364.000000
  0
VERTEX
  8
C7
  10
456.000000
  20
379.000000
  0
VERTEX
  8
C7
  10
450.000000
  20
373.000000
  0
SEQEND
  8
C7
  0
POLYLINE
  8
C7
  66
1
  10
352.000000
  20
377.000000
  0
VERTEX
  8
C7
  10
352.000000
  20
377.000000
  0
VERTEX
  8
C7
  10
352.000000
  20
373.000000
  0
VERTEX
  8
C7
  10
357.000000
  20
374.000000
  0
VERTEX
  8
C7
  10
357.000000
  20
376.000000
  0
VERTEX
  8
C7
  10
352.000000
  20
377.000000
  0
SEQEND
  8
C7
  0
POLYLINE
  8
C7
  66
1
  10
412.000000
  20
377.000000
  0
VERTEX
  8
C7
  10
412.000000
  20
377.000000
  0
VERTEX
  8
C7
  10
411.000000
  20
374.000000
  0
VERTEX
  8
C7
  10
414.000000
  20
374.000000
  0
VERTEX
  8
C7
  10
412.000000
  20
377.000000
  0
SEQEND
  8
C7
  0
POLYLINE
  8
C7
  66
1
  10
260.000000
  20
374.000000
  0
VERTEX
  8
C7
  10
260.000000
  20
374.000000
  0
VERTEX
  8
C7
  10
260.000000
  20
368.000000
  0
VERTEX
  8
C7
  10
261.000000
  20
368.000000
  0
VERTEX
  8
C7
  10
260.000000
  20
374.000000
  0
SEQEND
  8
C7
  0
POLYLINE
  8
C7
  66
1
  10
390.000000
  20
374.000000
  0
VERTEX
  8
C7
  10
390.000000
  20
374.000000
  0
VERTEX
  8
C7
  10
388.000000
  20
370.000000
  0
VERTEX
  8
C7
  10
389.161900
  20
370.325800
  0
VERTEX
  8
C7
  10
389.996800
  20
370.753200
  0
VERTEX
  8
C7
  10
390.501300
  20
371.308200
  0
VERTEX
  8
C7
  10
390.672200
  20
372.016900
  0
VERTEX
  8
C7
  10
390.506200
  20
372.905500
  0
VERTEX
  8
C7
  10
390.000000
  20
374.000000
  0
SEQEND
  8
C7
  0
POLYLINE
  8
C7
  66
1
  10
547.000000
  20
374.000000
  0
VERTEX
  8
C7
  10
547.000000
  20
374.000000
  0
VERTEX
  8
C7
  10
547.000000
  20
368.000000
  0
VERTEX
  8
C7
  10
548.000000
  20
368.000000
  0
VERTEX
  8
C7
  10
547.000000
  20
374.000000
  0
SEQEND
  8
C7
  0
POLYLINE
  8
C7
  66
1
  10
352.000000
  20
371.000000
  0
VERTEX
  8
C7
  10
352.000000
  20
371.000000
  0
VERTEX
  8
C7
  10
352.000000
  20
367.000000
  0
VERTEX
  8
C7
  10
358.000000
  20
368.000000
  0
VERTEX
  8
C7
  10
352.000000
  20
371.000000
  0
SEQEND
  8
C7
  0
POLYLINE
  8
C7
  66
1
  10
410.000000
  20
369.000000
  0
VERTEX
  8
C7
  10
410.000000
  20
369.000000
  0
VERTEX
  8
C7
  10
410.000000
  20
368.000000
  0
VERTEX
  8
C7
  10
415.000000
  20
367.000000
  0
VERTEX
  8
C7
  10
414.000000
  20
371.000000
  0
VERTEX
  8
C7
  10
410.000000
  20
369.000000
  0
SEQEND
  8
C7
  0
POLYLINE
  8
C7
  66
1
  10
260.000000
  20
365.000000
  0
VERTEX
  8
C7
  10
260.000000
  20
365.000000
  0
VERTEX
  8
C7
  10
260.000000
  20
359.000000
  0
VERTEX
  8
C7
  10
261.000000
  20
359.000000
  0
VERTEX
  8
C7
  10
260.000000
  20
365.000000
  0
SEQEND
  8
C7
  0
POLYLINE
  8
C7
  66
1
  10
547.000000
  20
365.000000
  0
VERTEX
  8
C7
  10
547.000000
  20
365.000000
  0
VERTEX
  8
C7
  10
547.000000
  20
359.000000
  0
VERTEX
  8
C7
  10
548.000000
  20
359.000000
  0
VERTEX
  8
C7
  10
547.000000
  20
365.000000
  0
SEQEND
  8
C7
  0
POLYLINE
  8
C7
  66
1
  10
260.000000
  20
355.000000
  0
VERTEX
  8
C7
  10
260.000000
  20
355.000000
  0
VERTEX
  8
C7
  10
260.000000
  20
349.000000
  0
VERTEX
  8
C7
  10
261.000000
  20
349.000000
  0
VERTEX
  8
C7
  10
260.000000
  20
355.000000
  0
SEQEND
  8
C7
  0
POLYLINE
  8
C7
  66
1
  10
547.000000
  20
355.000000
  0
VERTEX
  8
C7
  10
547.000000
  20
355.000000
  0
VERTEX
  8
C7
  10
547.000000
  20
349.000000
  0
VERTEX
  8
C7
  10
548.000000
  20
349.000000
  0
VERTEX
  8
C7
  10
547.000000
  20
355.000000
  0
SEQEND
  8
C7
  0
POLYLINE
  8
C7
  66
1
  10
260.000000
  20
345.000000
  0
VERTEX
  8
C7
  10
260.000000
  20
345.000000
  0
VERTEX
  8
C7
  10
260.000000
  20
340.000000
  0
VERTEX
  8
C7
  10
261.000000
  20
340.000000
  0
VERTEX
  8
C7
  10
260.000000
  20
345.000000
  0
SEQEND
  8
C7
  0
POLYLINE
  8
C7
  66
1
  10
547.000000
  20
345.000000
  0
VERTEX
  8
C7
  10
547.000000
  20
345.000000
  0
VERTEX
  8
C7
  10
547.000000
  20
340.000000
  0
VERTEX
  8
C7
  10
548.000000
  20
340.000000
  0
VERTEX
  8
C7
  10
547.000000
  20
345.000000
  0
SEQEND
  8
C7
  0
POLYLINE
  8
C7
  66
1
  10
46.000000
  20
336.000000
  0
VERTEX
  8
C7
  10
46.000000
  20
336.000000
  0
VERTEX
  8
C7
  10
49.000000
  20
337.000000
  0
VERTEX
  8
C7
  10
49.000000
  20
327.000000
  0
VERTEX
  8
C7
  10
51.000000
  20
327.000000
  0
VERTEX
  8
C7
  10
51.000000
  20
342.000000
  0
VERTEX
  8
C7
  10
46.000000
  20
336.000000
  0
SEQEND
  8
C7
  0
POLYLINE
  8
C7
  66
1
  10
58.144291
  20
341.199066
  0
VERTEX
  8
C7
  10
58.144291
  20
341.199066
  0
VERTEX
  8
C7
  10
57.572400
  20
340.932700
  0
VERTEX
  8
C7
  10
57.055600
  20
340.568100
  0
VERTEX
  8
C7
  10
56.593800
  20
340.114900
  0
VERTEX
  8
C7
  10
56.186800
  20
339.582800
  0
VERTEX
  8
C7
  10
55.834400
  20
338.981600
  0
VERTEX
  8
C7
  10
55.536600
  20
338.321100
  0
VERTEX
  8
C7
  10
55.293200
  20
337.611000
  0
VERTEX
  8
C7
  10
55.104100
  20
336.861000
  0
VERTEX
  8
C7
  10
54.969300
  20
336.080800
  0
VERTEX
  8
C7
  10
54.888500
  20
335.280400
  0
VERTEX
  8
C7
  10
54.861700
  20
334.469300
  0
VERTEX
  8
C7
  10
54.888700
  20
333.657400
  0
VERTEX
  8
C7
  10
54.969500
  20
332.854400
  0
VERTEX
  8
C7
  10
55.103900
  20
332.070000
  0
VERTEX
  8
C7
  10
55.291800
  20
331.314100
  0
VERTEX
  8
C7
  10
55.533100
  20
330.596300
  0
VERTEX
  8
C7
  10
55.827700
  20
329.926400
  0
VERTEX
  8
C7
  10
56.175400
  20
329.314100
  0
VERTEX
  8
C7
  10
56.576100
  20
328.769300
  0
VERTEX
  8
C7
  10
57.029800
  20
328.301600
  0
VERTEX
  8
C7
  10
57.536200
  20
327.920900
  0
VERTEX
  8
C7
  10
58.095400
  20
327.636700
  0
VERTEX
  8
C7
  10
58.707100
  20
327.459100
  0
VERTEX
  8
C7
  10
59.371200
  20
327.397500
  0
VERTEX
  8
C7
  10
60.087700
  20
327.461900
  0
VERTEX
  8
C7
  10
60.856400
  20
327.662000
  0
VERTEX
  8
C7
  10
61.409900
  20
327.909300
  0
VERTEX
  8
C7
  10
61.912400
  20
328.250200
  0
VERTEX
  8
C7
  10
62.364000
  20
328.675800
  0
VERTEX
  8
C7
  10
62.764700
  20
329.177300
  0
VERTEX
  8
C7
  10
63.114800
  20
329.745700
  0
VERTEX
  8
C7
  10
63.414200
  20
330.372200
  0
VERTEX
  8
C7
  10
63.663000
  20
331.047800
  0
VERTEX
  8
C7
  10
63.861300
  20
331.763700
  0
VERTEX
  8
C7
  10
64.009100
  20
332.511100
  0
VERTEX
  8
C7
  10
64.106700
  20
333.280900
  0
VERTEX
  8
C7
  10
64.154000
  20
334.064300
  0
VERTEX
  8
C7
  10
64.151100
  20
334.852500
  0
VERTEX
  8
C7
  10
64.098200
  20
335.636500
  0
VERTEX
  8
C7
  10
63.995300
  20
336.407500
  0
VERTEX
  8
C7
  10
63.842400
  20
337.156500
  0
VERTEX
  8
C7
  10
63.639700
  20
337.874800
  0
VERTEX
  8
C7
  10
63.387200
  20
338.553300
  0
VERTEX
  8
C7
  10
63.085100
  20
339.183200
  0
VERTEX
  8
C7
  10
62.733400
  20
339.755600
  0
VERTEX
  8
C7
  10
62.332100
  20
340.261700
  0
VERTEX
  8
C7
  10
61.881500
  20
340.692400
  0
VERTEX
  8
C7
  10
61.381500
  20
341.039100
  0
VERTEX
  8
C7
  10
60.832200
  20
341.292700
  0
VERTEX
  8
C7
  10
60.233800
  20
341.444400
  0
VERTEX
  8
C7
  10
59.586200
  20
341.485200
  0
VERTEX
  8
C7
  10
58.889600
  20
341.406400
  0
VERTEX
  8
C7
  10
58.144200
  20
341.199000
  0
SEQEND
  8
C7
  0
POLYLINE
  8
C7
  66
1
  10
72.000000
  20
342.000000
  0
VERTEX
  8
C7
  10
72.000000
  20
342.000000
  0
VERTEX
  8
C7
  10
72.000000
  20
333.000000
  0
VERTEX
  8
C7
  10
76.000000
  20
335.000000
  0
VERTEX
  8
C7
  10
77.000000
  20
330.000000
  0
VERTEX
  8
C7
  10
70.000000
  20
332.000000
  0
VERTEX
  8
C7
  10
70.418000
  20
331.036600
  0
VERTEX
  8
C7
  10
70.890400
  20
330.187000
  0
VERTEX
  8
C7
  10
71.414800
  20
329.453300
  0
VERTEX
  8
C7
  10
71.988900
  20
328.837800
  0
VERTEX
  8
C7
  10
72.610300
  20
328.342900
  0
VERTEX
  8
C7
  10
73.276600
  20
327.970900
  0
VERTEX
  8
C7
  10
73.985500
  20
327.724100
  0
VERTEX
  8
C7
  10
74.734500
  20
327.604700
  0
VERTEX
  8
C7
  10
75.521400
  20
327.615000
  0
VERTEX
  8
C7
  10
76.343800
  20
327.757400
  0
VERTEX
  8
C7
  10
77.199200
  20
328.034200
  0
VERTEX
  8
C7
  10
78.085400
  20
328.447600
  0
VERTEX
  8
C7
  10
79.000000
  20
329.000000
  0
VERTEX
  8
C7
  10
80.000000
  20
329.000000
  0
VERTEX
  8
C7
  10
82.000000
  20
327.000000
  0
VERTEX
  8
C7
  10
86.000000
  20
342.000000
  0
VERTEX
  8
C7
  10
81.000000
  20
330.000000
  0
VERTEX
  8
C7
  10
80.000000
  20
330.000000
  0
VERTEX
  8
C7
  10
79.884800
  20
331.137500
  0
VERTEX
  8
C7
  10
79.715200
  20
332.157000
  0
VERTEX
  8
C7
  10
79.480600
  20
333.064600
  0
VERTEX
  8
C7
  10
79.170500
  20
333.866000
  0
VERTEX
  8
C7
  10
78.774400
  20
334.567200
  0
VERTEX
  8
C7
  10
78.281600
  20
335.174000
  0
VERTEX
  8
C7
  10
77.681700
  20
335.692400
  0
VERTEX
  8
C7
  10
76.964200
  20
336.128300
  0
VERTEX
  8
C7
  10
76.118400
  20
336.487600
  0
VERTEX
  8
C7
  10
75.133800
  20
336.776200
  0
VERTEX
  8
C7
  10
74.000000
  20
337.000000
  0
VERTEX
  8
C7
  10
74.000000
  20
339.000000
  0
VERTEX
  8
C7
  10
80.000000
  20
339.000000
  0
VERTEX
  8
C7
  10
80.000000
  20
342.000000
  0
VERTEX
  8
C7
  10
72.000000
  20
342.000000
  0
SEQEND
  8
C7
  0
POLYLINE
  8
C7
  66
1
  10
87.000000
  20
336.000000
  0
VERTEX
  8
C7
  10
87.000000
  20
336.000000
  0
VERTEX
  8
C7
  10
91.000000
  20
337.000000
  0
VERTEX
  8
C7
  10
91.000000
  20
327.000000
  0
VERTEX
  8
C7
  10
93.000000
  20
327.000000
  0
VERTEX
  8
C7
  10
93.000000
  20
342.000000
  0
VERTEX
  8
C7
  10
87.000000
  20
336.000000
  0
SEQEND
  8
C7
  0
POLYLINE
  8
C7
  66
1
  10
104.000000
  20
336.000000
  0
VERTEX
  8
C7
  10
104.000000
  20
336.000000
  0
VERTEX
  8
C7
  10
104.405900
  20
336.804800
  0
VERTEX
  8
C7
  10
104.648100
  20
337.600000
  0
VERTEX
  8
C7
  10
104.736000
  20
338.368200
  0
VERTEX
  8
C7
  10
104.679500
  20
339.092500
  0
VERTEX
  8
C7
  10
104.488300
  20
339.755700
  0
VERTEX
  8
C7
  10
104.172100
  20
340.340500
  0
VERTEX
  8
C7
  10
103.740800
  20
340.829900
  0
VERTEX
  8
C7
  10
103.203900
  20
341.206700
  0
VERTEX
  8
C7
  10
102.571200
  20
341.453700
  0
VERTEX
  8
C7
  10
101.852500
  20
341.553900
  0
VERTEX
  8
C7
  10
101.057600
  20
341.490000
  0
VERTEX
  8
C7
  10
100.196000
  20
341.245000
  0
VERTEX
  8
C7
  10
99.277700
  20
340.801700
  0
SEQEND
  8
C7
  0
POLYLINE
  8
C7
  66
1
  10
99.277700
  20
340.801600
  0
VERTEX
  8
C7
  10
99.277700
  20
340.801600
  0
VERTEX
  8
C7
  10
98.613600
  20
340.397800
  0
VERTEX
  8
C7
  10
98.008800
  20
339.993400
  0
VERTEX
  8
C7
  10
97.461500
  20
339.589000
  0
VERTEX
  8
C7
  10
96.970100
  20
339.185000
  0
VERTEX
  8
C7
  10
96.532700
  20
338.781900
  0
VERTEX
  8
C7
  10
96.147800
  20
338.380200
  0
VERTEX
  8
C7
  10
95.813500
  20
337.980300
  0
VERTEX
  8
C7
  10
95.528300
  20
337.582700
  0
VERTEX
  8
C7
  10
95.290500
  20
337.187900
  0
VERTEX
  8
C7
  10
95.098300
  20
336.796400
  0
VERTEX
  8
C7
  10
94.950000
  20
336.408600
  0
VERTEX
  8
C7
  10
94.843900
  20
336.025000
  0
VERTEX
  8
C7
  10
94.778500
  20
335.646200
  0
VERTEX
  8
C7
  10
94.751800
  20
335.272500
  0
VERTEX
  8
C7
  10
94.762300
  20
334.904500
  0
VERTEX
  8
C7
  10
94.808300
  20
334.542600
  0
VERTEX
  8
C7
  10
94.888100
  20
334.187300
  0
VERTEX
  8
C7
  10
94.999900
  20
333.839100
  0
VERTEX
  8
C7
  10
95.142100
  20
333.498500
  0
VERTEX
  8
C7
  10
95.313000
  20
333.165900
  0
VERTEX
  8
C7
  10
95.510800
  20
332.841800
  0
VERTEX
  8
C7
  10
95.734000
  20
332.526700
  0
VERTEX
  8
C7
  10
95.980700
  20
332.221100
  0
VERTEX
  8
C7
  10
96.249300
  20
331.925400
  0
VERTEX
  8
C7
  10
96.538100
  20
331.640100
  0
VERTEX
  8
C7
  10
96.845500
  20
331.365800
  0
VERTEX
  8
C7
  10
97.169600
  20
331.102800
  0
VERTEX
  8
C7
  10
97.508800
  20
330.851600
  0
VERTEX
  8
C7
  10
97.861500
  20
330.612800
  0
VERTEX
  8
C7
  10
98.225900
  20
330.386800
  0
VERTEX
  8
C7
  10
98.600200
  20
330.174100
  0
VERTEX
  8
C7
  10
98.983000
  20
329.975200
  0
VERTEX
  8
C7
  10
99.372300
  20
329.790500
  0
VERTEX
  8
C7
  10
99.766600
  20
329.620500
  0
VERTEX
  8
C7
  10
100.164100
  20
329.465700
  0
VERTEX
  8
C7
  10
100.563200
  20
329.326500
  0
VERTEX
  8
C7
  10
100.962100
  20
329.203500
  0
VERTEX
  8
C7
  10
101.359200
  20
329.097100
  0
VERTEX
  8
C7
  10
101.752700
  20
329.007900
  0
VERTEX
  8
C7
  10
102.141000
  20
328.936200
  0
VERTEX
  8
C7
  10
102.522400
  20
328.882500
  0
VERTEX
  8
C7
  10
102.895100
  20
328.847400
  0
VERTEX
  8
C7
  10
103.257500
  20
328.831300
  0
VERTEX
  8
C7
  10
103.607800
  20
328.834600
  0
VERTEX
  8
C7
  10
103.944500
  20
328.858000
  0
VERTEX
  8
C7
  10
104.265700
  20
328.901700
  0
VERTEX
  8
C7
  10
104.569800
  20
328.966400
  0
VERTEX
  8
C7
  10
104.855100
  20
329.052500
  0
VERTEX
  8
C7
  10
105.119900
  20
329.160400
  0
VERTEX
  8
C7
  10
105.362500
  20
329.290700
  0
VERTEX
  8
C7
  10
105.581200
  20
329.443800
  0
VERTEX
  8
C7
  10
105.774400
  20
329.620200
  0
VERTEX
  8
C7
  10
105.940200
  20
329.820300
  0
VERTEX
  8
C7
  10
106.077000
  20
330.044700
  0
VERTEX
  8
C7
  10
106.183200
  20
330.293900
  0
VERTEX
  8
C7
  10
106.257000
  20
330.568200
  0
VERTEX
  8
C7
  10
106.296700
  20
330.868300
  0
VERTEX
  8
C7
  10
106.300700
  20
331.194400
  0
VERTEX
  8
C7
  10
106.267200
  20
331.547300
  0
VERTEX
  8
C7
  10
106.194500
  20
331.927200
  0
VERTEX
  8
C7
  10
106.081000
  20
332.334700
  0
VERTEX
  8
C7
  10
105.924900
  20
332.770300
  0
VERTEX
  8
C7
  10
105.724600
  20
333.234500
  0
VERTEX
  8
C7
  10
105.478300
  20
333.727600
  0
VERTEX
  8
C7
  10
105.184400
  20
334.250300
  0
VERTEX
  8
C7
  10
104.841200
  20
334.802900
  0
VERTEX
  8
C7
  10
104.446900
  20
335.386000
  0
VERTEX
  8
C7
  10
104.000000
  20
336.000000
  0
SEQEND
  8
C7
  0
POLYLINE
  8
C7
  66
1
  10
107.000000
  20
342.000000
  0
VERTEX
  8
C7
  10
107.000000
  20
342.000000
  0
VERTEX
  8
C7
  10
107.000000
  20
336.000000
  0
VERTEX
  8
C7
  10
109.000000
  20
338.000000
  0
VERTEX
  8
C7
  10
110.000000
  20
338.000000
  0
VERTEX
  8
C7
  10
112.000000
  20
336.000000
  0
VERTEX
  8
C7
  10
113.000000
  20
342.000000
  0
VERTEX
  8
C7
  10
107.000000
  20
342.000000
  0
SEQEND
  8
C7
  0
POLYLINE
  8
C7
  66
1
  10
117.000000
  20
342.000000
  0
VERTEX
  8
C7
  10
117.000000
  20
342.000000
  0
VERTEX
  8
C7
  10
116.600300
  20
341.204500
  0
VERTEX
  8
C7
  10
116.220100
  20
340.378300
  0
VERTEX
  8
C7
  10
115.862900
  20
339.525300
  0
VERTEX
  8
C7
  10
115.532300
  20
338.649500
  0
VERTEX
  8
C7
  10
115.231700
  20
337.754900
  0
VERTEX
  8
C7
  10
114.964700
  20
336.845400
  0
VERTEX
  8
C7
  10
114.734900
  20
335.925200
  0
VERTEX
  8
C7
  10
114.545700
  20
334.998300
  0
VERTEX
  8
C7
  10
114.400800
  20
334.068500
  0
VERTEX
  8
C7
  10
114.303700
  20
333.139900
  0
VERTEX
  8
C7
  10
114.257900
  20
332.216600
  0
VERTEX
  8
C7
  10
114.266900
  20
331.302400
  0
VERTEX
  8
C7
  10
114.334400
  20
330.401500
  0
VERTEX
  8
C7
  10
114.463700
  20
329.517800
  0
VERTEX
  8
C7
  10
114.658600
  20
328.655400
  0
VERTEX
  8
C7
  10
114.922500
  20
327.818100
  0
VERTEX
  8
C7
  10
115.259000
  20
327.010100
  0
VERTEX
  8
C7
  10
115.671500
  20
326.235300
  0
VERTEX
  8
C7
  10
116.163800
  20
325.497800
  0
VERTEX
  8
C7
  10
116.739200
  20
324.801500
  0
VERTEX
  8
C7
  10
117.401300
  20
324.150400
  0
VERTEX
  8
C7
  10
118.153700
  20
323.548500
  0
VERTEX
  8
C7
  10
119.000000
  20
323.000000
  0
VERTEX
  8
C7
  10
119.000000
  20
342.000000
  0
VERTEX
  8
C7
  10
117.000000
  20
342.000000
  0
SEQEND
  8
C7
  0
POLYLINE
  8
C7
  66
1
  10
119.000000
  20
331.000000
  0
VERTEX
  8
C7
  10
119.000000
  20
331.000000
  0
VERTEX
  8
C7
  10
125.000000
  20
331.000000
  0
VERTEX
  8
C7
  10
125.000000
  20
327.000000
  0
VERTEX
  8
C7
  10
128.000000
  20
327.000000
  0
VERTEX
  8
C7
  10
128.000000
  20
342.000000
  0
VERTEX
  8
C7
  10
127.017900
  20
341.652400
  0
VERTEX
  8
C7
  10
126.096100
  20
341.231700
  0
VERTEX
  8
C7
  10
125.233400
  20
340.742000
  0
VERTEX
  8
C7
  10
124.428400
  20
340.187400
  0
VERTEX
  8
C7
  10
123.679800
  20
339.572100
  0
VERTEX
  8
C7
  10
122.986100
  20
338.900400
  0
VERTEX
  8
C7
  10
122.346200
  20
338.176300
  0
VERTEX
  8
C7
  10
121.758600
  20
337.404000
  0
VERTEX
  8
C7
  10
121.222100
  20
336.587800
  0
VERTEX
  8
C7
  10
120.735300
  20
335.731700
  0
VERTEX
  8
C7
  10
120.296800
  20
334.840000
  0
VERTEX
  8
C7
  10
119.905400
  20
333.916800
  0
VERTEX
  8
C7
  10
119.559600
  20
332.966200
  0
VERTEX
  8
C7
  10
119.258300
  20
331.992600
  0
VERTEX
  8
C7
  10
119.000000
  20
331.000000
  0
SEQEND
  8
C7
  0
POLYLINE
  8
C7
  66
1
  10
138.000000
  20
336.000000
  0
VERTEX
  8
C7
  10
138.000000
  20
336.000000
  0
VERTEX
  8
C7
  10
138.392000
  20
336.851400
  0
VERTEX
  8
C7
  10
138.600600
  20
337.688000
  0
VERTEX
  8
C7
  10
138.637800
  20
338.489600
  0
VERTEX
  8
C7
  10
138.515400
  20
339.235700
  0
VERTEX
  8
C7
  10
138.245400
  20
339.906200
  0
VERTEX
  8
C7
  10
137.839700
  20
340.480800
  0
VERTEX
  8
C7
  10
137.310200
  20
340.939100
  0
VERTEX
  8
C7
  10
136.668900
  20
341.260800
  0
VERTEX
  8
C7
  10
135.927800
  20
341.425800
  0
VERTEX
  8
C7
  10
135.098700
  20
341.413700
  0
VERTEX
  8
C7
  10
134.193600
  20
341.204100
  0
VERTEX
  8
C7
  10
133.224500
  20
340.777000
  0
VERTEX
  8
C7
  10
132.552400
  20
340.393400
  0
VERTEX
  8
C7
  10
131.939100
  20
340.007300
  0
VERTEX
  8
C7
  10
131.383000
  20
339.619200
  0
VERTEX
  8
C7
  10
130.882400
  20
339.229600
  0
VERTEX
  8
C7
  10
130.435600
  20
338.839200
  0
VERTEX
  8
C7
  10
130.040900
  20
338.448300
  0
VERTEX
  8
C7
  10
129.696800
  20
338.057700
  0
VERTEX
  8
C7
  10
129.401400
  20
337.667700
  0
VERTEX
  8
C7
  10
129.153200
  20
337.279000
  0
VERTEX
  8
C7
  10
128.950400
  20
336.892100
  0
VERTEX
  8
C7
  10
128.791500
  20
336.507500
  0
VERTEX
  8
C7
  10
128.674700
  20
336.125800
  0
VERTEX
  8
C7
  10
128.598400
  20
335.747500
  0
VERTEX
  8
C7
  10
128.560900
  20
335.373100
  0
VERTEX
  8
C7
  10
128.560600
  20
335.003300
  0
VERTEX
  8
C7
  10
128.595800
  20
334.638400
  0
VERTEX
  8
C7
  10
128.664800
  20
334.279200
  0
VERTEX
  8
C7
  10
128.765900
  20
333.926000
  0
VERTEX
  8
C7
  10
128.897500
  20
333.579500
  0
VERTEX
  8
C7
  10
129.058000
  20
333.240200
  0
VERTEX
  8
C7
  10
129.245600
  20
332.908600
  0
VERTEX
  8
C7
  10
129.458700
  20
332.585300
  0
VERTEX
  8
C7
  10
129.695600
  20
332.270800
  0
VERTEX
  8
C7
  10
129.954600
  20
331.965700
  0
VERTEX
  8
C7
  10
130.234200
  20
331.670400
  0
VERTEX
  8
C7
  10
130.532600
  20
331.385600
  0
VERTEX
  8
C7
  10
130.848100
  20
331.111800
  0
VERTEX
  8
C7
  10
131.179200
  20
330.849500
  0
VERTEX
  8
C7
  10
131.524100
  20
330.599200
  0
VERTEX
  8
C7
  10
131.881100
  20
330.361500
  0
VERTEX
  8
C7
  10
132.248600
  20
330.137000
  0
VERTEX
  8
C7
  10
132.625000
  20
329.926100
  0
VERTEX
  8
C7
  10
133.008500
  20
329.729500
  0
VERTEX
  8
C7
  10
133.397500
  20
329.547600
  0
VERTEX
  8
C7
  10
133.790400
  20
329.381000
  0
VERTEX
  8
C7
  10
134.185400
  20
329.230200
  0
VERTEX
  8
C7
  10
134.580900
  20
329.095800
  0
VERTEX
  8
C7
  10
134.975300
  20
328.978300
  0
VERTEX
  8
C7
  10
135.366800
  20
328.878300
  0
VERTEX
  8
C7
  10
135.753800
  20
328.796300
  0
VERTEX
  8
C7
  10
136.134700
  20
328.732800
  0
VERTEX
  8
C7
  10
136.507700
  20
328.688400
  0
VERTEX
  8
C7
  10
136.871200
  20
328.663600
  0
VERTEX
  8
C7
  10
137.223600
  20
328.659000
  0
VERTEX
  8
C7
  10
137.563100
  20
328.675100
  0
VERTEX
  8
C7
  10
137.888100
  20
328.712400
  0
VERTEX
  8
C7
  10
138.197000
  20
328.771500
  0
VERTEX
  8
C7
  10
138.488100
  20
328.852900
  0
VERTEX
  8
C7
  10
138.759600
  20
328.957100
  0
VERTEX
  8
C7
  10
139.010100
  20
329.084800
  0
VERTEX
  8
C7
  10
139.237600
  20
329.236400
  0
VERTEX
  8
C7
  10
139.440700
  20
329.412500
  0
VERTEX
  8
C7
  10
139.617700
  20
329.613600
  0
VERTEX
  8
C7
  10
139.766800
  20
329.840300
  0
VERTEX
  8
C7
  10
139.886400
  20
330.093000
  0
VERTEX
  8
C7
  10
139.974800
  20
330.372400
  0
VERTEX
  8
C7
  10
140.030500
  20
330.679000
  0
VERTEX
  8
C7
  10
140.051700
  20
331.013300
  0
VERTEX
  8
C7
  10
140.036700
  20
331.375900
  0
VERTEX
  8
C7
  10
139.983800
  20
331.767300
  0
VERTEX
  8
C7
  10
139.891500
  20
332.188000
  0
VERTEX
  8
C7
  10
139.758100
  20
332.638600
  0
VERTEX
  8
C7
  10
139.581800
  20
333.119600
  0
VERTEX
  8
C7
  10
139.361100
  20
333.631600
  0
VERTEX
  8
C7
  10
139.094200
  20
334.175100
  0
VERTEX
  8
C7
  10
138.779500
  20
334.750600
  0
VERTEX
  8
C7
  10
138.415300
  20
335.358700
  0
VERTEX
  8
C7
  10
138.000000
  20
336.000000
  0
SEQEND
  8
C7
  0
POLYLINE
  8
C7
  66
1
  10
142.000000
  20
342.000000
  0
VERTEX
  8
C7
  10
142.000000
  20
342.000000
  0
VERTEX
  8
C7
  10
142.000000
  20
333.000000
  0
VERTEX
  8
C7
  10
146.000000
  20
335.000000
  0
VERTEX
  8
C7
  10
147.000000
  20
330.000000
  0
VERTEX
  8
C7
  10
141.000000
  20
332.000000
  0
VERTEX
  8
C7
  10
141.149900
  20
331.273300
  0
VERTEX
  8
C7
  10
141.332300
  20
330.621800
  0
VERTEX
  8
C7
  10
141.544700
  20
330.042800
  0
VERTEX
  8
C7
  10
141.784700
  20
329.533900
  0
VERTEX
  8
C7
  10
142.049800
  20
329.092300
  0
VERTEX
  8
C7
  10
142.337500
  20
328.715500
  0
VERTEX
  8
C7
  10
142.645300
  20
328.400800
  0
VERTEX
  8
C7
  10
142.970700
  20
328.145800
  0
VERTEX
  8
C7
  10
143.311400
  20
327.947800
  0
VERTEX
  8
C7
  10
143.664800
  20
327.804200
  0
VERTEX
  8
C7
  10
144.028400
  20
327.712400
  0
VERTEX
  8
C7
  10
144.399800
  20
327.669800
  0
VERTEX
  8
C7
  10
144.776500
  20
327.673900
  0
VERTEX
  8
C7
  10
145.156000
  20
327.722000
  0
VERTEX
  8
C7
  10
145.535900
  20
327.811500
  0
VERTEX
  8
C7
  10
145.913600
  20
327.939900
  0
VERTEX
  8
C7
  10
146.286800
  20
328.104600
  0
VERTEX
  8
C7
  10
146.652900
  20
328.302900
  0
VERTEX
  8
C7
  10
147.009500
  20
328.532400
  0
VERTEX
  8
C7
  10
147.354000
  20
328.790300
  0
VERTEX
  8
C7
  10
147.684100
  20
329.074100
  0
VERTEX
  8
C7
  10
147.997300
  20
329.381200
  0
VERTEX
  8
C7
  10
148.291000
  20
329.709000
  0
VERTEX
  8
C7
  10
148.562800
  20
330.054900
  0
VERTEX
  8
C7
  10
148.810300
  20
330.416300
  0
VERTEX
  8
C7
  10
149.030900
  20
330.790700
  0
VERTEX
  8
C7
  10
149.222200
  20
331.175400
  0
VERTEX
  8
C7
  10
149.381700
  20
331.567800
  0
VERTEX
  8
C7
  10
149.507000
  20
331.965400
  0
VERTEX
  8
C7
  10
149.595500
  20
332.365500
  0
VERTEX
  8
C7
  10
149.644900
  20
332.765600
  0
VERTEX
  8
C7
  10
149.652600
  20
333.163100
  0
VERTEX
  8
C7
  10
149.616100
  20
333.555400
  0
VERTEX
  8
C7
  10
149.533000
  20
333.939800
  0
VERTEX
  8
C7
  10
149.400800
  20
334.313900
  0
VERTEX
  8
C7
  10
149.217100
  20
334.674900
  0
VERTEX
  8
C7
  10
148.979300
  20
335.020400
  0
VERTEX
  8
C7
  10
148.685000
  20
335.347600
  0
VERTEX
  8
C7
  10
148.331800
  20
335.654100
  0
VERTEX
  8
C7
  10
147.917100
  20
335.937200
  0
VERTEX
  8
C7
  10
147.438400
  20
336.194400
  0
VERTEX
  8
C7
  10
146.893400
  20
336.423000
  0
VERTEX
  8
C7
  10
146.279500
  20
336.620400
  0
VERTEX
  8
C7
  10
145.594300
  20
336.784100
  0
VERTEX
  8
C7
  10
144.835300
  20
336.911500
  0
VERTEX
  8
C7
  10
144.000000
  20
337.000000
  0
VERTEX
  8
C7
  10
144.000000
  20
339.000000
  0
VERTEX
  8
C7
  10
150.000000
  20
339.000000
  0
VERTEX
  8
C7
  10
150.000000
  20
342.000000
  0
VERTEX
  8
C7
  10
142.000000
  20
342.000000
  0
SEQEND
  8
C7
  0
POLYLINE
  8
C7
  66
1
  10
183.000000
  20
342.000000
  0
VERTEX
  8
C7
  10
183.000000
  20
342.000000
  0
VERTEX
  8
C7
  10
183.000000
  20
323.000000
  0
VERTEX
  8
C7
  10
183.810800
  20
323.591600
  0
VERTEX
  8
C7
  10
184.529700
  20
324.227000
  0
VERTEX
  8
C7
  10
185.160400
  20
324.903000
  0
VERTEX
  8
C7
  10
185.706500
  20
325.616300
  0
VERTEX
  8
C7
  10
186.171800
  20
326.363700
  0
VERTEX
  8
C7
  10
186.560200
  20
327.142000
  0
VERTEX
  8
C7
  10
186.875200
  20
327.948100
  0
VERTEX
  8
C7
  10
187.120700
  20
328.778700
  0
VERTEX
  8
C7
  10
187.300300
  20
329.630600
  0
VERTEX
  8
C7
  10
187.417900
  20
330.500600
  0
VERTEX
  8
C7
  10
187.477200
  20
331.385600
  0
VERTEX
  8
C7
  10
187.481800
  20
332.282200
  0
VERTEX
  8
C7
  10
187.435700
  20
333.187300
  0
VERTEX
  8
C7
  10
187.342400
  20
334.097700
  0
VERTEX
  8
C7
  10
187.205700
  20
335.010100
  0
VERTEX
  8
C7
  10
187.029400
  20
335.921500
  0
VERTEX
  8
C7
  10
186.817200
  20
336.828500
  0
VERTEX
  8
C7
  10
186.572900
  20
337.727900
  0
VERTEX
  8
C7
  10
186.300200
  20
338.616600
  0
VERTEX
  8
C7
  10
186.002800
  20
339.491400
  0
VERTEX
  8
C7
  10
185.684400
  20
340.349000
  0
VERTEX
  8
C7
  10
185.348900
  20
341.186300
  0
VERTEX
  8
C7
  10
185.000000
  20
342.000000
  0
VERTEX
  8
C7
  10
183.000000
  20
342.000000
  0
SEQEND
  8
C7
  0
POLYLINE
  8
C7
  66
1
  10
58.000000
  20
339.000000
  0
VERTEX
  8
C7
  10
58.000000
  20
339.000000
  0
VERTEX
  8
C7
  10
59.000000
  20
336.000000
  0
VERTEX
  8
C7
  10
60.000000
  20
336.000000
  0
VERTEX
  8
C7
  10
61.000000
  20
339.000000
  0
VERTEX
  8
C7
  10
58.000000
  20
339.000000
  0
SEQEND
  8
C7
  0
POLYLINE
  8
C7
  66
1
  10
100.000000
  20
339.000000
  0
VERTEX
  8
C7
  10
100.000000
  20
339.000000
  0
VERTEX
  8
C7
  10
100.000000
  20
337.000000
  0
VERTEX
  8
C7
  10
103.000000
  20
337.000000
  0
VERTEX
  8
C7
  10
103.000000
  20
339.000000
  0
VERTEX
  8
C7
  10
100.000000
  20
339.000000
  0
SEQEND
  8
C7
  0
POLYLINE
  8
C7
  66
1
  10
133.000000
  20
338.000000
  0
VERTEX
  8
C7
  10
133.000000
  20
338.000000
  0
VERTEX
  8
C7
  10
133.000000
  20
337.000000
  0
VERTEX
  8
C7
  10
137.000000
  20
337.000000
  0
VERTEX
  8
C7
  10
133.000000
  20
338.000000
  0
SEQEND
  8
C7
  0
POLYLINE
  8
C7
  66
1
  10
151.000000
  20
338.000000
  0
VERTEX
  8
C7
  10
151.000000
  20
338.000000
  0
VERTEX
  8
C7
  10
151.000000
  20
327.000000
  0
VERTEX
  8
C7
  10
154.000000
  20
327.000000
  0
VERTEX
  8
C7
  10
157.000000
  20
336.000000
  0
VERTEX
  8
C7
  10
157.000000
  20
327.000000
  0
VERTEX
  8
C7
  10
160.000000
  20
327.000000
  0
VERTEX
  8
C7
  10
161.000000
  20
336.000000
  0
VERTEX
  8
C7
  10
162.000000
  20
336.000000
  0
VERTEX
  8
C7
  10
163.000000
  20
327.000000
  0
VERTEX
  8
C7
  10
166.000000
  20
327.000000
  0
VERTEX
  8
C7
  10
165.978700
  20
328.293400
  0
VERTEX
  8
C7
  10
165.916600
  20
329.481600
  0
VERTEX
  8
C7
  10
165.813100
  20
330.569000
  0
VERTEX
  8
C7
  10
165.667800
  20
331.560100
  0
VERTEX
  8
C7
  10
165.480200
  20
332.459300
  0
VERTEX
  8
C7
  10
165.249900
  20
333.271100
  0
VERTEX
  8
C7
  10
164.976500
  20
333.999900
  0
VERTEX
  8
C7
  10
164.659600
  20
334.650200
  0
VERTEX
  8
C7
  10
164.298600
  20
335.226400
  0
VERTEX
  8
C7
  10
163.893100
  20
335.732900
  0
VERTEX
  8
C7
  10
163.442800
  20
336.174300
  0
VERTEX
  8
C7
  10
162.947100
  20
336.555000
  0
VERTEX
  8
C7
  10
162.405700
  20
336.879400
  0
VERTEX
  8
C7
  10
161.818000
  20
337.152000
  0
VERTEX
  8
C7
  10
161.183600
  20
337.377100
  0
VERTEX
  8
C7
  10
160.502200
  20
337.559400
  0
VERTEX
  8
C7
  10
159.773200
  20
337.703200
  0
VERTEX
  8
C7
  10
158.996200
  20
337.812900
  0
VERTEX
  8
C7
  10
158.170800
  20
337.893100
  0
VERTEX
  8
C7
  10
157.296500
  20
337.948100
  0
VERTEX
  8
C7
  10
156.373000
  20
337.982500
  0
VERTEX
  8
C7
  10
155.399600
  20
338.000700
  0
VERTEX
  8
C7
  10
154.376100
  20
338.007000
  0
VERTEX
  8
C7
  10
153.301900
  20
338.006100
  0
VERTEX
  8
C7
  10
152.176700
  20
338.002200
  0
VERTEX
  8
C7
  10
151.000000
  20
338.000000
  0
SEQEND
  8
C7
  0
POLYLINE
  8
C7
  66
1
  10
167.000000
  20
338.000000
  0
VERTEX
  8
C7
  10
167.000000
  20
338.000000
  0
VERTEX
  8
C7
  10
167.000000
  20
327.000000
  0
VERTEX
  8
C7
  10
170.000000
  20
327.000000
  0
VERTEX
  8
C7
  10
171.000000
  20
336.000000
  0
VERTEX
  8
C7
  10
172.000000
  20
336.000000
  0
VERTEX
  8
C7
  10
173.000000
  20
327.000000
  0
VERTEX
  8
C7
  10
175.000000
  20
327.000000
  0
VERTEX
  8
C7
  10
178.000000
  20
336.000000
  0
VERTEX
  8
C7
  10
179.000000
  20
327.000000
  0
VERTEX
  8
C7
  10
181.000000
  20
327.000000
  0
VERTEX
  8
C7
  10
180.981900
  20
328.291600
  0
VERTEX
  8
C7
  10
180.927400
  20
329.478100
  0
VERTEX
  8
C7
  10
180.835200
  20
330.563700
  0
VERTEX
  8
C7
  10
180.704300
  20
331.553100
  0
VERTEX
  8
C7
  10
180.533500
  20
332.450500
  0
VERTEX
  8
C7
  10
180.321600
  20
333.260700
  0
VERTEX
  8
C7
  10
180.067600
  20
333.987900
  0
VERTEX
  8
C7
  10
179.770300
  20
334.636700
  0
VERTEX
  8
C7
  10
179.428600
  20
335.211500
  0
VERTEX
  8
C7
  10
179.041400
  20
335.716900
  0
VERTEX
  8
C7
  10
178.607500
  20
336.157200
  0
VERTEX
  8
C7
  10
178.125800
  20
336.537000
  0
VERTEX
  8
C7
  10
177.595200
  20
336.860800
  0
VERTEX
  8
C7
  10
177.014500
  20
337.132900
  0
VERTEX
  8
C7
  10
176.382600
  20
337.357900
  0
VERTEX
  8
C7
  10
175.698400
  20
337.540300
  0
VERTEX
  8
C7
  10
174.960800
  20
337.684400
  0
VERTEX
  8
C7
  10
174.168600
  20
337.794900
  0
VERTEX
  8
C7
  10
173.320600
  20
337.876100
  0
VERTEX
  8
C7
  10
172.415900
  20
337.932600
  0
VERTEX
  8
C7
  10
171.453100
  20
337.968800
  0
VERTEX
  8
C7
  10
170.431300
  20
337.989100
  0
VERTEX
  8
C7
  10
169.349300
  20
337.998100
  0
VERTEX
  8
C7
  10
168.205800
  20
338.000200
  0
VERTEX
  8
C7
  10
167.000000
  20
338.000000
  0
SEQEND
  8
C7
  0
POLYLINE
  8
C7
  66
1
  10
124.000000
  20
336.000000
  0
VERTEX
  8
C7
  10
124.000000
  20
336.000000
  0
VERTEX
  8
C7
  10
123.000000
  20
333.000000
  0
VERTEX
  8
C7
  10
124.000000
  20
336.000000
  0
SEQEND
  8
C7
  0
POLYLINE
  8
C7
  66
1
  10
260.000000
  20
336.000000
  0
VERTEX
  8
C7
  10
260.000000
  20
336.000000
  0
VERTEX
  8
C7
  10
260.000000
  20
330.000000
  0
VERTEX
  8
C7
  10
261.000000
  20
330.000000
  0
VERTEX
  8
C7
  10
260.000000
  20
336.000000
  0
SEQEND
  8
C7
  0
POLYLINE
  8
C7
  66
1
  10
547.000000
  20
336.000000
  0
VERTEX
  8
C7
  10
547.000000
  20
336.000000
  0
VERTEX
  8
C7
  10
547.000000
  20
330.000000
  0
VERTEX
  8
C7
  10
548.000000
  20
330.000000
  0
VERTEX
  8
C7
  10
547.000000
  20
336.000000
  0
SEQEND
  8
C7
  0
POLYLINE
  8
C7
  66
1
  10
101.000000
  20
335.000000
  0
VERTEX
  8
C7
  10
101.000000
  20
335.000000
  0
VERTEX
  8
C7
  10
99.000000
  20
331.000000
  0
VERTEX
  8
C7
  10
103.000000
  20
330.000000
  0
VERTEX
  8
C7
  10
101.000000
  20
335.000000
  0
SEQEND
  8
C7
  0
POLYLINE
  8
C7
  66
1
  10
59.000000
  20
334.000000
  0
VERTEX
  8
C7
  10
59.000000
  20
334.000000
  0
VERTEX
  8
C7
  10
58.000000
  20
330.000000
  0
VERTEX
  8
C7
  10
62.000000
  20
331.000000
  0
VERTEX
  8
C7
  10
59.000000
  20
334.000000
  0
SEQEND
  8
C7
  0
POLYLINE
  8
C7
  66
1
  10
133.000000
  20
334.000000
  0
VERTEX
  8
C7
  10
133.000000
  20
334.000000
  0
VERTEX
  8
C7
  10
134.000000
  20
330.000000
  0
VERTEX
  8
C7
  10
136.000000
  20
330.000000
  0
VERTEX
  8
C7
  10
137.000000
  20
334.000000
  0
VERTEX
  8
C7
  10
133.000000
  20
334.000000
  0
SEQEND
  8
C7
  0
POLYLINE
  8
C7
  66
1
  10
260.000000
  20
326.000000
  0
VERTEX
  8
C7
  10
260.000000
  20
326.000000
  0
VERTEX
  8
C7
  10
260.000000
  20
320.000000
  0
VERTEX
  8
C7
  10
261.000000
  20
320.000000
  0
VERTEX
  8
C7
  10
260.000000
  20
326.000000
  0
SEQEND
  8
C7
  0
POLYLINE
  8
C7
  66
1
  10
547.000000
  20
326.000000
  0
VERTEX
  8
C7
  10
547.000000
  20
326.000000
  0
VERTEX
  8
C7
  10
547.000000
  20
320.000000
  0
VERTEX
  8
C7
  10
548.000000
  20
320.000000
  0
VERTEX
  8
C7
  10
547.000000
  20
326.000000
  0
SEQEND
  8
C7
  0
POLYLINE
  8
C7
  66
1
  10
627.000000
  20
317.000000
  0
VERTEX
  8
C7
  10
627.000000
  20
317.000000
  0
VERTEX
  8
C7
  10
630.000000
  20
318.000000
  0
VERTEX
  8
C7
  10
630.000000
  20
309.000000
  0
VERTEX
  8
C7
  10
633.000000
  20
309.000000
  0
VERTEX
  8
C7
  10
633.000000
  20
323.000000
  0
VERTEX
  8
C7
  10
627.000000
  20
317.000000
  0
SEQEND
  8
C7
  0
POLYLINE
  8
C7
  66
1
  10
636.000000
  20
318.000000
  0
VERTEX
  8
C7
  10
636.000000
  20
318.000000
  0
VERTEX
  8
C7
  10
643.000000
  20
319.000000
  0
VERTEX
  8
C7
  10
636.000000
  20
309.000000
  0
VERTEX
  8
C7
  10
646.000000
  20
309.000000
  0
VERTEX
  8
C7
  10
646.000000
  20
311.000000
  0
VERTEX
  8
C7
  10
640.000000
  20
311.000000
  0
VERTEX
  8
C7
  10
640.780800
  20
311.675700
  0
VERTEX
  8
C7
  10
641.471400
  20
312.350200
  0
VERTEX
  8
C7
  10
642.075200
  20
313.021100
  0
VERTEX
  8
C7
  10
642.595700
  20
313.686200
  0
VERTEX
  8
C7
  10
643.036500
  20
314.343000
  0
VERTEX
  8
C7
  10
643.400800
  20
314.989400
  0
VERTEX
  8
C7
  10
643.692200
  20
315.622900
  0
VERTEX
  8
C7
  10
643.914200
  20
316.241300
  0
VERTEX
  8
C7
  10
644.070300
  20
316.842300
  0
VERTEX
  8
C7
  10
644.163800
  20
317.423400
  0
VERTEX
  8
C7
  10
644.198200
  20
317.982500
  0
VERTEX
  8
C7
  10
644.177100
  20
318.517100
  0
VERTEX
  8
C7
  10
644.103800
  20
319.025000
  0
VERTEX
  8
C7
  10
643.981900
  20
319.503900
  0
VERTEX
  8
C7
  10
643.814800
  20
319.951400
  0
VERTEX
  8
C7
  10
643.606000
  20
320.365200
  0
VERTEX
  8
C7
  10
643.358900
  20
320.743000
  0
VERTEX
  8
C7
  10
643.077000
  20
321.082500
  0
VERTEX
  8
C7
  10
642.763800
  20
321.381400
  0
VERTEX
  8
C7
  10
642.422600
  20
321.637300
  0
VERTEX
  8
C7
  10
642.057100
  20
321.848000
  0
VERTEX
  8
C7
  10
641.670600
  20
322.011000
  0
VERTEX
  8
C7
  10
641.266700
  20
322.124200
  0
VERTEX
  8
C7
  10
640.848700
  20
322.185100
  0
VERTEX
  8
C7
  10
640.420100
  20
322.191500
  0
VERTEX
  8
C7
  10
639.984500
  20
322.141100
  0
VERTEX
  8
C7
  10
639.545200
  20
322.031500
  0
VERTEX
  8
C7
  10
639.105800
  20
321.860400
  0
VERTEX
  8
C7
  10
638.669700
  20
321.625500
  0
VERTEX
  8
C7
  10
638.240300
  20
321.324500
  0
VERTEX
  8
C7
  10
637.821100
  20
320.955000
  0
VERTEX
  8
C7
  10
637.415700
  20
320.514800
  0
VERTEX
  8
C7
  10
637.027300
  20
320.001500
  0
VERTEX
  8
C7
  10
636.659600
  20
319.412800
  0
VERTEX
  8
C7
  10
636.316000
  20
318.746400
  0
VERTEX
  8
C7
  10
636.000000
  20
318.000000
  0
SEQEND
  8
C7
  0
POLYLINE
  8
C7
  66
1
  10
652.000000
  20
318.000000
  0
VERTEX
  8
C7
  10
652.000000
  20
318.000000
  0
VERTEX
  8
C7
  10
656.000000
  20
321.000000
  0
VERTEX
  8
C7
  10
657.000000
  20
321.000000
  0
VERTEX
  8
C7
  10
658.000000
  20
318.000000
  0
VERTEX
  8
C7
  10
655.000000
  20
315.000000
  0
VERTEX
  8
C7
  10
658.000000
  20
311.000000
  0
VERTEX
  8
C7
  10
652.000000
  20
313.000000
  0
VERTEX
  8
C7
  10
652.362500
  20
312.019100
  0
VERTEX
  8
C7
  10
652.789800
  20
311.162000
  0
VERTEX
  8
C7
  10
653.279000
  20
310.431200
  0
VERTEX
  8
C7
  10
653.827200
  20
309.829700
  0
VERTEX
  8
C7
  10
654.431700
  20
309.360100
  0
VERTEX
  8
C7
  10
655.089600
  20
309.025200
  0
VERTEX
  8
C7
  10
655.798000
  20
308.827800
  0
VERTEX
  8
C7
  10
656.554200
  20
308.770600
  0
VERTEX
  8
C7
  10
657.355300
  20
308.856500
  0
VERTEX
  8
C7
  10
658.198500
  20
309.088200
  0
VERTEX
  8
C7
  10
659.081000
  20
309.468400
  0
VERTEX
  8
C7
  10
660.000000
  20
310.000000
  0
VERTEX
  8
C7
  10
661.000000
  20
310.000000
  0
VERTEX
  8
C7
  10
664.000000
  20
308.000000
  0
VERTEX
  8
C7
  10
668.000000
  20
323.000000
  0
VERTEX
  8
C7
  10
667.133900
  20
322.668300
  0
VERTEX
  8
C7
  10
666.362700
  20
322.216500
  0
VERTEX
  8
C7
  10
665.680100
  20
321.656600
  0
VERTEX
  8
C7
  10
665.079700
  20
321.000500
  0
VERTEX
  8
C7
  10
664.555400
  20
320.260400
  0
VERTEX
  8
C7
  10
664.100700
  20
319.448100
  0
VERTEX
  8
C7
  10
663.709400
  20
318.575800
  0
VERTEX
  8
C7
  10
663.375200
  20
317.655300
  0
VERTEX
  8
C7
  10
663.091700
  20
316.698800
  0
VERTEX
  8
C7
  10
662.852700
  20
315.718100
  0
VERTEX
  8
C7
  10
662.651900
  20
314.725300
  0
VERTEX
  8
C7
  10
662.483000
  20
313.732400
  0
VERTEX
  8
C7
  10
662.339600
  20
312.751400
  0
VERTEX
  8
C7
  10
662.215500
  20
311.794400
  0
VERTEX
  8
C7
  10
662.104400
  20
310.873200
  0
VERTEX
  8
C7
  10
662.000000
  20
310.000000
  0
VERTEX
  8
C7
  10
661.891600
  20
310.354200
  0
VERTEX
  8
C7
  10
661.767800
  20
310.766700
  0
VERTEX
  8
C7
  10
661.628900
  20
311.231500
  0
VERTEX
  8
C7
  10
661.475600
  20
311.743000
  0
VERTEX
  8
C7
  10
661.308200
  20
312.295200
  0
VERTEX
  8
C7
  10
661.127400
  20
312.882400
  0
VERTEX
  8
C7
  10
660.933600
  20
313.498900
  0
VERTEX
  8
C7
  10
660.727300
  20
314.138700
  0
VERTEX
  8
C7
  10
660.509200
  20
314.796100
  0
VERTEX
  8
C7
  10
660.279600
  20
315.465400
  0
VERTEX
  8
C7
  10
660.039200
  20
316.140600
  0
VERTEX
  8
C7
  10
659.788400
  20
316.816000
  0
VERTEX
  8
C7
  10
659.527700
  20
317.485800
  0
VERTEX
  8
C7
  10
659.257700
  20
318.144100
  0
VERTEX
  8
C7
  10
658.978900
  20
318.785300
  0
VERTEX
  8
C7
  10
658.691700
  20
319.403500
  0
VERTEX
  8
C7
  10
658.396800
  20
319.992800
  0
VERTEX
  8
C7
  10
658.094600
  20
320.547500
  0
VERTEX
  8
C7
  10
657.785600
  20
321.061800
  0
VERTEX
  8
C7
  10
657.470400
  20
321.529900
  0
VERTEX
  8
C7
  10
657.149500
  20
321.946000
  0
VERTEX
  8
C7
  10
656.823300
  20
322.304200
  0
VERTEX
  8
C7
  10
656.492500
  20
322.598900
  0
VERTEX
  8
C7
  10
656.157500
  20
322.824100
  0
VERTEX
  8
C7
  10
655.818900
  20
322.974000
  0
VERTEX
  8
C7
  10
655.477100
  20
323.043000
  0
VERTEX
  8
C7
  10
655.132600
  20
323.025100
  0
VERTEX
  8
C7
  10
654.786100
  20
322.914600
  0
VERTEX
  8
C7
  10
654.438000
  20
322.705700
  0
VERTEX
  8
C7
  10
654.088800
  20
322.392500
  0
VERTEX
  8
C7
  10
653.739000
  20
321.969400
  0
VERTEX
  8
C7
  10
653.389200
  20
321.430300
  0
VERTEX
  8
C7
  10
653.039900
  20
320.769700
  0
VERTEX
  8
C7
  10
652.691600
  20
319.981600
  0
VERTEX
  8
C7
  10
652.344800
  20
319.060300
  0
VERTEX
  8
C7
  10
652.000000
  20
318.000000
  0
SEQEND
  8
C7
  0
POLYLINE
  8
C7
  66
1
  10
669.000000
  20
317.000000
  0
VERTEX
  8
C7
  10
669.000000
  20
317.000000
  0
VERTEX
  8
C7
  10
672.000000
  20
318.000000
  0
VERTEX
  8
C7
  10
672.000000
  20
309.000000
  0
VERTEX
  8
C7
  10
675.000000
  20
309.000000
  0
VERTEX
  8
C7
  10
675.000000
  20
323.000000
  0
VERTEX
  8
C7
  10
669.000000
  20
317.000000
  0
SEQEND
  8
C7
  0
POLYLINE
  8
C7
  66
1
  10
687.000000
  20
322.000000
  0
VERTEX
  8
C7
  10
687.000000
  20
322.000000
  0
VERTEX
  8
C7
  10
686.185000
  20
322.130600
  0
VERTEX
  8
C7
  10
685.375100
  20
322.175700
  0
VERTEX
  8
C7
  10
684.575100
  20
322.139600
  0
VERTEX
  8
C7
  10
683.790100
  20
322.026600
  0
VERTEX
  8
C7
  10
683.025100
  20
321.841300
  0
VERTEX
  8
C7
  10
682.285000
  20
321.588100
  0
VERTEX
  8
C7
  10
681.574800
  20
321.271300
  0
VERTEX
  8
C7
  10
680.899600
  20
320.895500
  0
VERTEX
  8
C7
  10
680.264300
  20
320.465100
  0
VERTEX
  8
C7
  10
679.673900
  20
319.984400
  0
VERTEX
  8
C7
  10
679.133400
  20
319.457900
  0
VERTEX
  8
C7
  10
678.647900
  20
318.890000
  0
VERTEX
  8
C7
  10
678.222200
  20
318.285200
  0
VERTEX
  8
C7
  10
677.861400
  20
317.647900
  0
VERTEX
  8
C7
  10
677.570500
  20
316.982500
  0
VERTEX
  8
C7
  10
677.354500
  20
316.293400
  0
VERTEX
  8
C7
  10
677.218400
  20
315.585200
  0
VERTEX
  8
C7
  10
677.167100
  20
314.862000
  0
VERTEX
  8
C7
  10
677.205600
  20
314.128600
  0
VERTEX
  8
C7
  10
677.339000
  20
313.389100
  0
VERTEX
  8
C7
  10
677.572200
  20
312.648200
  0
VERTEX
  8
C7
  10
677.910300
  20
311.910100
  0
VERTEX
  8
C7
  10
678.358200
  20
311.179400
  0
VERTEX
  8
C7
  10
678.920900
  20
310.460400
  0
VERTEX
  8
C7
  10
679.603400
  20
309.757700
  0
SEQEND
  8
C7
  0
POLYLINE
  8
C7
  66
1
  10
679.603300
  20
309.757700
  0
VERTEX
  8
C7
  10
679.603300
  20
309.757700
  0
VERTEX
  8
C7
  10
680.347300
  20
309.176200
  0
VERTEX
  8
C7
  10
681.103400
  20
308.790600
  0
VERTEX
  8
C7
  10
681.861100
  20
308.585900
  0
VERTEX
  8
C7
  10
682.609800
  20
308.547200
  0
VERTEX
  8
C7
  10
683.339000
  20
308.659700
  0
VERTEX
  8
C7
  10
684.038400
  20
308.908400
  0
VERTEX
  8
C7
  10
684.697300
  20
309.278500
  0
VERTEX
  8
C7
  10
685.305300
  20
309.755000
  0
VERTEX
  8
C7
  10
685.851900
  20
310.323100
  0
VERTEX
  8
C7
  10
686.326700
  20
310.967800
  0
VERTEX
  8
C7
  10
686.719000
  20
311.674300
  0
VERTEX
  8
C7
  10
687.018500
  20
312.427700
  0
VERTEX
  8
C7
  10
687.214700
  20
313.213000
  0
VERTEX
  8
C7
  10
687.297000
  20
314.015400
  0
VERTEX
  8
C7
  10
687.300600
  20
315.010700
  0
VERTEX
  8
C7
  10
687.266100
  20
316.005600
  0
VERTEX
  8
C7
  10
687.206800
  20
317.000500
  0
VERTEX
  8
C7
  10
687.135900
  20
317.996300
  0
VERTEX
  8
C7
  10
687.066500
  20
318.993400
  0
VERTEX
  8
C7
  10
687.011900
  20
319.992600
  0
VERTEX
  8
C7
  10
686.985400
  20
320.994600
  0
VERTEX
  8
C7
  10
687.000000
  20
322.000000
  0
SEQEND
  8
C7
  0
POLYLINE
  8
C7
  66
1
  10
688.000000
  20
323.000000
  0
VERTEX
  8
C7
  10
688.000000
  20
323.000000
  0
VERTEX
  8
C7
  10
688.000000
  20
317.000000
  0
VERTEX
  8
C7
  10
694.000000
  20
317.000000
  0
VERTEX
  8
C7
  10
694.000000
  20
323.000000
  0
VERTEX
  8
C7
  10
688.000000
  20
323.000000
  0
SEQEND
  8
C7
  0
POLYLINE
  8
C7
  66
1
  10
701.000000
  20
305.000000
  0
VERTEX
  8
C7
  10
701.000000
  20
305.000000
  0
VERTEX
  8
C7
  10
700.547500
  20
306.061200
  0
VERTEX
  8
C7
  10
700.151100
  20
307.083900
  0
VERTEX
  8
C7
  10
699.809800
  20
308.072600
  0
VERTEX
  8
C7
  10
699.522600
  20
309.031900
  0
VERTEX
  8
C7
  10
699.288400
  20
309.966300
  0
VERTEX
  8
C7
  10
699.106100
  20
310.880400
  0
VERTEX
  8
C7
  10
698.974900
  20
311.778800
  0
VERTEX
  8
C7
  10
698.893500
  20
312.666100
  0
VERTEX
  8
C7
  10
698.861100
  20
313.546800
  0
VERTEX
  8
C7
  10
698.876500
  20
314.425500
  0
VERTEX
  8
C7
  10
698.938800
  20
315.306900
  0
VERTEX
  8
C7
  10
699.046900
  20
316.195400
  0
VERTEX
  8
C7
  10
699.199800
  20
317.095600
  0
VERTEX
  8
C7
  10
699.396400
  20
318.012200
  0
VERTEX
  8
C7
  10
699.635800
  20
318.949600
  0
VERTEX
  8
C7
  10
699.916900
  20
319.912600
  0
VERTEX
  8
C7
  10
700.238600
  20
320.905500
  0
VERTEX
  8
C7
  10
700.600000
  20
321.933100
  0
VERTEX
  8
C7
  10
701.000000
  20
323.000000
  0
VERTEX
  8
C7
  10
700.244400
  20
322.709500
  0
VERTEX
  8
C7
  10
699.542800
  20
322.348200
  0
VERTEX
  8
C7
  10
698.895100
  20
321.921500
  0
VERTEX
  8
C7
  10
698.301500
  20
321.434500
  0
VERTEX
  8
C7
  10
697.761800
  20
320.892400
  0
VERTEX
  8
C7
  10
697.276000
  20
320.300500
  0
VERTEX
  8
C7
  10
696.844300
  20
319.664100
  0
VERTEX
  8
C7
  10
696.466500
  20
318.988400
  0
VERTEX
  8
C7
  10
696.142700
  20
318.278600
  0
VERTEX
  8
C7
  10
695.872800
  20
317.540000
  0
VERTEX
  8
C7
  10
695.656900
  20
316.777700
  0
VERTEX
  8
C7
  10
695.495000
  20
315.997200
  0
VERTEX
  8
C7
  10
695.387100
  20
315.203500
  0
VERTEX
  8
C7
  10
695.333100
  20
314.402000
  0
VERTEX
  8
C7
  10
695.333100
  20
313.597800
  0
VERTEX
  8
C7
  10
695.387100
  20
312.796300
  0
VERTEX
  8
C7
  10
695.495000
  20
312.002700
  0
VERTEX
  8
C7
  10
695.657000
  20
311.222100
  0
VERTEX
  8
C7
  10
695.872800
  20
310.459900
  0
VERTEX
  8
C7
  10
696.142700
  20
309.721300
  0
VERTEX
  8
C7
  10
696.466500
  20
309.011500
  0
VERTEX
  8
C7
  10
696.844300
  20
308.335700
  0
VERTEX
  8
C7
  10
697.276100
  20
307.699300
  0
VERTEX
  8
C7
  10
697.761800
  20
307.107500
  0
VERTEX
  8
C7
  10
698.301500
  20
306.565400
  0
VERTEX
  8
C7
  10
698.895100
  20
306.078400
  0
VERTEX
  8
C7
  10
699.542800
  20
305.651600
  0
VERTEX
  8
C7
  10
700.244400
  20
305.290400
  0
VERTEX
  8
C7
  10
701.000000
  20
305.000000
  0
SEQEND
  8
C7
  0
POLYLINE
  8
C7
  66
1
  10
701.000000
  20
318.000000
  0
VERTEX
  8
C7
  10
701.000000
  20
318.000000
  0
VERTEX
  8
C7
  10
705.000000
  20
321.000000
  0
VERTEX
  8
C7
  10
706.000000
  20
321.000000
  0
VERTEX
  8
C7
  10
707.000000
  20
318.000000
  0
VERTEX
  8
C7
  10
704.000000
  20
315.000000
  0
VERTEX
  8
C7
  10
708.000000
  20
314.000000
  0
VERTEX
  8
C7
  10
708.000000
  20
312.000000
  0
VERTEX
  8
C7
  10
701.000000
  20
313.000000
  0
VERTEX
  8
C7
  10
701.309200
  20
312.206400
  0
VERTEX
  8
C7
  10
701.706900
  20
311.481900
  0
VERTEX
  8
C7
  10
702.181100
  20
310.830900
  0
VERTEX
  8
C7
  10
702.720200
  20
310.258000
  0
VERTEX
  8
C7
  10
703.312300
  20
309.767800
  0
VERTEX
  8
C7
  10
703.945600
  20
309.364700
  0
VERTEX
  8
C7
  10
704.608300
  20
309.053300
  0
VERTEX
  8
C7
  10
705.288500
  20
308.838200
  0
VERTEX
  8
C7
  10
705.974600
  20
308.723900
  0
VERTEX
  8
C7
  10
706.654700
  20
308.714900
  0
VERTEX
  8
C7
  10
707.316900
  20
308.815800
  0
VERTEX
  8
C7
  10
707.949500
  20
309.031100
  0
VERTEX
  8
C7
  10
708.540700
  20
309.365300
  0
VERTEX
  8
C7
  10
709.078600
  20
309.823100
  0
VERTEX
  8
C7
  10
709.551500
  20
310.408900
  0
VERTEX
  8
C7
  10
709.947600
  20
311.127200
  0
VERTEX
  8
C7
  10
710.255100
  20
311.982700
  0
VERTEX
  8
C7
  10
710.462100
  20
312.979900
  0
VERTEX
  8
C7
  10
710.537700
  20
313.754100
  0
VERTEX
  8
C7
  10
710.546300
  20
314.525800
  0
VERTEX
  8
C7
  10
710.491800
  20
315.289800
  0
VERTEX
  8
C7
  10
710.378600
  20
316.041000
  0
VERTEX
  8
C7
  10
710.210500
  20
316.774300
  0
VERTEX
  8
C7
  10
709.991900
  20
317.484600
  0
VERTEX
  8
C7
  10
709.726700
  20
318.166600
  0
VERTEX
  8
C7
  10
709.419200
  20
318.815400
  0
VERTEX
  8
C7
  10
709.073400
  20
319.425800
  0
VERTEX
  8
C7
  10
708.693400
  20
319.992600
  0
VERTEX
  8
C7
  10
708.283400
  20
320.510800
  0
VERTEX
  8
C7
  10
707.847500
  20
320.975100
  0
VERTEX
  8
C7
  10
707.389800
  20
321.380600
  0
VERTEX
  8
C7
  10
706.914400
  20
321.721900
  0
VERTEX
  8
C7
  10
706.425500
  20
321.994200
  0
VERTEX
  8
C7
  10
705.927100
  20
322.192100
  0
VERTEX
  8
C7
  10
705.423400
  20
322.310600
  0
VERTEX
  8
C7
  10
704.918600
  20
322.344500
  0
VERTEX
  8
C7
  10
704.416600
  20
322.288800
  0
VERTEX
  8
C7
  10
703.921600
  20
322.138300
  0
VERTEX
  8
C7
  10
703.437800
  20
321.887900
  0
VERTEX
  8
C7
  10
702.969300
  20
321.532400
  0
VERTEX
  8
C7
  10
702.520200
  20
321.066700
  0
VERTEX
  8
C7
  10
702.094600
  20
320.485800
  0
VERTEX
  8
C7
  10
701.696600
  20
319.784400
  0
VERTEX
  8
C7
  10
701.330300
  20
318.957500
  0
VERTEX
  8
C7
  10
701.000000
  20
318.000000
  0
SEQEND
  8
C7
  0
POLYLINE
  8
C7
  66
1
  10
713.000000
  20
317.000000
  0
VERTEX
  8
C7
  10
713.000000
  20
317.000000
  0
VERTEX
  8
C7
  10
716.000000
  20
318.000000
  0
VERTEX
  8
C7
  10
716.000000
  20
309.000000
  0
VERTEX
  8
C7
  10
719.000000
  20
309.000000
  0
VERTEX
  8
C7
  10
719.000000
  20
323.000000
  0
VERTEX
  8
C7
  10
713.000000
  20
317.000000
  0
SEQEND
  8
C7
  0
POLYLINE
  8
C7
  66
1
  10
724.432861
  20
321.952942
  0
VERTEX
  8
C7
  10
724.432861
  20
321.952942
  0
VERTEX
  8
C7
  10
723.940600
  20
321.580500
  0
VERTEX
  8
C7
  10
723.503800
  20
321.129000
  0
VERTEX
  8
C7
  10
723.121500
  20
320.607100
  0
VERTEX
  8
C7
  10
722.793300
  20
320.023300
  0
VERTEX
  8
C7
  10
722.518400
  20
319.386200
  0
VERTEX
  8
C7
  10
722.296400
  20
318.704300
  0
VERTEX
  8
C7
  10
722.126500
  20
317.986200
  0
VERTEX
  8
C7
  10
722.008100
  20
317.240500
  0
VERTEX
  8
C7
  10
721.940600
  20
316.475800
  0
VERTEX
  8
C7
  10
721.923400
  20
315.700500
  0
VERTEX
  8
C7
  10
721.955900
  20
314.923400
  0
VERTEX
  8
C7
  10
722.037400
  20
314.152900
  0
VERTEX
  8
C7
  10
722.167400
  20
313.397600
  0
VERTEX
  8
C7
  10
722.345200
  20
312.666200
  0
VERTEX
  8
C7
  10
722.570200
  20
311.967100
  0
VERTEX
  8
C7
  10
722.841700
  20
311.308900
  0
VERTEX
  8
C7
  10
723.159200
  20
310.700300
  0
VERTEX
  8
C7
  10
723.522100
  20
310.149800
  0
VERTEX
  8
C7
  10
723.929600
  20
309.665900
  0
VERTEX
  8
C7
  10
724.381300
  20
309.257200
  0
VERTEX
  8
C7
  10
724.876400
  20
308.932400
  0
VERTEX
  8
C7
  10
725.414300
  20
308.699900
  0
VERTEX
  8
C7
  10
725.994500
  20
308.568400
  0
VERTEX
  8
C7
  10
726.616300
  20
308.546300
  0
VERTEX
  8
C7
  10
727.279100
  20
308.642400
  0
VERTEX
  8
C7
  10
727.982300
  20
308.865000
  0
VERTEX
  8
C7
  10
728.725300
  20
309.223000
  0
SEQEND
  8
C7
  0
POLYLINE
  8
C7
  66
1
  10
728.725200
  20
309.222900
  0
VERTEX
  8
C7
  10
728.725200
  20
309.222900
  0
VERTEX
  8
C7
  10
729.294400
  20
309.600900
  0
VERTEX
  8
C7
  10
729.795100
  20
310.051200
  0
VERTEX
  8
C7
  10
730.229100
  20
310.566200
  0
VERTEX
  8
C7
  10
730.598100
  20
311.138100
  0
VERTEX
  8
C7
  10
730.903800
  20
311.759300
  0
VERTEX
  8
C7
  10
731.147900
  20
312.422000
  0
VERTEX
  8
C7
  10
731.332200
  20
313.118700
  0
VERTEX
  8
C7
  10
731.458300
  20
313.841500
  0
VERTEX
  8
C7
  10
731.528000
  20
314.582700
  0
VERTEX
  8
C7
  10
731.543100
  20
315.334800
  0
VERTEX
  8
C7
  10
731.505200
  20
316.090000
  0
VERTEX
  8
C7
  10
731.416200
  20
316.840700
  0
VERTEX
  8
C7
  10
731.277600
  20
317.579000
  0
VERTEX
  8
C7
  10
731.091200
  20
318.297400
  0
VERTEX
  8
C7
  10
730.858800
  20
318.988200
  0
VERTEX
  8
C7
  10
730.582100
  20
319.643600
  0
VERTEX
  8
C7
  10
730.262800
  20
320.256000
  0
VERTEX
  8
C7
  10
729.902600
  20
320.817600
  0
VERTEX
  8
C7
  10
729.503300
  20
321.320900
  0
VERTEX
  8
C7
  10
729.066600
  20
321.758000
  0
VERTEX
  8
C7
  10
728.594100
  20
322.121400
  0
VERTEX
  8
C7
  10
728.087700
  20
322.403300
  0
VERTEX
  8
C7
  10
727.549100
  20
322.596000
  0
VERTEX
  8
C7
  10
726.980000
  20
322.691800
  0
VERTEX
  8
C7
  10
726.382000
  20
322.683100
  0
VERTEX
  8
C7
  10
725.757000
  20
322.562200
  0
VERTEX
  8
C7
  10
725.106700
  20
322.321300
  0
VERTEX
  8
C7
  10
724.432800
  20
321.952900
  0
SEQEND
  8
C7
  0
POLYLINE
  8
C7
  66
1
  10
764.000000
  20
323.000000
  0
VERTEX
  8
C7
  10
764.000000
  20
323.000000
  0
VERTEX
  8
C7
  10
764.000000
  20
305.000000
  0
VERTEX
  8
C7
  10
764.799100
  20
305.334900
  0
VERTEX
  8
C7
  10
765.523900
  20
305.749300
  0
VERTEX
  8
C7
  10
766.175500
  20
306.236600
  0
VERTEX
  8
C7
  10
766.755500
  20
306.790600
  0
VERTEX
  8
C7
  10
767.265000
  20
307.404900
  0
VERTEX
  8
C7
  10
767.705300
  20
308.073100
  0
VERTEX
  8
C7
  10
768.077800
  20
308.789000
  0
VERTEX
  8
C7
  10
768.383700
  20
309.546100
  0
VERTEX
  8
C7
  10
768.624400
  20
310.338200
  0
VERTEX
  8
C7
  10
768.801200
  20
311.158800
  0
VERTEX
  8
C7
  10
768.915300
  20
312.001700
  0
VERTEX
  8
C7
  10
768.968200
  20
312.860500
  0
VERTEX
  8
C7
  10
768.961000
  20
313.728800
  0
VERTEX
  8
C7
  10
768.895100
  20
314.600400
  0
VERTEX
  8
C7
  10
768.771800
  20
315.468800
  0
VERTEX
  8
C7
  10
768.592400
  20
316.327700
  0
VERTEX
  8
C7
  10
768.358200
  20
317.170800
  0
VERTEX
  8
C7
  10
768.070500
  20
317.991800
  0
VERTEX
  8
C7
  10
767.730600
  20
318.784200
  0
VERTEX
  8
C7
  10
767.339900
  20
319.541800
  0
VERTEX
  8
C7
  10
766.899500
  20
320.258100
  0
VERTEX
  8
C7
  10
766.410900
  20
320.927000
  0
VERTEX
  8
C7
  10
765.875400
  20
321.541900
  0
VERTEX
  8
C7
  10
765.294100
  20
322.096600
  0
VERTEX
  8
C7
  10
764.668600
  20
322.584700
  0
VERTEX
  8
C7
  10
764.000000
  20
323.000000
  0
SEQEND
  8
C7
  0
POLYLINE
  8
C7
  66
1
  10
726.000000
  20
321.000000
  0
VERTEX
  8
C7
  10
726.000000
  20
321.000000
  0
VERTEX
  8
C7
  10
726.000000
  20
311.000000
  0
VERTEX
  8
C7
  10
728.000000
  20
311.000000
  0
VERTEX
  8
C7
  10
728.244800
  20
312.102300
  0
VERTEX
  8
C7
  10
728.438700
  20
313.142000
  0
VERTEX
  8
C7
  10
728.570000
  20
314.126900
  0
VERTEX
  8
C7
  10
728.627500
  20
315.065100
  0
VERTEX
  8
C7
  10
728.599600
  20
315.964600
  0
VERTEX
  8
C7
  10
728.474900
  20
316.833600
  0
VERTEX
  8
C7
  10
728.242000
  20
317.679900
  0
VERTEX
  8
C7
  10
727.889500
  20
318.511700
  0
VERTEX
  8
C7
  10
727.406000
  20
319.336900
  0
VERTEX
  8
C7
  10
726.779900
  20
320.163700
  0
VERTEX
  8
C7
  10
726.000000
  20
321.000000
  0
SEQEND
  8
C7
  0
POLYLINE
  8
C7
  66
1
  10
116.000000
  20
320.000000
  0
VERTEX
  8
C7
  10
116.000000
  20
320.000000
  0
VERTEX
  8
C7
  10
116.000000
  20
225.000000
  0
VERTEX
  8
C7
  10
116.000000
  20
180.000000
  0
VERTEX
  8
C7
  10
112.000000
  20
180.000000
  0
VERTEX
  8
C7
  10
112.000000
  20
179.000000
  0
VERTEX
  8
C7
  10
208.000000
  20
179.000000
  0
VERTEX
  8
C7
  10
208.000000
  20
180.000000
  0
VERTEX
  8
C7
  10
117.000000
  20
180.000000
  0
VERTEX
  8
C7
  10
117.288200
  20
180.974500
  0
VERTEX
  8
C7
  10
117.538600
  20
181.951700
  0
VERTEX
  8
C7
  10
117.753100
  20
182.931500
  0
VERTEX
  8
C7
  10
117.933700
  20
183.913800
  0
VERTEX
  8
C7
  10
118.082300
  20
184.898400
  0
VERTEX
  8
C7
  10
118.200800
  20
185.885300
  0
VERTEX
  8
C7
  10
118.291100
  20
186.874400
  0
VERTEX
  8
C7
  10
118.355200
  20
187.865500
  0
VERTEX
  8
C7
  10
118.394900
  20
188.858600
  0
VERTEX
  8
C7
  10
118.412200
  20
189.853600
  0
VERTEX
  8
C7
  10
118.409000
  20
190.850300
  0
VERTEX
  8
C7
  10
118.387200
  20
191.848700
  0
VERTEX
  8
C7
  10
118.348800
  20
192.848600
  0
VERTEX
  8
C7
  10
118.295600
  20
193.850000
  0
VERTEX
  8
C7
  10
118.229600
  20
194.852800
  0
VERTEX
  8
C7
  10
118.152800
  20
195.856800
  0
VERTEX
  8
C7
  10
118.067000
  20
196.862000
  0
VERTEX
  8
C7
  10
117.974100
  20
197.868300
  0
VERTEX
  8
C7
  10
117.876100
  20
198.875500
  0
VERTEX
  8
C7
  10
117.774900
  20
199.883500
  0
VERTEX
  8
C7
  10
117.672400
  20
200.892400
  0
VERTEX
  8
C7
  10
117.570600
  20
201.901800
  0
VERTEX
  8
C7
  10
117.471300
  20
202.911800
  0
VERTEX
  8
C7
  10
117.376500
  20
203.922300
  0
VERTEX
  8
C7
  10
117.288200
  20
204.933200
  0
VERTEX
  8
C7
  10
117.208100
  20
205.944300
  0
VERTEX
  8
C7
  10
117.138300
  20
206.955500
  0
VERTEX
  8
C7
  10
117.080600
  20
207.966800
  0
VERTEX
  8
C7
  10
117.037100
  20
208.978000
  0
VERTEX
  8
C7
  10
117.009600
  20
209.989100
  0
VERTEX
  8
C7
  10
117.000000
  20
211.000000
  0
VERTEX
  8
C7
  10
117.000000
  20
282.000000
  0
VERTEX
  8
C7
  10
117.006100
  20
282.850100
  0
VERTEX
  8
C7
  10
117.023800
  20
283.723200
  0
VERTEX
  8
C7
  10
117.052100
  20
284.618100
  0
VERTEX
  8
C7
  10
117.089700
  20
285.533300
  0
VERTEX
  8
C7
  10
117.135700
  20
286.467600
  0
VERTEX
  8
C7
  10
117.189000
  20
287.419600
  0
VERTEX
  8
C7
  10
117.248500
  20
288.387900
  0
VERTEX
  8
C7
  10
117.313200
  20
289.371200
  0
VERTEX
  8
C7
  10
117.381900
  20
290.368200
  0
VERTEX
  8
C7
  10
117.453500
  20
291.377500
  0
VERTEX
  8
C7
  10
117.527100
  20
292.397800
  0
VERTEX
  8
C7
  10
117.601600
  20
293.427800
  0
VERTEX
  8
C7
  10
117.675700
  20
294.466100
  0
VERTEX
  8
C7
  10
117.748600
  20
295.511400
  0
VERTEX
  8
C7
  10
117.819100
  20
296.562400
  0
VERTEX
  8
C7
  10
117.886100
  20
297.617600
  0
VERTEX
  8
C7
  10
117.948600
  20
298.675900
  0
VERTEX
  8
C7
  10
118.005400
  20
299.735700
  0
VERTEX
  8
C7
  10
118.055600
  20
300.795900
  0
VERTEX
  8
C7
  10
118.098000
  20
301.855000
  0
VERTEX
  8
C7
  10
118.131600
  20
302.911700
  0
VERTEX
  8
C7
  10
118.155200
  20
303.964700
  0
VERTEX
  8
C7
  10
118.167900
  20
305.012700
  0
VERTEX
  8
C7
  10
118.168500
  20
306.054200
  0
VERTEX
  8
C7
  10
118.156000
  20
307.088000
  0
VERTEX
  8
C7
  10
118.129300
  20
308.112800
  0
VERTEX
  8
C7
  10
118.087300
  20
309.127100
  0
VERTEX
  8
C7
  10
118.028900
  20
310.129700
  0
VERTEX
  8
C7
  10
117.953100
  20
311.119200
  0
VERTEX
  8
C7
  10
117.858800
  20
312.094200
  0
VERTEX
  8
C7
  10
117.744900
  20
313.053600
  0
VERTEX
  8
C7
  10
117.610400
  20
313.995800
  0
VERTEX
  8
C7
  10
117.454100
  20
314.919500
  0
VERTEX
  8
C7
  10
117.275000
  20
315.823500
  0
VERTEX
  8
C7
  10
117.072100
  20
316.706400
  0
VERTEX
  8
C7
  10
116.844200
  20
317.566800
  0
VERTEX
  8
C7
  10
116.590200
  20
318.403400
  0
VERTEX
  8
C7
  10
116.309200
  20
319.214900
  0
VERTEX
  8
C7
  10
116.000000
  20
320.000000
  0
SEQEND
  8
C7
  0
POLYLINE
  8
C7
  66
1
  10
681.000000
  20
320.000000
  0
VERTEX
  8
C7
  10
681.000000
  20
320.000000
  0
VERTEX
  8
C7
  10
685.000000
  20
318.000000
  0
VERTEX
  8
C7
  10
681.000000
  20
320.000000
  0
SEQEND
  8
C7
  0
POLYLINE
  8
C7
  66
1
  10
733.000000
  20
319.000000
  0
VERTEX
  8
C7
  10
733.000000
  20
319.000000
  0
VERTEX
  8
C7
  10
733.000000
  20
309.000000
  0
VERTEX
  8
C7
  10
735.000000
  20
309.000000
  0
VERTEX
  8
C7
  10
736.000000
  20
317.000000
  0
VERTEX
  8
C7
  10
738.000000
  20
317.000000
  0
VERTEX
  8
C7
  10
739.000000
  20
309.000000
  0
VERTEX
  8
C7
  10
741.000000
  20
309.000000
  0
VERTEX
  8
C7
  10
744.000000
  20
317.000000
  0
VERTEX
  8
C7
  10
744.000000
  20
309.000000
  0
VERTEX
  8
C7
  10
747.000000
  20
309.000000
  0
VERTEX
  8
C7
  10
746.975000
  20
310.273000
  0
VERTEX
  8
C7
  10
746.902100
  20
311.433100
  0
VERTEX
  8
C7
  10
746.781300
  20
312.485400
  0
VERTEX
  8
C7
  10
746.612300
  20
313.435200
  0
VERTEX
  8
C7
  10
746.395200
  20
314.287800
  0
VERTEX
  8
C7
  10
746.129800
  20
315.048400
  0
VERTEX
  8
C7
  10
745.816100
  20
315.722200
  0
VERTEX
  8
C7
  10
745.453900
  20
316.314600
  0
VERTEX
  8
C7
  10
745.043300
  20
316.830700
  0
VERTEX
  8
C7
  10
744.584000
  20
317.275900
  0
VERTEX
  8
C7
  10
744.076000
  20
317.655300
  0
VERTEX
  8
C7
  10
743.519200
  20
317.974400
  0
VERTEX
  8
C7
  10
742.913500
  20
318.238200
  0
VERTEX
  8
C7
  10
742.258900
  20
318.452000
  0
VERTEX
  8
C7
  10
741.555200
  20
318.621200
  0
VERTEX
  8
C7
  10
740.802400
  20
318.750900
  0
VERTEX
  8
C7
  10
740.000300
  20
318.846500
  0
VERTEX
  8
C7
  10
739.148900
  20
318.913100
  0
VERTEX
  8
C7
  10
738.248100
  20
318.956100
  0
VERTEX
  8
C7
  10
737.297800
  20
318.980700
  0
VERTEX
  8
C7
  10
736.298000
  20
318.992100
  0
VERTEX
  8
C7
  10
735.248400
  20
318.995600
  0
VERTEX
  8
C7
  10
734.149100
  20
318.996500
  0
VERTEX
  8
C7
  10
733.000000
  20
319.000000
  0
SEQEND
  8
C7
  0
POLYLINE
  8
C7
  66
1
  10
748.000000
  20
319.000000
  0
VERTEX
  8
C7
  10
748.000000
  20
319.000000
  0
VERTEX
  8
C7
  10
748.000000
  20
309.000000
  0
VERTEX
  8
C7
  10
751.000000
  20
309.000000
  0
VERTEX
  8
C7
  10
754.000000
  20
317.000000
  0
VERTEX
  8
C7
  10
754.000000
  20
309.000000
  0
VERTEX
  8
C7
  10
757.000000
  20
309.000000
  0
VERTEX
  8
C7
  10
758.000000
  20
317.000000
  0
VERTEX
  8
C7
  10
759.000000
  20
317.000000
  0
VERTEX
  8
C7
  10
760.000000
  20
309.000000
  0
VERTEX
  8
C7
  10
762.000000
  20
309.000000
  0
VERTEX
  8
C7
  10
762.030200
  20
310.280700
  0
VERTEX
  8
C7
  10
762.013600
  20
311.448300
  0
VERTEX
  8
C7
  10
761.949800
  20
312.508100
  0
VERTEX
  8
C7
  10
761.838600
  20
313.465100
  0
VERTEX
  8
C7
  10
761.679500
  20
314.324600
  0
VERTEX
  8
C7
  10
761.472300
  20
315.091800
  0
VERTEX
  8
C7
  10
761.216700
  20
315.771700
  0
VERTEX
  8
C7
  10
760.912500
  20
316.369700
  0
VERTEX
  8
C7
  10
760.559200
  20
316.890800
  0
VERTEX
  8
C7
  10
760.156700
  20
317.340200
  0
VERTEX
  8
C7
  10
759.704600
  20
317.723100
  0
VERTEX
  8
C7
  10
759.202500
  20
318.044800
  0
VERTEX
  8
C7
  10
758.650300
  20
318.310200
  0
VERTEX
  8
C7
  10
758.047600
  20
318.524700
  0
VERTEX
  8
C7
  10
757.394100
  20
318.693500
  0
VERTEX
  8
C7
  10
756.689600
  20
318.821500
  0
VERTEX
  8
C7
  10
755.933600
  20
318.914200
  0
VERTEX
  8
C7
  10
755.125900
  20
318.976500
  0
VERTEX
  8
C7
  10
754.266300
  20
319.013800
  0
VERTEX
  8
C7
  10
753.354400
  20
319.031100
  0
VERTEX
  8
C7
  10
752.389900
  20
319.033700
  0
VERTEX
  8
C7
  10
751.372500
  20
319.026700
  0
VERTEX
  8
C7
  10
750.301900
  20
319.015300
  0
VERTEX
  8
C7
  10
749.177800
  20
319.004600
  0
VERTEX
  8
C7
  10
748.000000
  20
319.000000
  0
SEQEND
  8
C7
  0
POLYLINE
  8
C7
  66
1
  10
260.000000
  20
317.000000
  0
VERTEX
  8
C7
  10
260.000000
  20
317.000000
  0
VERTEX
  8
C7
  10
260.000000
  20
311.000000
  0
VERTEX
  8
C7
  10
261.000000
  20
311.000000
  0
VERTEX
  8
C7
  10
260.000000
  20
317.000000
  0
SEQEND
  8
C7
  0
POLYLINE
  8
C7
  66
1
  10
547.000000
  20
317.000000
  0
VERTEX
  8
C7
  10
547.000000
  20
317.000000
  0
VERTEX
  8
C7
  10
547.000000
  20
311.000000
  0
VERTEX
  8
C7
  10
548.000000
  20
311.000000
  0
VERTEX
  8
C7
  10
547.000000
  20
317.000000
  0
SEQEND
  8
C7
  0
POLYLINE
  8
C7
  66
1
  10
682.000000
  20
316.000000
  0
VERTEX
  8
C7
  10
682.000000
  20
316.000000
  0
VERTEX
  8
C7
  10
682.000000
  20
311.000000
  0
VERTEX
  8
C7
  10
684.000000
  20
311.000000
  0
VERTEX
  8
C7
  10
685.000000
  20
312.000000
  0
VERTEX
  8
C7
  10
682.000000
  20
316.000000
  0
SEQEND
  8
C7
  0
POLYLINE
  8
C7
  66
1
  10
260.000000
  20
307.000000
  0
VERTEX
  8
C7
  10
260.000000
  20
307.000000
  0
VERTEX
  8
C7
  10
260.000000
  20
301.000000
  0
VERTEX
  8
C7
  10
261.000000
  20
301.000000
  0
VERTEX
  8
C7
  10
260.000000
  20
307.000000
  0
SEQEND
  8
C7
  0
POLYLINE
  8
C7
  66
1
  10
547.000000
  20
307.000000
  0
VERTEX
  8
C7
  10
547.000000
  20
307.000000
  0
VERTEX
  8
C7
  10
547.000000
  20
301.000000
  0
VERTEX
  8
C7
  10
548.000000
  20
301.000000
  0
VERTEX
  8
C7
  10
547.000000
  20
307.000000
  0
SEQEND
  8
C7
  0
POLYLINE
  8
C7
  66
1
  10
260.000000
  20
297.000000
  0
VERTEX
  8
C7
  10
260.000000
  20
297.000000
  0
VERTEX
  8
C7
  10
260.000000
  20
292.000000
  0
VERTEX
  8
C7
  10
261.000000
  20
292.000000
  0
VERTEX
  8
C7
  10
260.000000
  20
297.000000
  0
SEQEND
  8
C7
  0
POLYLINE
  8
C7
  66
1
  10
547.000000
  20
297.000000
  0
VERTEX
  8
C7
  10
547.000000
  20
297.000000
  0
VERTEX
  8
C7
  10
547.000000
  20
292.000000
  0
VERTEX
  8
C7
  10
548.000000
  20
292.000000
  0
VERTEX
  8
C7
  10
547.000000
  20
297.000000
  0
SEQEND
  8
C7
  0
POLYLINE
  8
C7
  66
1
  10
260.000000
  20
288.000000
  0
VERTEX
  8
C7
  10
260.000000
  20
288.000000
  0
VERTEX
  8
C7
  10
260.000000
  20
282.000000
  0
VERTEX
  8
C7
  10
261.000000
  20
282.000000
  0
VERTEX
  8
C7
  10
260.000000
  20
288.000000
  0
SEQEND
  8
C7
  0
POLYLINE
  8
C7
  66
1
  10
547.000000
  20
288.000000
  0
VERTEX
  8
C7
  10
547.000000
  20
288.000000
  0
VERTEX
  8
C7
  10
547.000000
  20
282.000000
  0
VERTEX
  8
C7
  10
548.000000
  20
282.000000
  0
VERTEX
  8
C7
  10
547.000000
  20
288.000000
  0
SEQEND
  8
C7
  0
POLYLINE
  8
C7
  66
1
  10
260.000000
  20
278.000000
  0
VERTEX
  8
C7
  10
260.000000
  20
278.000000
  0
VERTEX
  8
C7
  10
260.000000
  20
272.000000
  0
VERTEX
  8
C7
  10
261.000000
  20
272.000000
  0
VERTEX
  8
C7
  10
260.000000
  20
278.000000
  0
SEQEND
  8
C7
  0
POLYLINE
  8
C7
  66
1
  10
547.000000
  20
278.000000
  0
VERTEX
  8
C7
  10
547.000000
  20
278.000000
  0
VERTEX
  8
C7
  10
547.000000
  20
272.000000
  0
VERTEX
  8
C7
  10
548.000000
  20
272.000000
  0
VERTEX
  8
C7
  10
547.000000
  20
278.000000
  0
SEQEND
  8
C7
  0
POLYLINE
  8
C7
  66
1
  10
260.000000
  20
269.000000
  0
VERTEX
  8
C7
  10
260.000000
  20
269.000000
  0
VERTEX
  8
C7
  10
260.000000
  20
263.000000
  0
VERTEX
  8
C7
  10
261.000000
  20
263.000000
  0
VERTEX
  8
C7
  10
260.000000
  20
269.000000
  0
SEQEND
  8
C7
  0
POLYLINE
  8
C7
  66
1
  10
547.000000
  20
269.000000
  0
VERTEX
  8
C7
  10
547.000000
  20
269.000000
  0
VERTEX
  8
C7
  10
547.000000
  20
263.000000
  0
VERTEX
  8
C7
  10
548.000000
  20
263.000000
  0
VERTEX
  8
C7
  10
547.000000
  20
269.000000
  0
SEQEND
  8
C7
  0
POLYLINE
  8
C7
  66
1
  10
260.000000
  20
259.000000
  0
VERTEX
  8
C7
  10
260.000000
  20
259.000000
  0
VERTEX
  8
C7
  10
260.000000
  20
253.000000
  0
VERTEX
  8
C7
  10
261.000000
  20
253.000000
  0
VERTEX
  8
C7
  10
260.000000
  20
259.000000
  0
SEQEND
  8
C7
  0
POLYLINE
  8
C7
  66
1
  10
547.000000
  20
259.000000
  0
VERTEX
  8
C7
  10
547.000000
  20
259.000000
  0
VERTEX
  8
C7
  10
547.000000
  20
253.000000
  0
VERTEX
  8
C7
  10
548.000000
  20
253.000000
  0
VERTEX
  8
C7
  10
547.000000
  20
259.000000
  0
SEQEND
  8
C7
  0
POLYLINE
  8
C7
  66
1
  10
260.000000
  20
250.000000
  0
VERTEX
  8
C7
  10
260.000000
  20
250.000000
  0
VERTEX
  8
C7
  10
260.000000
  20
244.000000
  0
VERTEX
  8
C7
  10
261.000000
  20
244.000000
  0
VERTEX
  8
C7
  10
260.000000
  20
250.000000
  0
SEQEND
  8
C7
  0
POLYLINE
  8
C7
  66
1
  10
547.000000
  20
250.000000
  0
VERTEX
  8
C7
  10
547.000000
  20
250.000000
  0
VERTEX
  8
C7
  10
547.000000
  20
244.000000
  0
VERTEX
  8
C7
  10
548.000000
  20
244.000000
  0
VERTEX
  8
C7
  10
547.000000
  20
250.000000
  0
SEQEND
  8
C7
  0
POLYLINE
  8
C7
  66
1
  10
260.000000
  20
240.000000
  0
VERTEX
  8
C7
  10
260.000000
  20
240.000000
  0
VERTEX
  8
C7
  10
260.000000
  20
234.000000
  0
VERTEX
  8
C7
  10
261.000000
  20
234.000000
  0
VERTEX
  8
C7
  10
260.000000
  20
240.000000
  0
SEQEND
  8
C7
  0
POLYLINE
  8
C7
  66
1
  10
547.000000
  20
240.000000
  0
VERTEX
  8
C7
  10
547.000000
  20
240.000000
  0
VERTEX
  8
C7
  10
547.000000
  20
234.000000
  0
VERTEX
  8
C7
  10
548.000000
  20
234.000000
  0
VERTEX
  8
C7
  10
547.000000
  20
240.000000
  0
SEQEND
  8
C7
  0
POLYLINE
  8
C7
  66
1
  10
260.000000
  20
230.000000
  0
VERTEX
  8
C7
  10
260.000000
  20
230.000000
  0
VERTEX
  8
C7
  10
260.000000
  20
225.000000
  0
VERTEX
  8
C7
  10
261.000000
  20
225.000000
  0
VERTEX
  8
C7
  10
260.000000
  20
230.000000
  0
SEQEND
  8
C7
  0
POLYLINE
  8
C7
  66
1
  10
547.000000
  20
230.000000
  0
VERTEX
  8
C7
  10
547.000000
  20
230.000000
  0
VERTEX
  8
C7
  10
547.000000
  20
225.000000
  0
VERTEX
  8
C7
  10
548.000000
  20
225.000000
  0
VERTEX
  8
C7
  10
547.000000
  20
230.000000
  0
SEQEND
  8
C7
  0
POLYLINE
  8
C7
  66
1
  10
260.000000
  20
221.000000
  0
VERTEX
  8
C7
  10
260.000000
  20
221.000000
  0
VERTEX
  8
C7
  10
259.983600
  20
220.008300
  0
VERTEX
  8
C7
  10
259.955200
  20
219.057100
  0
VERTEX
  8
C7
  10
259.945600
  20
218.155400
  0
VERTEX
  8
C7
  10
259.985800
  20
217.312500
  0
VERTEX
  8
C7
  10
260.106500
  20
216.537500
  0
VERTEX
  8
C7
  10
260.338700
  20
215.839400
  0
VERTEX
  8
C7
  10
260.713200
  20
215.227500
  0
VERTEX
  8
C7
  10
261.261000
  20
214.710900
  0
VERTEX
  8
C7
  10
262.013000
  20
214.298600
  0
VERTEX
  8
C7
  10
263.000000
  20
214.000000
  0
VERTEX
  8
C7
  10
263.000000
  20
215.000000
  0
VERTEX
  8
C7
  10
260.000000
  20
221.000000
  0
SEQEND
  8
C7
  0
POLYLINE
  8
C7
  66
1
  10
547.000000
  20
221.000000
  0
VERTEX
  8
C7
  10
547.000000
  20
221.000000
  0
VERTEX
  8
C7
  10
545.000000
  20
215.000000
  0
VERTEX
  8
C7
  10
545.000000
  20
214.000000
  0
VERTEX
  8
C7
  10
545.975900
  20
214.305800
  0
VERTEX
  8
C7
  10
546.750200
  20
214.747900
  0
VERTEX
  8
C7
  10
547.333800
  20
215.308100
  0
VERTEX
  8
C7
  10
547.737600
  20
215.968100
  0
VERTEX
  8
C7
  10
547.972700
  20
216.709600
  0
VERTEX
  8
C7
  10
548.049900
  20
217.514300
  0
VERTEX
  8
C7
  10
547.980300
  20
218.364000
  0
VERTEX
  8
C7
  10
547.774800
  20
219.240300
  0
VERTEX
  8
C7
  10
547.444300
  20
220.125100
  0
VERTEX
  8
C7
  10
547.000000
  20
221.000000
  0
SEQEND
  8
C7
  0
POLYLINE
  8
C7
  66
1
  10
267.000000
  20
215.000000
  0
VERTEX
  8
C7
  10
267.000000
  20
215.000000
  0
VERTEX
  8
C7
  10
267.000000
  20
214.000000
  0
VERTEX
  8
C7
  10
273.000000
  20
214.000000
  0
VERTEX
  8
C7
  10
267.000000
  20
215.000000
  0
SEQEND
  8
C7
  0
POLYLINE
  8
C7
  66
1
  10
276.000000
  20
215.000000
  0
VERTEX
  8
C7
  10
276.000000
  20
215.000000
  0
VERTEX
  8
C7
  10
276.000000
  20
214.000000
  0
VERTEX
  8
C7
  10
282.000000
  20
214.000000
  0
VERTEX
  8
C7
  10
276.000000
  20
215.000000
  0
SEQEND
  8
C7
  0
POLYLINE
  8
C7
  66
1
  10
286.000000
  20
215.000000
  0
VERTEX
  8
C7
  10
286.000000
  20
215.000000
  0
VERTEX
  8
C7
  10
286.000000
  20
214.000000
  0
VERTEX
  8
C7
  10
292.000000
  20
214.000000
  0
VERTEX
  8
C7
  10
286.000000
  20
215.000000
  0
SEQEND
  8
C7
  0
POLYLINE
  8
C7
  66
1
  10
296.000000
  20
215.000000
  0
VERTEX
  8
C7
  10
296.000000
  20
215.000000
  0
VERTEX
  8
C7
  10
296.000000
  20
214.000000
  0
VERTEX
  8
C7
  10
301.000000
  20
214.000000
  0
VERTEX
  8
C7
  10
296.000000
  20
215.000000
  0
SEQEND
  8
C7
  0
POLYLINE
  8
C7
  66
1
  10
305.000000
  20
215.000000
  0
VERTEX
  8
C7
  10
305.000000
  20
215.000000
  0
VERTEX
  8
C7
  10
305.000000
  20
214.000000
  0
VERTEX
  8
C7
  10
311.000000
  20
214.000000
  0
VERTEX
  8
C7
  10
305.000000
  20
215.000000
  0
SEQEND
  8
C7
  0
POLYLINE
  8
C7
  66
1
  10
315.000000
  20
215.000000
  0
VERTEX
  8
C7
  10
315.000000
  20
215.000000
  0
VERTEX
  8
C7
  10
315.000000
  20
214.000000
  0
VERTEX
  8
C7
  10
320.000000
  20
214.000000
  0
VERTEX
  8
C7
  10
315.000000
  20
215.000000
  0
SEQEND
  8
C7
  0
POLYLINE
  8
C7
  66
1
  10
324.000000
  20
215.000000
  0
VERTEX
  8
C7
  10
324.000000
  20
215.000000
  0
VERTEX
  8
C7
  10
324.000000
  20
214.000000
  0
VERTEX
  8
C7
  10
330.000000
  20
214.000000
  0
VERTEX
  8
C7
  10
324.000000
  20
215.000000
  0
SEQEND
  8
C7
  0
POLYLINE
  8
C7
  66
1
  10
334.000000
  20
215.000000
  0
VERTEX
  8
C7
  10
334.000000
  20
215.000000
  0
VERTEX
  8
C7
  10
334.000000
  20
214.000000
  0
VERTEX
  8
C7
  10
340.000000
  20
214.000000
  0
VERTEX
  8
C7
  10
334.000000
  20
215.000000
  0
SEQEND
  8
C7
  0
POLYLINE
  8
C7
  66
1
  10
343.000000
  20
215.000000
  0
VERTEX
  8
C7
  10
343.000000
  20
215.000000
  0
VERTEX
  8
C7
  10
343.000000
  20
214.000000
  0
VERTEX
  8
C7
  10
349.000000
  20
214.000000
  0
VERTEX
  8
C7
  10
343.000000
  20
215.000000
  0
SEQEND
  8
C7
  0
POLYLINE
  8
C7
  66
1
  10
353.000000
  20
215.000000
  0
VERTEX
  8
C7
  10
353.000000
  20
215.000000
  0
VERTEX
  8
C7
  10
353.000000
  20
214.000000
  0
VERTEX
  8
C7
  10
359.000000
  20
214.000000
  0
VERTEX
  8
C7
  10
353.000000
  20
215.000000
  0
SEQEND
  8
C7
  0
POLYLINE
  8
C7
  66
1
  10
363.000000
  20
215.000000
  0
VERTEX
  8
C7
  10
363.000000
  20
215.000000
  0
VERTEX
  8
C7
  10
363.000000
  20
214.000000
  0
VERTEX
  8
C7
  10
368.000000
  20
214.000000
  0
VERTEX
  8
C7
  10
363.000000
  20
215.000000
  0
SEQEND
  8
C7
  0
POLYLINE
  8
C7
  66
1
  10
372.000000
  20
215.000000
  0
VERTEX
  8
C7
  10
372.000000
  20
215.000000
  0
VERTEX
  8
C7
  10
372.000000
  20
214.000000
  0
VERTEX
  8
C7
  10
378.000000
  20
214.000000
  0
VERTEX
  8
C7
  10
372.000000
  20
215.000000
  0
SEQEND
  8
C7
  0
POLYLINE
  8
C7
  66
1
  10
382.000000
  20
215.000000
  0
VERTEX
  8
C7
  10
382.000000
  20
215.000000
  0
VERTEX
  8
C7
  10
382.000000
  20
214.000000
  0
VERTEX
  8
C7
  10
388.000000
  20
214.000000
  0
VERTEX
  8
C7
  10
382.000000
  20
215.000000
  0
SEQEND
  8
C7
  0
POLYLINE
  8
C7
  66
1
  10
391.000000
  20
215.000000
  0
VERTEX
  8
C7
  10
391.000000
  20
215.000000
  0
VERTEX
  8
C7
  10
391.000000
  20
214.000000
  0
VERTEX
  8
C7
  10
397.000000
  20
214.000000
  0
VERTEX
  8
C7
  10
391.000000
  20
215.000000
  0
SEQEND
  8
C7
  0
POLYLINE
  8
C7
  66
1
  10
401.000000
  20
215.000000
  0
VERTEX
  8
C7
  10
401.000000
  20
215.000000
  0
VERTEX
  8
C7
  10
401.000000
  20
214.000000
  0
VERTEX
  8
C7
  10
407.000000
  20
214.000000
  0
VERTEX
  8
C7
  10
401.000000
  20
215.000000
  0
SEQEND
  8
C7
  0
POLYLINE
  8
C7
  66
1
  10
411.000000
  20
215.000000
  0
VERTEX
  8
C7
  10
411.000000
  20
215.000000
  0
VERTEX
  8
C7
  10
411.000000
  20
214.000000
  0
VERTEX
  8
C7
  10
416.000000
  20
214.000000
  0
VERTEX
  8
C7
  10
411.000000
  20
215.000000
  0
SEQEND
  8
C7
  0
POLYLINE
  8
C7
  66
1
  10
420.000000
  20
215.000000
  0
VERTEX
  8
C7
  10
420.000000
  20
215.000000
  0
VERTEX
  8
C7
  10
420.000000
  20
214.000000
  0
VERTEX
  8
C7
  10
426.000000
  20
214.000000
  0
VERTEX
  8
C7
  10
420.000000
  20
215.000000
  0
SEQEND
  8
C7
  0
POLYLINE
  8
C7
  66
1
  10
430.000000
  20
215.000000
  0
VERTEX
  8
C7
  10
430.000000
  20
215.000000
  0
VERTEX
  8
C7
  10
430.000000
  20
214.000000
  0
VERTEX
  8
C7
  10
435.000000
  20
214.000000
  0
VERTEX
  8
C7
  10
430.000000
  20
215.000000
  0
SEQEND
  8
C7
  0
POLYLINE
  8
C7
  66
1
  10
439.000000
  20
215.000000
  0
VERTEX
  8
C7
  10
439.000000
  20
215.000000
  0
VERTEX
  8
C7
  10
439.000000
  20
214.000000
  0
VERTEX
  8
C7
  10
445.000000
  20
214.000000
  0
VERTEX
  8
C7
  10
439.000000
  20
215.000000
  0
SEQEND
  8
C7
  0
POLYLINE
  8
C7
  66
1
  10
449.000000
  20
215.000000
  0
VERTEX
  8
C7
  10
449.000000
  20
215.000000
  0
VERTEX
  8
C7
  10
449.000000
  20
214.000000
  0
VERTEX
  8
C7
  10
455.000000
  20
214.000000
  0
VERTEX
  8
C7
  10
449.000000
  20
215.000000
  0
SEQEND
  8
C7
  0
POLYLINE
  8
C7
  66
1
  10
458.000000
  20
215.000000
  0
VERTEX
  8
C7
  10
458.000000
  20
215.000000
  0
VERTEX
  8
C7
  10
458.000000
  20
214.000000
  0
VERTEX
  8
C7
  10
464.000000
  20
214.000000
  0
VERTEX
  8
C7
  10
458.000000
  20
215.000000
  0
SEQEND
  8
C7
  0
POLYLINE
  8
C7
  66
1
  10
468.000000
  20
215.000000
  0
VERTEX
  8
C7
  10
468.000000
  20
215.000000
  0
VERTEX
  8
C7
  10
468.000000
  20
214.000000
  0
VERTEX
  8
C7
  10
474.000000
  20
214.000000
  0
VERTEX
  8
C7
  10
468.000000
  20
215.000000
  0
SEQEND
  8
C7
  0
POLYLINE
  8
C7
  66
1
  10
478.000000
  20
215.000000
  0
VERTEX
  8
C7
  10
478.000000
  20
215.000000
  0
VERTEX
  8
C7
  10
478.000000
  20
214.000000
  0
VERTEX
  8
C7
  10
483.000000
  20
214.000000
  0
VERTEX
  8
C7
  10
478.000000
  20
215.000000
  0
SEQEND
  8
C7
  0
POLYLINE
  8
C7
  66
1
  10
487.000000
  20
215.000000
  0
VERTEX
  8
C7
  10
487.000000
  20
215.000000
  0
VERTEX
  8
C7
  10
487.000000
  20
214.000000
  0
VERTEX
  8
C7
  10
493.000000
  20
214.000000
  0
VERTEX
  8
C7
  10
487.000000
  20
215.000000
  0
SEQEND
  8
C7
  0
POLYLINE
  8
C7
  66
1
  10
497.000000
  20
215.000000
  0
VERTEX
  8
C7
  10
497.000000
  20
215.000000
  0
VERTEX
  8
C7
  10
497.000000
  20
214.000000
  0
VERTEX
  8
C7
  10
503.000000
  20
214.000000
  0
VERTEX
  8
C7
  10
497.000000
  20
215.000000
  0
SEQEND
  8
C7
  0
POLYLINE
  8
C7
  66
1
  10
506.000000
  20
215.000000
  0
VERTEX
  8
C7
  10
506.000000
  20
215.000000
  0
VERTEX
  8
C7
  10
506.000000
  20
214.000000
  0
VERTEX
  8
C7
  10
512.000000
  20
214.000000
  0
VERTEX
  8
C7
  10
506.000000
  20
215.000000
  0
SEQEND
  8
C7
  0
POLYLINE
  8
C7
  66
1
  10
516.000000
  20
215.000000
  0
VERTEX
  8
C7
  10
516.000000
  20
215.000000
  0
VERTEX
  8
C7
  10
516.000000
  20
214.000000
  0
VERTEX
  8
C7
  10
522.000000
  20
214.000000
  0
VERTEX
  8
C7
  10
516.000000
  20
215.000000
  0
SEQEND
  8
C7
  0
POLYLINE
  8
C7
  66
1
  10
525.000000
  20
215.000000
  0
VERTEX
  8
C7
  10
525.000000
  20
215.000000
  0
VERTEX
  8
C7
  10
525.000000
  20
214.000000
  0
VERTEX
  8
C7
  10
531.000000
  20
214.000000
  0
VERTEX
  8
C7
  10
525.000000
  20
215.000000
  0
SEQEND
  8
C7
  0
POLYLINE
  8
C7
  66
1
  10
535.000000
  20
215.000000
  0
VERTEX
  8
C7
  10
535.000000
  20
215.000000
  0
VERTEX
  8
C7
  10
535.000000
  20
214.000000
  0
VERTEX
  8
C7
  10
541.000000
  20
214.000000
  0
VERTEX
  8
C7
  10
535.000000
  20
215.000000
  0
SEQEND
  8
C7
  0
POLYLINE
  8
C7
  66
1
  10
209.000000
  20
179.000000
  0
VERTEX
  8
C7
  10
209.000000
  20
179.000000
  0
VERTEX
  8
C7
  10
209.000000
  20
85.000000
  0
VERTEX
  8
C7
  10
210.000000
  20
85.000000
  0
VERTEX
  8
C7
  10
210.000000
  20
89.000000
  0
VERTEX
  8
C7
  10
223.000000
  20
87.000000
  0
VERTEX
  8
C7
  10
223.403800
  20
87.536500
  0
VERTEX
  8
C7
  10
223.884400
  20
88.024600
  0
VERTEX
  8
C7
  10
224.437500
  20
88.466100
  0
VERTEX
  8
C7
  10
225.058800
  20
88.863200
  0
VERTEX
  8
C7
  10
225.744000
  20
89.217800
  0
VERTEX
  8
C7
  10
226.488700
  20
89.531900
  0
VERTEX
  8
C7
  10
227.288600
  20
89.807500
  0
VERTEX
  8
C7
  10
228.139500
  20
90.046600
  0
VERTEX
  8
C7
  10
229.036900
  20
90.251300
  0
VERTEX
  8
C7
  10
229.976700
  20
90.423400
  0
VERTEX
  8
C7
  10
230.954400
  20
90.565000
  0
VERTEX
  8
C7
  10
231.965800
  20
90.678100
  0
VERTEX
  8
C7
  10
233.006500
  20
90.764700
  0
VERTEX
  8
C7
  10
234.072200
  20
90.826800
  0
VERTEX
  8
C7
  10
235.158700
  20
90.866400
  0
VERTEX
  8
C7
  10
236.261600
  20
90.885500
  0
VERTEX
  8
C7
  10
237.376500
  20
90.886100
  0
VERTEX
  8
C7
  10
238.499300
  20
90.870200
  0
VERTEX
  8
C7
  10
239.625500
  20
90.839700
  0
VERTEX
  8
C7
  10
240.750800
  20
90.796800
  0
VERTEX
  8
C7
  10
241.871000
  20
90.743300
  0
VERTEX
  8
C7
  10
242.981700
  20
90.681300
  0
VERTEX
  8
C7
  10
244.078500
  20
90.612800
  0
VERTEX
  8
C7
  10
245.157300
  20
90.539700
  0
VERTEX
  8
C7
  10
246.213700
  20
90.464100
  0
VERTEX
  8
C7
  10
247.243300
  20
90.388000
  0
VERTEX
  8
C7
  10
248.241900
  20
90.313400
  0
VERTEX
  8
C7
  10
249.205100
  20
90.242200
  0
VERTEX
  8
C7
  10
250.128600
  20
90.176500
  0
VERTEX
  8
C7
  10
251.008100
  20
90.118300
  0
VERTEX
  8
C7
  10
251.839300
  20
90.069500
  0
VERTEX
  8
C7
  10
252.617900
  20
90.032200
  0
VERTEX
  8
C7
  10
253.339600
  20
90.008300
  0
VERTEX
  8
C7
  10
254.000000
  20
90.000000
  0
VERTEX
  8
C7
  10
349.000000
  20
90.000000
  0
VERTEX
  8
C7
  10
349.000000
  20
91.000000
  0
VERTEX
  8
C7
  10
255.000000
  20
91.000000
  0
VERTEX
  8
C7
  10
210.000000
  20
91.000000
  0
VERTEX
  8
C7
  10
210.000000
  20
152.000000
  0
VERTEX
  8
C7
  10
209.000000
  20
179.000000
  0
SEQEND
  8
C7
  0
POLYLINE
  8
C7
  66
1
  10
598.000000
  20
179.000000
  0
VERTEX
  8
C7
  10
598.000000
  20
179.000000
  0
VERTEX
  8
C7
  10
598.000000
  20
91.000000
  0
VERTEX
  8
C7
  10
552.000000
  20
91.000000
  0
VERTEX
  8
C7
  10
458.000000
  20
91.000000
  0
VERTEX
  8
C7
  10
458.000000
  20
90.000000
  0
VERTEX
  8
C7
  10
553.000000
  20
90.000000
  0
VERTEX
  8
C7
  10
553.653200
  20
90.008100
  0
VERTEX
  8
C7
  10
554.367600
  20
90.031300
  0
VERTEX
  8
C7
  10
555.138800
  20
90.067700
  0
VERTEX
  8
C7
  10
555.962900
  20
90.115300
  0
VERTEX
  8
C7
  10
556.835500
  20
90.172500
  0
VERTEX
  8
C7
  10
557.752500
  20
90.237200
  0
VERTEX
  8
C7
  10
558.709900
  20
90.307500
  0
VERTEX
  8
C7
  10
559.703400
  20
90.381800
  0
VERTEX
  8
C7
  10
560.728900
  20
90.457900
  0
VERTEX
  8
C7
  10
561.782200
  20
90.534200
  0
VERTEX
  8
C7
  10
562.859200
  20
90.608700
  0
VERTEX
  8
C7
  10
563.955600
  20
90.679500
  0
VERTEX
  8
C7
  10
565.067500
  20
90.744800
  0
VERTEX
  8
C7
  10
566.190500
  20
90.802700
  0
VERTEX
  8
C7
  10
567.320600
  20
90.851400
  0
VERTEX
  8
C7
  10
568.453500
  20
90.888900
  0
VERTEX
  8
C7
  10
569.585200
  20
90.913400
  0
VERTEX
  8
C7
  10
570.711400
  20
90.923100
  0
VERTEX
  8
C7
  10
571.828100
  20
90.916000
  0
VERTEX
  8
C7
  10
572.931000
  20
90.890300
  0
VERTEX
  8
C7
  10
574.016100
  20
90.844100
  0
VERTEX
  8
C7
  10
575.079100
  20
90.775600
  0
VERTEX
  8
C7
  10
576.115800
  20
90.682800
  0
VERTEX
  8
C7
  10
577.122200
  20
90.564000
  0
VERTEX
  8
C7
  10
578.094100
  20
90.417200
  0
VERTEX
  8
C7
  10
579.027300
  20
90.240600
  0
VERTEX
  8
C7
  10
579.917700
  20
90.032200
  0
VERTEX
  8
C7
  10
580.761100
  20
89.790300
  0
VERTEX
  8
C7
  10
581.553300
  20
89.513000
  0
VERTEX
  8
C7
  10
582.290300
  20
89.198300
  0
VERTEX
  8
C7
  10
582.967700
  20
88.844500
  0
VERTEX
  8
C7
  10
583.581600
  20
88.449600
  0
VERTEX
  8
C7
  10
584.127700
  20
88.011800
  0
VERTEX
  8
C7
  10
584.601900
  20
87.529200
  0
VERTEX
  8
C7
  10
585.000000
  20
87.000000
  0
VERTEX
  8
C7
  10
598.000000
  20
89.000000
  0
VERTEX
  8
C7
  10
598.000000
  20
85.000000
  0
VERTEX
  8
C7
  10
599.000000
  20
85.000000
  0
VERTEX
  8
C7
  10
599.000000
  20
150.000000
  0
VERTEX
  8
C7
  10
598.000000
  20
179.000000
  0
SEQEND
  8
C7
  0
POLYLINE
  8
C7
  66
1
  10
409.000000
  20
141.000000
  0
VERTEX
  8
C7
  10
409.000000
  20
141.000000
  0
VERTEX
  8
C7
  10
408.694300
  20
140.170100
  0
VERTEX
  8
C7
  10
408.390400
  20
139.318200
  0
VERTEX
  8
C7
  10
408.093000
  20
138.447600
  0
VERTEX
  8
C7
  10
407.807000
  20
137.561300
  0
VERTEX
  8
C7
  10
407.537200
  20
136.662600
  0
VERTEX
  8
C7
  10
407.288600
  20
135.754600
  0
VERTEX
  8
C7
  10
407.065900
  20
134.840700
  0
VERTEX
  8
C7
  10
406.874000
  20
133.923800
  0
VERTEX
  8
C7
  10
406.717900
  20
133.007300
  0
VERTEX
  8
C7
  10
406.602300
  20
132.094400
  0
VERTEX
  8
C7
  10
406.532000
  20
131.188200
  0
VERTEX
  8
C7
  10
406.512100
  20
130.291900
  0
VERTEX
  8
C7
  10
406.547300
  20
129.408700
  0
VERTEX
  8
C7
  10
406.642400
  20
128.541800
  0
VERTEX
  8
C7
  10
406.802400
  20
127.694400
  0
VERTEX
  8
C7
  10
407.032200
  20
126.869700
  0
VERTEX
  8
C7
  10
407.336400
  20
126.070800
  0
VERTEX
  8
C7
  10
407.720100
  20
125.301100
  0
VERTEX
  8
C7
  10
408.188100
  20
124.563600
  0
VERTEX
  8
C7
  10
408.745200
  20
123.861500
  0
VERTEX
  8
C7
  10
409.396300
  20
123.198100
  0
VERTEX
  8
C7
  10
410.146300
  20
122.576500
  0
VERTEX
  8
C7
  10
411.000000
  20
122.000000
  0
VERTEX
  8
C7
  10
411.000000
  20
141.000000
  0
VERTEX
  8
C7
  10
409.000000
  20
141.000000
  0
SEQEND
  8
C7
  0
POLYLINE
  8
C7
  66
1
  10
475.000000
  20
141.000000
  0
VERTEX
  8
C7
  10
475.000000
  20
141.000000
  0
VERTEX
  8
C7
  10
475.000000
  20
122.000000
  0
VERTEX
  8
C7
  10
475.725400
  20
122.469300
  0
VERTEX
  8
C7
  10
476.392800
  20
123.001200
  0
VERTEX
  8
C7
  10
477.002000
  20
123.590400
  0
VERTEX
  8
C7
  10
477.553000
  20
124.231900
  0
VERTEX
  8
C7
  10
478.046000
  20
124.920200
  0
VERTEX
  8
C7
  10
478.480900
  20
125.650400
  0
VERTEX
  8
C7
  10
478.857700
  20
126.417100
  0
VERTEX
  8
C7
  10
479.176500
  20
127.215100
  0
VERTEX
  8
C7
  10
479.437200
  20
128.039200
  0
VERTEX
  8
C7
  10
479.639800
  20
128.884300
  0
VERTEX
  8
C7
  10
479.784500
  20
129.745100
  0
VERTEX
  8
C7
  10
479.871100
  20
130.616300
  0
VERTEX
  8
C7
  10
479.899700
  20
131.492900
  0
VERTEX
  8
C7
  10
479.870400
  20
132.369500
  0
VERTEX
  8
C7
  10
479.783100
  20
133.241100
  0
VERTEX
  8
C7
  10
479.637800
  20
134.102300
  0
VERTEX
  8
C7
  10
479.434500
  20
134.947900
  0
VERTEX
  8
C7
  10
479.173400
  20
135.772800
  0
VERTEX
  8
C7
  10
478.854300
  20
136.571700
  0
VERTEX
  8
C7
  10
478.477300
  20
137.339500
  0
VERTEX
  8
C7
  10
478.042400
  20
138.070900
  0
VERTEX
  8
C7
  10
477.549600
  20
138.760700
  0
VERTEX
  8
C7
  10
476.999000
  20
139.403700
  0
VERTEX
  8
C7
  10
476.390500
  20
139.994700
  0
VERTEX
  8
C7
  10
475.724100
  20
140.528600
  0
VERTEX
  8
C7
  10
475.000000
  20
141.000000
  0
SEQEND
  8
C7
  0
POLYLINE
  8
C7
  66
1
  10
327.000000
  20
134.000000
  0
VERTEX
  8
C7
  10
327.000000
  20
134.000000
  0
VERTEX
  8
C7
  10
331.000000
  20
135.000000
  0
VERTEX
  8
C7
  10
331.000000
  20
126.000000
  0
VERTEX
  8
C7
  10
333.000000
  20
126.000000
  0
VERTEX
  8
C7
  10
333.000000
  20
140.000000
  0
VERTEX
  8
C7
  10
327.000000
  20
134.000000
  0
SEQEND
  8
C7
  0
POLYLINE
  8
C7
  66
1
  10
337.000000
  20
140.000000
  0
VERTEX
  8
C7
  10
337.000000
  20
140.000000
  0
VERTEX
  8
C7
  10
337.000000
  20
138.000000
  0
VERTEX
  8
C7
  10
342.000000
  20
138.000000
  0
VERTEX
  8
C7
  10
339.000000
  20
126.000000
  0
VERTEX
  8
C7
  10
346.000000
  20
140.000000
  0
VERTEX
  8
C7
  10
337.000000
  20
140.000000
  0
SEQEND
  8
C7
  0
POLYLINE
  8
C7
  66
1
  10
354.000000
  20
134.000000
  0
VERTEX
  8
C7
  10
354.000000
  20
134.000000
  0
VERTEX
  8
C7
  10
357.000000
  20
135.000000
  0
VERTEX
  8
C7
  10
357.000000
  20
126.000000
  0
VERTEX
  8
C7
  10
359.000000
  20
126.000000
  0
VERTEX
  8
C7
  10
359.000000
  20
140.000000
  0
VERTEX
  8
C7
  10
354.000000
  20
134.000000
  0
SEQEND
  8
C7
  0
POLYLINE
  8
C7
  66
1
  10
364.000000
  20
134.000000
  0
VERTEX
  8
C7
  10
364.000000
  20
134.000000
  0
VERTEX
  8
C7
  10
367.000000
  20
135.000000
  0
VERTEX
  8
C7
  10
367.000000
  20
126.000000
  0
VERTEX
  8
C7
  10
370.000000
  20
126.000000
  0
VERTEX
  8
C7
  10
370.000000
  20
140.000000
  0
VERTEX
  8
C7
  10
364.000000
  20
134.000000
  0
SEQEND
  8
C7
  0
POLYLINE
  8
C7
  66
1
  10
376.000000
  20
140.000000
  0
VERTEX
  8
C7
  10
376.000000
  20
140.000000
  0
VERTEX
  8
C7
  10
372.000000
  20
126.000000
  0
VERTEX
  8
C7
  10
372.861900
  20
126.375900
  0
VERTEX
  8
C7
  10
373.630600
  20
126.858600
  0
VERTEX
  8
C7
  10
374.313600
  20
127.437900
  0
VERTEX
  8
C7
  10
374.918100
  20
128.103600
  0
VERTEX
  8
C7
  10
375.451600
  20
128.845600
  0
VERTEX
  8
C7
  10
375.921400
  20
129.653600
  0
VERTEX
  8
C7
  10
376.335000
  20
130.517600
  0
VERTEX
  8
C7
  10
376.699600
  20
131.427400
  0
VERTEX
  8
C7
  10
377.022800
  20
132.372900
  0
VERTEX
  8
C7
  10
377.311900
  20
133.343800
  0
VERTEX
  8
C7
  10
377.574200
  20
134.330000
  0
VERTEX
  8
C7
  10
377.817100
  20
135.321300
  0
VERTEX
  8
C7
  10
378.048100
  20
136.307700
  0
VERTEX
  8
C7
  10
378.274500
  20
137.278900
  0
VERTEX
  8
C7
  10
378.503700
  20
138.224800
  0
VERTEX
  8
C7
  10
378.743000
  20
139.135200
  0
VERTEX
  8
C7
  10
379.000000
  20
140.000000
  0
VERTEX
  8
C7
  10
376.000000
  20
140.000000
  0
SEQEND
  8
C7
  0
POLYLINE
  8
C7
  66
1
  10
380.000000
  20
134.000000
  0
VERTEX
  8
C7
  10
380.000000
  20
134.000000
  0
VERTEX
  8
C7
  10
383.000000
  20
135.000000
  0
VERTEX
  8
C7
  10
383.000000
  20
126.000000
  0
VERTEX
  8
C7
  10
386.000000
  20
126.000000
  0
VERTEX
  8
C7
  10
386.000000
  20
140.000000
  0
VERTEX
  8
C7
  10
380.000000
  20
134.000000
  0
SEQEND
  8
C7
  0
POLYLINE
  8
C7
  66
1
  10
396.000000
  20
135.000000
  0
VERTEX
  8
C7
  10
396.000000
  20
135.000000
  0
VERTEX
  8
C7
  10
396.445300
  20
135.867400
  0
VERTEX
  8
C7
  10
396.680700
  20
136.688900
  0
VERTEX
  8
C7
  10
396.723400
  20
137.448800
  0
VERTEX
  8
C7
  10
396.590900
  20
138.131700
  0
VERTEX
  8
C7
  10
396.300600
  20
138.722200
  0
VERTEX
  8
C7
  10
395.870100
  20
139.204700
  0
VERTEX
  8
C7
  10
395.316700
  20
139.563900
  0
VERTEX
  8
C7
  10
394.657900
  20
139.784200
  0
VERTEX
  8
C7
  10
393.911100
  20
139.850100
  0
VERTEX
  8
C7
  10
393.093700
  20
139.746300
  0
VERTEX
  8
C7
  10
392.223200
  20
139.457200
  0
VERTEX
  8
C7
  10
391.317100
  20
138.967500
  0
VERTEX
  8
C7
  10
390.697400
  20
138.546800
  0
VERTEX
  8
C7
  10
390.136700
  20
138.127700
  0
VERTEX
  8
C7
  10
389.633300
  20
137.710600
  0
VERTEX
  8
C7
  10
389.185300
  20
137.295800
  0
VERTEX
  8
C7
  10
388.791200
  20
136.884000
  0
VERTEX
  8
C7
  10
388.449000
  20
136.475400
  0
VERTEX
  8
C7
  10
388.157000
  20
136.070500
  0
VERTEX
  8
C7
  10
387.913500
  20
135.669800
  0
VERTEX
  8
C7
  10
387.716700
  20
135.273600
  0
VERTEX
  8
C7
  10
387.564900
  20
134.882500
  0
VERTEX
  8
C7
  10
387.456200
  20
134.496900
  0
VERTEX
  8
C7
  10
387.389000
  20
134.117100
  0
VERTEX
  8
C7
  10
387.361400
  20
133.743600
  0
VERTEX
  8
C7
  10
387.371700
  20
133.376900
  0
VERTEX
  8
C7
  10
387.418200
  20
133.017400
  0
VERTEX
  8
C7
  10
387.499100
  20
132.665500
  0
VERTEX
  8
C7
  10
387.612500
  20
132.321700
  0
VERTEX
  8
C7
  10
387.756900
  20
131.986300
  0
VERTEX
  8
C7
  10
387.930400
  20
131.659900
  0
VERTEX
  8
C7
  10
388.131200
  20
131.342800
  0
VERTEX
  8
C7
  10
388.357600
  20
131.035600
  0
VERTEX
  8
C7
  10
388.607800
  20
130.738500
  0
VERTEX
  8
C7
  10
388.880100
  20
130.452200
  0
VERTEX
  8
C7
  10
389.172700
  20
130.176900
  0
VERTEX
  8
C7
  10
389.483900
  20
129.913200
  0
VERTEX
  8
C7
  10
389.811900
  20
129.661400
  0
VERTEX
  8
C7
  10
390.154800
  20
129.422000
  0
VERTEX
  8
C7
  10
390.511100
  20
129.195500
  0
VERTEX
  8
C7
  10
390.878900
  20
128.982200
  0
VERTEX
  8
C7
  10
391.256400
  20
128.782600
  0
VERTEX
  8
C7
  10
391.641900
  20
128.597200
  0
VERTEX
  8
C7
  10
392.033700
  20
128.426300
  0
VERTEX
  8
C7
  10
392.429900
  20
128.270500
  0
VERTEX
  8
C7
  10
392.828800
  20
128.130100
  0
VERTEX
  8
C7
  10
393.228700
  20
128.005500
  0
VERTEX
  8
C7
  10
393.627800
  20
127.897300
  0
VERTEX
  8
C7
  10
394.024300
  20
127.805800
  0
VERTEX
  8
C7
  10
394.416500
  20
127.731500
  0
VERTEX
  8
C7
  10
394.802600
  20
127.674800
  0
VERTEX
  8
C7
  10
395.180900
  20
127.636100
  0
VERTEX
  8
C7
  10
395.549600
  20
127.615900
  0
VERTEX
  8
C7
  10
395.906900
  20
127.614700
  0
VERTEX
  8
C7
  10
396.251100
  20
127.632700
  0
VERTEX
  8
C7
  10
396.580400
  20
127.670600
  0
VERTEX
  8
C7
  10
396.893000
  20
127.728700
  0
VERTEX
  8
C7
  10
397.187300
  20
127.807400
  0
VERTEX
  8
C7
  10
397.461400
  20
127.907200
  0
VERTEX
  8
C7
  10
397.713600
  20
128.028600
  0
VERTEX
  8
C7
  10
397.942100
  20
128.171800
  0
VERTEX
  8
C7
  10
398.145100
  20
128.337500
  0
VERTEX
  8
C7
  10
398.321000
  20
128.526000
  0
VERTEX
  8
C7
  10
398.467900
  20
128.737800
  0
VERTEX
  8
C7
  10
398.584100
  20
128.973200
  0
VERTEX
  8
C7
  10
398.667800
  20
129.232800
  0
VERTEX
  8
C7
  10
398.717300
  20
129.516900
  0
VERTEX
  8
C7
  10
398.730800
  20
129.826000
  0
VERTEX
  8
C7
  10
398.706500
  20
130.160500
  0
VERTEX
  8
C7
  10
398.642700
  20
130.520900
  0
VERTEX
  8
C7
  10
398.537600
  20
130.907600
  0
VERTEX
  8
C7
  10
398.389500
  20
131.321100
  0
VERTEX
  8
C7
  10
398.196600
  20
131.761700
  0
VERTEX
  8
C7
  10
397.957100
  20
132.229800
  0
VERTEX
  8
C7
  10
397.669400
  20
132.726100
  0
VERTEX
  8
C7
  10
397.331500
  20
133.250700
  0
VERTEX
  8
C7
  10
396.941800
  20
133.804300
  0
VERTEX
  8
C7
  10
396.498600
  20
134.387300
  0
VERTEX
  8
C7
  10
396.000000
  20
135.000000
  0
SEQEND
  8
C7
  0
POLYLINE
  8
C7
  66
1
  10
399.000000
  20
140.000000
  0
VERTEX
  8
C7
  10
399.000000
  20
140.000000
  0
VERTEX
  8
C7
  10
399.000000
  20
135.000000
  0
VERTEX
  8
C7
  10
405.000000
  20
135.000000
  0
VERTEX
  8
C7
  10
405.000000
  20
140.000000
  0
VERTEX
  8
C7
  10
399.000000
  20
140.000000
  0
SEQEND
  8
C7
  0
POLYLINE
  8
C7
  66
1
  10
411.000000
  20
129.000000
  0
VERTEX
  8
C7
  10
411.000000
  20
129.000000
  0
VERTEX
  8
C7
  10
417.000000
  20
126.000000
  0
VERTEX
  8
C7
  10
420.000000
  20
126.000000
  0
VERTEX
  8
C7
  10
420.000000
  20
129.000000
  0
VERTEX
  8
C7
  10
420.819400
  20
128.607100
  0
VERTEX
  8
C7
  10
421.658400
  20
128.171800
  0
VERTEX
  8
C7
  10
422.515000
  20
127.723000
  0
VERTEX
  8
C7
  10
423.387500
  20
127.289500
  0
VERTEX
  8
C7
  10
424.274100
  20
126.900000
  0
VERTEX
  8
C7
  10
425.173000
  20
126.583500
  0
VERTEX
  8
C7
  10
426.082400
  20
126.368600
  0
VERTEX
  8
C7
  10
427.000500
  20
126.284300
  0
VERTEX
  8
C7
  10
427.925500
  20
126.359400
  0
VERTEX
  8
C7
  10
428.855700
  20
126.622600
  0
VERTEX
  8
C7
  10
429.798700
  20
127.066000
  0
VERTEX
  8
C7
  10
430.550700
  20
127.569400
  0
VERTEX
  8
C7
  10
431.123100
  20
128.123100
  0
VERTEX
  8
C7
  10
431.527500
  20
128.717600
  0
VERTEX
  8
C7
  10
431.775300
  20
129.343500
  0
VERTEX
  8
C7
  10
431.878100
  20
129.991200
  0
VERTEX
  8
C7
  10
431.847400
  20
130.651200
  0
VERTEX
  8
C7
  10
431.694900
  20
131.314000
  0
VERTEX
  8
C7
  10
431.431900
  20
131.970000
  0
VERTEX
  8
C7
  10
431.070100
  20
132.609800
  0
VERTEX
  8
C7
  10
430.620900
  20
133.223700
  0
VERTEX
  8
C7
  10
430.095900
  20
133.802400
  0
VERTEX
  8
C7
  10
429.506700
  20
134.336200
  0
VERTEX
  8
C7
  10
428.864700
  20
134.815700
  0
VERTEX
  8
C7
  10
428.181500
  20
135.231400
  0
VERTEX
  8
C7
  10
427.468600
  20
135.573600
  0
VERTEX
  8
C7
  10
426.737600
  20
135.833000
  0
VERTEX
  8
C7
  10
426.000000
  20
136.000000
  0
VERTEX
  8
C7
  10
426.000000
  20
138.000000
  0
VERTEX
  8
C7
  10
432.000000
  20
138.000000
  0
VERTEX
  8
C7
  10
432.000000
  20
140.000000
  0
VERTEX
  8
C7
  10
430.748300
  20
139.979200
  0
VERTEX
  8
C7
  10
429.606000
  20
139.920700
  0
VERTEX
  8
C7
  10
428.569300
  20
139.816200
  0
VERTEX
  8
C7
  10
427.634500
  20
139.657700
  0
VERTEX
  8
C7
  10
426.797800
  20
139.436800
  0
VERTEX
  8
C7
  10
426.055400
  20
139.145500
  0
VERTEX
  8
C7
  10
425.403600
  20
138.775400
  0
VERTEX
  8
C7
  10
424.838600
  20
138.318500
  0
VERTEX
  8
C7
  10
424.356700
  20
137.766600
  0
VERTEX
  8
C7
  10
423.954200
  20
137.111400
  0
VERTEX
  8
C7
  10
423.627200
  20
136.344700
  0
VERTEX
  8
C7
  10
423.372100
  20
135.458400
  0
VERTEX
  8
C7
  10
423.185000
  20
134.444300
  0
VERTEX
  8
C7
  10
423.062200
  20
133.294200
  0
VERTEX
  8
C7
  10
423.000000
  20
132.000000
  0
VERTEX
  8
C7
  10
429.000000
  20
133.000000
  0
VERTEX
  8
C7
  10
428.000000
  20
128.000000
  0
VERTEX
  8
C7
  10
426.000000
  20
128.000000
  0
VERTEX
  8
C7
  10
425.000000
  20
131.000000
  0
VERTEX
  8
C7
  10
422.000000
  20
130.000000
  0
VERTEX
  8
C7
  10
420.000000
  20
140.000000
  0
VERTEX
  8
C7
  10
419.017900
  20
139.652400
  0
VERTEX
  8
C7
  10
418.096100
  20
139.231700
  0
VERTEX
  8
C7
  10
417.233400
  20
138.742000
  0
VERTEX
  8
C7
  10
416.428400
  20
138.187400
  0
VERTEX
  8
C7
  10
415.679800
  20
137.572200
  0
VERTEX
  8
C7
  10
414.986100
  20
136.900400
  0
VERTEX
  8
C7
  10
414.346200
  20
136.176300
  0
VERTEX
  8
C7
  10
413.758600
  20
135.404100
  0
VERTEX
  8
C7
  10
413.222100
  20
134.587800
  0
VERTEX
  8
C7
  10
412.735300
  20
133.731700
  0
VERTEX
  8
C7
  10
412.296800
  20
132.840000
  0
VERTEX
  8
C7
  10
411.905400
  20
131.916800
  0
VERTEX
  8
C7
  10
411.559600
  20
130.966300
  0
VERTEX
  8
C7
  10
411.258300
  20
129.992600
  0
VERTEX
  8
C7
  10
411.000000
  20
129.000000
  0
SEQEND
  8
C7
  0
POLYLINE
  8
C7
  66
1
  10
435.314026
  20
138.967590
  0
VERTEX
  8
C7
  10
435.314026
  20
138.967590
  0
VERTEX
  8
C7
  10
434.811900
  20
138.577000
  0
VERTEX
  8
C7
  10
434.371200
  20
138.109200
  0
VERTEX
  8
C7
  10
433.990800
  20
137.573000
  0
VERTEX
  8
C7
  10
433.669900
  20
136.977400
  0
VERTEX
  8
C7
  10
433.407300
  20
136.331400
  0
VERTEX
  8
C7
  10
433.202300
  20
135.643900
  0
VERTEX
  8
C7
  10
433.053900
  20
134.924100
  0
VERTEX
  8
C7
  10
432.961100
  20
134.180800
  0
VERTEX
  8
C7
  10
432.922900
  20
133.423100
  0
VERTEX
  8
C7
  10
432.938500
  20
132.660000
  0
VERTEX
  8
C7
  10
433.006900
  20
131.900400
  0
VERTEX
  8
C7
  10
433.127100
  20
131.153400
  0
VERTEX
  8
C7
  10
433.298100
  20
130.427800
  0
VERTEX
  8
C7
  10
433.519200
  20
129.732800
  0
VERTEX
  8
C7
  10
433.789200
  20
129.077400
  0
VERTEX
  8
C7
  10
434.107200
  20
128.470400
  0
VERTEX
  8
C7
  10
434.472400
  20
127.920900
  0
VERTEX
  8
C7
  10
434.883700
  20
127.438000
  0
VERTEX
  8
C7
  10
435.340200
  20
127.030500
  0
VERTEX
  8
C7
  10
435.841000
  20
126.707500
  0
VERTEX
  8
C7
  10
436.385100
  20
126.477900
  0
VERTEX
  8
C7
  10
436.971500
  20
126.350800
  0
VERTEX
  8
C7
  10
437.599400
  20
126.335200
  0
VERTEX
  8
C7
  10
438.267800
  20
126.440000
  0
VERTEX
  8
C7
  10
438.975700
  20
126.674300
  0
VERTEX
  8
C7
  10
439.722200
  20
127.047000
  0
VERTEX
  8
C7
  10
440.305300
  20
127.446000
  0
VERTEX
  8
C7
  10
440.817100
  20
127.917400
  0
VERTEX
  8
C7
  10
441.259000
  20
128.452900
  0
VERTEX
  8
C7
  10
441.632900
  20
129.044300
  0
VERTEX
  8
C7
  10
441.940400
  20
129.683200
  0
VERTEX
  8
C7
  10
442.183100
  20
130.361200
  0
VERTEX
  8
C7
  10
442.362900
  20
131.070300
  0
VERTEX
  8
C7
  10
442.481200
  20
131.801900
  0
VERTEX
  8
C7
  10
442.540000
  20
132.547900
  0
VERTEX
  8
C7
  10
442.540700
  20
133.299900
  0
VERTEX
  8
C7
  10
442.485100
  20
134.049700
  0
VERTEX
  8
C7
  10
442.374900
  20
134.788800
  0
VERTEX
  8
C7
  10
442.211800
  20
135.509200
  0
VERTEX
  8
C7
  10
441.997500
  20
136.202400
  0
VERTEX
  8
C7
  10
441.733500
  20
136.860100
  0
VERTEX
  8
C7
  10
441.421800
  20
137.474100
  0
VERTEX
  8
C7
  10
441.063800
  20
138.036000
  0
VERTEX
  8
C7
  10
440.661300
  20
138.537600
  0
VERTEX
  8
C7
  10
440.216000
  20
138.970500
  0
VERTEX
  8
C7
  10
439.729500
  20
139.326500
  0
VERTEX
  8
C7
  10
439.203600
  20
139.597300
  0
VERTEX
  8
C7
  10
438.639900
  20
139.774600
  0
VERTEX
  8
C7
  10
438.040200
  20
139.850000
  0
VERTEX
  8
C7
  10
437.406000
  20
139.815300
  0
VERTEX
  8
C7
  10
436.739100
  20
139.662200
  0
VERTEX
  8
C7
  10
436.041200
  20
139.382300
  0
VERTEX
  8
C7
  10
435.314000
  20
138.967500
  0
SEQEND
  8
C7
  0
POLYLINE
  8
C7
  66
1
  10
392.000000
  20
135.000000
  0
VERTEX
  8
C7
  10
392.000000
  20
135.000000
  0
VERTEX
  8
C7
  10
396.000000
  20
137.000000
  0
VERTEX
  8
C7
  10
392.000000
  20
135.000000
  0
SEQEND
  8
C7
  0
POLYLINE
  8
C7
  66
1
  10
437.000000
  20
138.000000
  0
VERTEX
  8
C7
  10
437.000000
  20
138.000000
  0
VERTEX
  8
C7
  10
437.000000
  20
128.000000
  0
VERTEX
  8
C7
  10
437.779900
  20
128.836200
  0
VERTEX
  8
C7
  10
438.406000
  20
129.662900
  0
VERTEX
  8
C7
  10
438.889500
  20
130.488200
  0
VERTEX
  8
C7
  10
439.242000
  20
131.319900
  0
VERTEX
  8
C7
  10
439.474900
  20
132.166300
  0
VERTEX
  8
C7
  10
439.599600
  20
133.035200
  0
VERTEX
  8
C7
  10
439.627500
  20
133.934700
  0
VERTEX
  8
C7
  10
439.570000
  20
134.873000
  0
VERTEX
  8
C7
  10
439.438700
  20
135.857900
  0
VERTEX
  8
C7
  10
439.244800
  20
136.897500
  0
VERTEX
  8
C7
  10
439.000000
  20
138.000000
  0
VERTEX
  8
C7
  10
437.000000
  20
138.000000
  0
SEQEND
  8
C7
  0
POLYLINE
  8
C7
  66
1
  10
444.000000
  20
137.000000
  0
VERTEX
  8
C7
  10
444.000000
  20
137.000000
  0
VERTEX
  8
C7
  10
444.000000
  20
126.000000
  0
VERTEX
  8
C7
  10
446.000000
  20
126.000000
  0
VERTEX
  8
C7
  10
447.000000
  20
134.000000
  0
VERTEX
  8
C7
  10
449.000000
  20
134.000000
  0
VERTEX
  8
C7
  10
450.000000
  20
126.000000
  0
VERTEX
  8
C7
  10
452.000000
  20
126.000000
  0
VERTEX
  8
C7
  10
455.000000
  20
134.000000
  0
VERTEX
  8
C7
  10
455.000000
  20
126.000000
  0
VERTEX
  8
C7
  10
458.000000
  20
126.000000
  0
VERTEX
  8
C7
  10
457.977700
  20
127.293300
  0
VERTEX
  8
C7
  10
457.912800
  20
128.474500
  0
VERTEX
  8
C7
  10
457.804900
  20
129.548800
  0
VERTEX
  8
C7
  10
457.653800
  20
130.521700
  0
VERTEX
  8
C7
  10
457.459300
  20
131.398400
  0
VERTEX
  8
C7
  10
457.221000
  20
132.184400
  0
VERTEX
  8
C7
  10
456.938600
  20
132.885000
  0
VERTEX
  8
C7
  10
456.611800
  20
133.505600
  0
VERTEX
  8
C7
  10
456.240500
  20
134.051400
  0
VERTEX
  8
C7
  10
455.824200
  20
134.528000
  0
VERTEX
  8
C7
  10
455.362800
  20
134.940500
  0
VERTEX
  8
C7
  10
454.855900
  20
135.294500
  0
VERTEX
  8
C7
  10
454.303200
  20
135.595200
  0
VERTEX
  8
C7
  10
453.704500
  20
135.848000
  0
VERTEX
  8
C7
  10
453.059500
  20
136.058300
  0
VERTEX
  8
C7
  10
452.367900
  20
136.231400
  0
VERTEX
  8
C7
  10
451.629400
  20
136.372600
  0
VERTEX
  8
C7
  10
450.843800
  20
136.487400
  0
VERTEX
  8
C7
  10
450.010700
  20
136.581100
  0
VERTEX
  8
C7
  10
449.129800
  20
136.659000
  0
VERTEX
  8
C7
  10
448.201000
  20
136.726600
  0
VERTEX
  8
C7
  10
447.223900
  20
136.789100
  0
VERTEX
  8
C7
  10
446.198200
  20
136.851900
  0
VERTEX
  8
C7
  10
445.123600
  20
136.920400
  0
VERTEX
  8
C7
  10
444.000000
  20
137.000000
  0
SEQEND
  8
C7
  0
POLYLINE
  8
C7
  66
1
  10
459.000000
  20
137.000000
  0
VERTEX
  8
C7
  10
459.000000
  20
137.000000
  0
VERTEX
  8
C7
  10
459.000000
  20
126.000000
  0
VERTEX
  8
C7
  10
462.000000
  20
126.000000
  0
VERTEX
  8
C7
  10
465.000000
  20
134.000000
  0
VERTEX
  8
C7
  10
465.000000
  20
126.000000
  0
VERTEX
  8
C7
  10
468.000000
  20
126.000000
  0
VERTEX
  8
C7
  10
468.000000
  20
134.000000
  0
VERTEX
  8
C7
  10
471.000000
  20
134.000000
  0
VERTEX
  8
C7
  10
471.000000
  20
126.000000
  0
VERTEX
  8
C7
  10
473.000000
  20
126.000000
  0
VERTEX
  8
C7
  10
472.981800
  20
127.283000
  0
VERTEX
  8
C7
  10
472.927000
  20
128.461700
  0
VERTEX
  8
C7
  10
472.834400
  20
129.540500
  0
VERTEX
  8
C7
  10
472.702900
  20
130.523800
  0
VERTEX
  8
C7
  10
472.531300
  20
131.416100
  0
VERTEX
  8
C7
  10
472.318700
  20
132.221800
  0
VERTEX
  8
C7
  10
472.063800
  20
132.945300
  0
VERTEX
  8
C7
  10
471.765700
  20
133.591300
  0
VERTEX
  8
C7
  10
471.423100
  20
134.163900
  0
VERTEX
  8
C7
  10
471.035000
  20
134.667900
  0
VERTEX
  8
C7
  10
470.600200
  20
135.107400
  0
VERTEX
  8
C7
  10
470.117700
  20
135.487200
  0
VERTEX
  8
C7
  10
469.586400
  20
135.811500
  0
VERTEX
  8
C7
  10
469.005200
  20
136.084800
  0
VERTEX
  8
C7
  10
468.372900
  20
136.311600
  0
VERTEX
  8
C7
  10
467.688500
  20
136.496300
  0
VERTEX
  8
C7
  10
466.950800
  20
136.643400
  0
VERTEX
  8
C7
  10
466.158700
  20
136.757400
  0
VERTEX
  8
C7
  10
465.311200
  20
136.842600
  0
VERTEX
  8
C7
  10
464.407200
  20
136.903500
  0
VERTEX
  8
C7
  10
463.445500
  20
136.944700
  0
VERTEX
  8
C7
  10
462.425000
  20
136.970400
  0
VERTEX
  8
C7
  10
461.344700
  20
136.985200
  0
VERTEX
  8
C7
  10
460.203300
  20
136.993600
  0
VERTEX
  8
C7
  10
459.000000
  20
137.000000
  0
SEQEND
  8
C7
  0
POLYLINE
  8
C7
  66
1
  10
416.000000
  20
134.000000
  0
VERTEX
  8
C7
  10
416.000000
  20
134.000000
  0
VERTEX
  8
C7
  10
415.000000
  20
132.000000
  0
VERTEX
  8
C7
  10
417.000000
  20
132.000000
  0
VERTEX
  8
C7
  10
416.000000
  20
134.000000
  0
SEQEND
  8
C7
  0
POLYLINE
  8
C7
  66
1
  10
393.000000
  20
133.000000
  0
VERTEX
  8
C7
  10
393.000000
  20
133.000000
  0
VERTEX
  8
C7
  10
393.000000
  20
128.000000
  0
VERTEX
  8
C7
  10
395.000000
  20
128.000000
  0
VERTEX
  8
C7
  10
396.000000
  20
132.000000
  0
VERTEX
  8
C7
  10
395.000000
  20
133.000000
  0
VERTEX
  8
C7
  10
393.000000
  20
133.000000
  0
SEQEND
  8
C7
  0
POLYLINE
  8
C7
  66
1
  10
384.000000
  20
100.000000
  0
VERTEX
  8
C7
  10
384.000000
  20
100.000000
  0
VERTEX
  8
C7
  10
383.608600
  20
99.190600
  0
VERTEX
  8
C7
  10
383.234100
  20
98.353300
  0
VERTEX
  8
C7
  10
382.880200
  20
97.491700
  0
VERTEX
  8
C7
  10
382.550900
  20
96.609800
  0
VERTEX
  8
C7
  10
382.249800
  20
95.711200
  0
VERTEX
  8
C7
  10
381.980800
  20
94.799700
  0
VERTEX
  8
C7
  10
381.747700
  20
93.879200
  0
VERTEX
  8
C7
  10
381.554200
  20
92.953400
  0
VERTEX
  8
C7
  10
381.404300
  20
92.026000
  0
VERTEX
  8
C7
  10
381.301600
  20
91.100900
  0
VERTEX
  8
C7
  10
381.250000
  20
90.181800
  0
VERTEX
  8
C7
  10
381.253300
  20
89.272600
  0
VERTEX
  8
C7
  10
381.315300
  20
88.377000
  0
VERTEX
  8
C7
  10
381.439800
  20
87.498700
  0
VERTEX
  8
C7
  10
381.630600
  20
86.641600
  0
VERTEX
  8
C7
  10
381.891500
  20
85.809400
  0
VERTEX
  8
C7
  10
382.226300
  20
85.006000
  0
VERTEX
  8
C7
  10
382.638800
  20
84.235000
  0
VERTEX
  8
C7
  10
383.132800
  20
83.500300
  0
VERTEX
  8
C7
  10
383.712200
  20
82.805700
  0
VERTEX
  8
C7
  10
384.380600
  20
82.154900
  0
VERTEX
  8
C7
  10
385.141900
  20
81.551700
  0
VERTEX
  8
C7
  10
386.000000
  20
81.000000
  0
VERTEX
  8
C7
  10
386.000000
  20
100.000000
  0
VERTEX
  8
C7
  10
384.000000
  20
100.000000
  0
SEQEND
  8
C7
  0
POLYLINE
  8
C7
  66
1
  10
450.000000
  20
100.000000
  0
VERTEX
  8
C7
  10
450.000000
  20
100.000000
  0
VERTEX
  8
C7
  10
450.000000
  20
81.000000
  0
VERTEX
  8
C7
  10
450.833600
  20
81.564100
  0
VERTEX
  8
C7
  10
451.570300
  20
82.177100
  0
VERTEX
  8
C7
  10
452.214200
  20
82.835400
  0
VERTEX
  8
C7
  10
452.769500
  20
83.535400
  0
VERTEX
  8
C7
  10
453.240300
  20
84.273500
  0
VERTEX
  8
C7
  10
453.630700
  20
85.046100
  0
VERTEX
  8
C7
  10
453.944900
  20
85.849600
  0
VERTEX
  8
C7
  10
454.187100
  20
86.680600
  0
VERTEX
  8
C7
  10
454.361500
  20
87.535400
  0
VERTEX
  8
C7
  10
454.472100
  20
88.410400
  0
VERTEX
  8
C7
  10
454.523100
  20
89.302000
  0
VERTEX
  8
C7
  10
454.518700
  20
90.206800
  0
VERTEX
  8
C7
  10
454.463000
  20
91.121000
  0
VERTEX
  8
C7
  10
454.360200
  20
92.041200
  0
VERTEX
  8
C7
  10
454.214500
  20
92.963800
  0
VERTEX
  8
C7
  10
454.029900
  20
93.885100
  0
VERTEX
  8
C7
  10
453.810700
  20
94.801600
  0
VERTEX
  8
C7
  10
453.560900
  20
95.709800
  0
VERTEX
  8
C7
  10
453.284900
  20
96.606000
  0
VERTEX
  8
C7
  10
452.986600
  20
97.486700
  0
VERTEX
  8
C7
  10
452.670200
  20
98.348300
  0
VERTEX
  8
C7
  10
452.339900
  20
99.187300
  0
VERTEX
  8
C7
  10
452.000000
  20
100.000000
  0
VERTEX
  8
C7
  10
450.000000
  20
100.000000
  0
SEQEND
  8
C7
  0
POLYLINE
  8
C7
  66
1
  10
353.000000
  20
94.000000
  0
VERTEX
  8
C7
  10
353.000000
  20
94.000000
  0
VERTEX
  8
C7
  10
357.000000
  20
97.000000
  0
VERTEX
  8
C7
  10
359.000000
  20
97.000000
  0
VERTEX
  8
C7
  10
360.000000
  20
96.000000
  0
VERTEX
  8
C7
  10
353.000000
  20
85.000000
  0
VERTEX
  8
C7
  10
363.000000
  20
85.000000
  0
VERTEX
  8
C7
  10
363.000000
  20
88.000000
  0
VERTEX
  8
C7
  10
370.000000
  20
85.000000
  0
VERTEX
  8
C7
  10
371.000000
  20
99.000000
  0
VERTEX
  8
C7
  10
370.064000
  20
98.643000
  0
VERTEX
  8
C7
  10
369.190500
  20
98.212200
  0
VERTEX
  8
C7
  10
368.378300
  20
97.712200
  0
VERTEX
  8
C7
  10
367.626400
  20
97.147500
  0
VERTEX
  8
C7
  10
366.933500
  20
96.522900
  0
VERTEX
  8
C7
  10
366.298600
  20
95.843000
  0
VERTEX
  8
C7
  10
365.720400
  20
95.112500
  0
VERTEX
  8
C7
  10
365.197800
  20
94.335800
  0
VERTEX
  8
C7
  10
364.729600
  20
93.517800
  0
VERTEX
  8
C7
  10
364.314800
  20
92.663000
  0
VERTEX
  8
C7
  10
363.952100
  20
91.776100
  0
VERTEX
  8
C7
  10
363.640400
  20
90.861700
  0
VERTEX
  8
C7
  10
363.378600
  20
89.924500
  0
VERTEX
  8
C7
  10
363.165500
  20
88.969000
  0
VERTEX
  8
C7
  10
363.000000
  20
88.000000
  0
VERTEX
  8
C7
  10
358.000000
  20
88.000000
  0
VERTEX
  8
C7
  10
358.680900
  20
88.815500
  0
VERTEX
  8
C7
  10
359.264800
  20
89.610400
  0
VERTEX
  8
C7
  10
359.755700
  20
90.382800
  0
VERTEX
  8
C7
  10
360.158300
  20
91.130800
  0
VERTEX
  8
C7
  10
360.476800
  20
91.852500
  0
VERTEX
  8
C7
  10
360.715500
  20
92.546300
  0
VERTEX
  8
C7
  10
360.879000
  20
93.210200
  0
VERTEX
  8
C7
  10
360.971400
  20
93.842500
  0
VERTEX
  8
C7
  10
360.997300
  20
94.441200
  0
VERTEX
  8
C7
  10
360.960900
  20
95.004600
  0
VERTEX
  8
C7
  10
360.866700
  20
95.530800
  0
VERTEX
  8
C7
  10
360.719000
  20
96.018000
  0
VERTEX
  8
C7
  10
360.522100
  20
96.464400
  0
VERTEX
  8
C7
  10
360.280500
  20
96.868100
  0
VERTEX
  8
C7
  10
359.998600
  20
97.227300
  0
VERTEX
  8
C7
  10
359.680600
  20
97.540300
  0
VERTEX
  8
C7
  10
359.331000
  20
97.805000
  0
VERTEX
  8
C7
  10
358.954100
  20
98.019800
  0
VERTEX
  8
C7
  10
358.554300
  20
98.182800
  0
VERTEX
  8
C7
  10
358.136000
  20
98.292100
  0
VERTEX
  8
C7
  10
357.703600
  20
98.346000
  0
VERTEX
  8
C7
  10
357.261300
  20
98.342600
  0
VERTEX
  8
C7
  10
356.813600
  20
98.280000
  0
VERTEX
  8
C7
  10
356.364900
  20
98.156500
  0
VERTEX
  8
C7
  10
355.919500
  20
97.970200
  0
VERTEX
  8
C7
  10
355.481700
  20
97.719300
  0
VERTEX
  8
C7
  10
355.056100
  20
97.401900
  0
VERTEX
  8
C7
  10
354.646800
  20
97.016300
  0
VERTEX
  8
C7
  10
354.258400
  20
96.560600
  0
VERTEX
  8
C7
  10
353.895100
  20
96.032900
  0
VERTEX
  8
C7
  10
353.561300
  20
95.431400
  0
VERTEX
  8
C7
  10
353.261500
  20
94.754400
  0
VERTEX
  8
C7
  10
353.000000
  20
94.000000
  0
SEQEND
  8
C7
  0
POLYLINE
  8
C7
  66
1
  10
374.000000
  20
99.000000
  0
VERTEX
  8
C7
  10
374.000000
  20
99.000000
  0
VERTEX
  8
C7
  10
374.000000
  20
94.000000
  0
VERTEX
  8
C7
  10
380.000000
  20
94.000000
  0
VERTEX
  8
C7
  10
380.000000
  20
99.000000
  0
VERTEX
  8
C7
  10
374.000000
  20
99.000000
  0
SEQEND
  8
C7
  0
POLYLINE
  8
C7
  66
1
  10
394.000000
  20
94.000000
  0
VERTEX
  8
C7
  10
394.000000
  20
94.000000
  0
VERTEX
  8
C7
  10
394.445300
  20
94.867400
  0
VERTEX
  8
C7
  10
394.680600
  20
95.688900
  0
VERTEX
  8
C7
  10
394.723300
  20
96.448800
  0
VERTEX
  8
C7
  10
394.590800
  20
97.131700
  0
VERTEX
  8
C7
  10
394.300600
  20
97.722100
  0
VERTEX
  8
C7
  10
393.870100
  20
98.204700
  0
VERTEX
  8
C7
  10
393.316700
  20
98.563800
  0
VERTEX
  8
C7
  10
392.657800
  20
98.784200
  0
VERTEX
  8
C7
  10
391.911000
  20
98.850100
  0
VERTEX
  8
C7
  10
391.093700
  20
98.746400
  0
VERTEX
  8
C7
  10
390.223200
  20
98.457300
  0
VERTEX
  8
C7
  10
389.317100
  20
97.967600
  0
SEQEND
  8
C7
  0
POLYLINE
  8
C7
  66
1
  10
389.317100
  20
97.967500
  0
VERTEX
  8
C7
  10
389.317100
  20
97.967500
  0
VERTEX
  8
C7
  10
388.700600
  20
97.547800
  0
VERTEX
  8
C7
  10
388.144200
  20
97.128500
  0
VERTEX
  8
C7
  10
387.646100
  20
96.710000
  0
VERTEX
  8
C7
  10
387.204400
  20
96.292700
  0
VERTEX
  8
C7
  10
386.817300
  20
95.877300
  0
VERTEX
  8
C7
  10
386.483000
  20
95.464200
  0
VERTEX
  8
C7
  10
386.199500
  20
95.054100
  0
VERTEX
  8
C7
  10
385.965200
  20
94.647300
  0
VERTEX
  8
C7
  10
385.778100
  20
94.244400
  0
VERTEX
  8
C7
  10
385.636400
  20
93.845900
  0
VERTEX
  8
C7
  10
385.538200
  20
93.452400
  0
VERTEX
  8
C7
  10
385.481800
  20
93.064400
  0
VERTEX
  8
C7
  10
385.465300
  20
92.682400
  0
VERTEX
  8
C7
  10
385.486800
  20
92.306800
  0
VERTEX
  8
C7
  10
385.544600
  20
91.938400
  0
VERTEX
  8
C7
  10
385.636700
  20
91.577500
  0
VERTEX
  8
C7
  10
385.761300
  20
91.224600
  0
VERTEX
  8
C7
  10
385.916700
  20
90.880400
  0
VERTEX
  8
C7
  10
386.100900
  20
90.545300
  0
VERTEX
  8
C7
  10
386.312200
  20
90.219800
  0
VERTEX
  8
C7
  10
386.548700
  20
89.904500
  0
VERTEX
  8
C7
  10
386.808500
  20
89.599900
  0
VERTEX
  8
C7
  10
387.089800
  20
89.306500
  0
VERTEX
  8
C7
  10
387.390800
  20
89.024800
  0
VERTEX
  8
C7
  10
387.709600
  20
88.755300
  0
VERTEX
  8
C7
  10
388.044500
  20
88.498600
  0
VERTEX
  8
C7
  10
388.393500
  20
88.255200
  0
VERTEX
  8
C7
  10
388.754800
  20
88.025700
  0
VERTEX
  8
C7
  10
389.126700
  20
87.810400
  0
VERTEX
  8
C7
  10
389.507200
  20
87.610000
  0
VERTEX
  8
C7
  10
389.894500
  20
87.425000
  0
VERTEX
  8
C7
  10
390.286800
  20
87.255900
  0
VERTEX
  8
C7
  10
390.682200
  20
87.103200
  0
VERTEX
  8
C7
  10
391.078900
  20
86.967400
  0
VERTEX
  8
C7
  10
391.475100
  20
86.849000
  0
VERTEX
  8
C7
  10
391.868900
  20
86.748700
  0
VERTEX
  8
C7
  10
392.258600
  20
86.666800
  0
VERTEX
  8
C7
  10
392.642100
  20
86.604000
  0
VERTEX
  8
C7
  10
393.017800
  20
86.560700
  0
VERTEX
  8
C7
  10
393.383800
  20
86.537500
  0
VERTEX
  8
C7
  10
393.738200
  20
86.534800
  0
VERTEX
  8
C7
  10
394.079300
  20
86.553300
  0
VERTEX
  8
C7
  10
394.405100
  20
86.593400
  0
VERTEX
  8
C7
  10
394.713800
  20
86.655600
  0
VERTEX
  8
C7
  10
395.003600
  20
86.740500
  0
VERTEX
  8
C7
  10
395.272700
  20
86.848500
  0
VERTEX
  8
C7
  10
395.519200
  20
86.980300
  0
VERTEX
  8
C7
  10
395.741200
  20
87.136300
  0
VERTEX
  8
C7
  10
395.937100
  20
87.317100
  0
VERTEX
  8
C7
  10
396.104800
  20
87.523100
  0
VERTEX
  8
C7
  10
396.242600
  20
87.754900
  0
VERTEX
  8
C7
  10
396.348600
  20
88.013000
  0
VERTEX
  8
C7
  10
396.421000
  20
88.298000
  0
VERTEX
  8
C7
  10
396.458000
  20
88.610300
  0
VERTEX
  8
C7
  10
396.457700
  20
88.950500
  0
VERTEX
  8
C7
  10
396.418300
  20
89.319000
  0
VERTEX
  8
C7
  10
396.337900
  20
89.716500
  0
VERTEX
  8
C7
  10
396.214700
  20
90.143500
  0
VERTEX
  8
C7
  10
396.046900
  20
90.600300
  0
VERTEX
  8
C7
  10
395.832600
  20
91.087700
  0
VERTEX
  8
C7
  10
395.570100
  20
91.606100
  0
VERTEX
  8
C7
  10
395.257300
  20
92.156000
  0
VERTEX
  8
C7
  10
394.892600
  20
92.737900
  0
VERTEX
  8
C7
  10
394.474100
  20
93.352400
  0
VERTEX
  8
C7
  10
394.000000
  20
94.000000
  0
SEQEND
  8
C7
  0
POLYLINE
  8
C7
  66
1
  10
398.000000
  20
93.000000
  0
VERTEX
  8
C7
  10
398.000000
  20
93.000000
  0
VERTEX
  8
C7
  10
402.000000
  20
95.000000
  0
VERTEX
  8
C7
  10
402.000000
  20
85.000000
  0
VERTEX
  8
C7
  10
404.000000
  20
85.000000
  0
VERTEX
  8
C7
  10
404.000000
  20
99.000000
  0
VERTEX
  8
C7
  10
398.000000
  20
93.000000
  0
SEQEND
  8
C7
  0
POLYLINE
  8
C7
  66
1
  10
409.742279
  20
97.967598
  0
VERTEX
  8
C7
  10
409.742279
  20
97.967598
  0
VERTEX
  8
C7
  10
409.309200
  20
97.564500
  0
VERTEX
  8
C7
  10
408.931000
  20
97.081600
  0
VERTEX
  8
C7
  10
408.606800
  20
96.528000
  0
VERTEX
  8
C7
  10
408.336000
  20
95.913200
  0
VERTEX
  8
C7
  10
408.118100
  20
95.246800
  0
VERTEX
  8
C7
  10
407.952400
  20
94.538000
  0
VERTEX
  8
C7
  10
407.838400
  20
93.796500
  0
VERTEX
  8
C7
  10
407.775500
  20
93.031500
  0
VERTEX
  8
C7
  10
407.763000
  20
92.252600
  0
VERTEX
  8
C7
  10
407.800300
  20
91.469300
  0
VERTEX
  8
C7
  10
407.886900
  20
90.690800
  0
VERTEX
  8
C7
  10
408.022100
  20
89.926800
  0
VERTEX
  8
C7
  10
408.205300
  20
89.186700
  0
VERTEX
  8
C7
  10
408.436000
  20
88.479800
  0
VERTEX
  8
C7
  10
408.713600
  20
87.815600
  0
VERTEX
  8
C7
  10
409.037300
  20
87.203700
  0
VERTEX
  8
C7
  10
409.406700
  20
86.653300
  0
VERTEX
  8
C7
  10
409.821200
  20
86.174100
  0
VERTEX
  8
C7
  10
410.280100
  20
85.775400
  0
VERTEX
  8
C7
  10
410.782800
  20
85.466600
  0
VERTEX
  8
C7
  10
411.328700
  20
85.257300
  0
VERTEX
  8
C7
  10
411.917300
  20
85.156800
  0
VERTEX
  8
C7
  10
412.547900
  20
85.174600
  0
VERTEX
  8
C7
  10
413.219900
  20
85.320200
  0
VERTEX
  8
C7
  10
413.932800
  20
85.602900
  0
VERTEX
  8
C7
  10
414.685900
  20
86.032400
  0
VERTEX
  8
C7
  10
415.217400
  20
86.444200
  0
VERTEX
  8
C7
  10
415.676600
  20
86.929900
  0
VERTEX
  8
C7
  10
416.065500
  20
87.481000
  0
VERTEX
  8
C7
  10
416.386200
  20
88.088900
  0
VERTEX
  8
C7
  10
416.640700
  20
88.744900
  0
VERTEX
  8
C7
  10
416.831300
  20
89.440500
  0
VERTEX
  8
C7
  10
416.959900
  20
90.167000
  0
VERTEX
  8
C7
  10
417.028700
  20
90.915900
  0
VERTEX
  8
C7
  10
417.039800
  20
91.678600
  0
VERTEX
  8
C7
  10
416.995100
  20
92.446500
  0
VERTEX
  8
C7
  10
416.896900
  20
93.211000
  0
VERTEX
  8
C7
  10
416.747200
  20
93.963500
  0
VERTEX
  8
C7
  10
416.548000
  20
94.695400
  0
VERTEX
  8
C7
  10
416.301600
  20
95.398100
  0
VERTEX
  8
C7
  10
416.009900
  20
96.063000
  0
VERTEX
  8
C7
  10
415.675100
  20
96.681600
  0
VERTEX
  8
C7
  10
415.299300
  20
97.245200
  0
VERTEX
  8
C7
  10
414.884500
  20
97.745200
  0
VERTEX
  8
C7
  10
414.432700
  20
98.173100
  0
VERTEX
  8
C7
  10
413.946300
  20
98.520200
  0
VERTEX
  8
C7
  10
413.427100
  20
98.778100
  0
VERTEX
  8
C7
  10
412.877300
  20
98.937900
  0
VERTEX
  8
C7
  10
412.298900
  20
98.991300
  0
VERTEX
  8
C7
  10
411.694200
  20
98.929500
  0
VERTEX
  8
C7
  10
411.065100
  20
98.744000
  0
VERTEX
  8
C7
  10
410.413700
  20
98.426200
  0
VERTEX
  8
C7
  10
409.742200
  20
97.967600
  0
SEQEND
  8
C7
  0
POLYLINE
  8
C7
  66
1
  10
390.000000
  20
94.000000
  0
VERTEX
  8
C7
  10
390.000000
  20
94.000000
  0
VERTEX
  8
C7
  10
393.000000
  20
97.000000
  0
VERTEX
  8
C7
  10
390.000000
  20
94.000000
  0
SEQEND
  8
C7
  0
POLYLINE
  8
C7
  66
1
  10
412.000000
  20
97.000000
  0
VERTEX
  8
C7
  10
412.000000
  20
97.000000
  0
VERTEX
  8
C7
  10
411.463000
  20
95.896700
  0
VERTEX
  8
C7
  10
411.052700
  20
94.865500
  0
VERTEX
  8
C7
  10
410.766400
  20
93.887900
  0
VERTEX
  8
C7
  10
410.601200
  20
92.945500
  0
VERTEX
  8
C7
  10
410.554500
  20
92.019900
  0
VERTEX
  8
C7
  10
410.623400
  20
91.092700
  0
VERTEX
  8
C7
  10
410.805100
  20
90.145500
  0
VERTEX
  8
C7
  10
411.097000
  20
89.159900
  0
VERTEX
  8
C7
  10
411.496200
  20
88.117500
  0
VERTEX
  8
C7
  10
412.000000
  20
87.000000
  0
VERTEX
  8
C7
  10
413.000000
  20
87.000000
  0
VERTEX
  8
C7
  10
413.417800
  20
88.060600
  0
VERTEX
  8
C7
  10
413.763500
  20
89.065400
  0
VERTEX
  8
C7
  10
414.027100
  20
90.022900
  0
VERTEX
  8
C7
  10
414.198800
  20
90.941500
  0
VERTEX
  8
C7
  10
414.268800
  20
91.829900
  0
VERTEX
  8
C7
  10
414.227100
  20
92.696400
  0
VERTEX
  8
C7
  10
414.064000
  20
93.549600
  0
VERTEX
  8
C7
  10
413.769500
  20
94.398000
  0
VERTEX
  8
C7
  10
413.334000
  20
95.250200
  0
VERTEX
  8
C7
  10
412.747400
  20
96.114700
  0
VERTEX
  8
C7
  10
412.000000
  20
97.000000
  0
SEQEND
  8
C7
  0
POLYLINE
  8
C7
  66
1
  10
418.000000
  20
96.000000
  0
VERTEX
  8
C7
  10
418.000000
  20
96.000000
  0
VERTEX
  8
C7
  10
418.000000
  20
85.000000
  0
VERTEX
  8
C7
  10
421.000000
  20
85.000000
  0
VERTEX
  8
C7
  10
424.000000
  20
93.000000
  0
VERTEX
  8
C7
  10
424.000000
  20
85.000000
  0
VERTEX
  8
C7
  10
427.000000
  20
85.000000
  0
VERTEX
  8
C7
  10
427.000000
  20
93.000000
  0
VERTEX
  8
C7
  10
430.000000
  20
93.000000
  0
VERTEX
  8
C7
  10
430.000000
  20
85.000000
  0
VERTEX
  8
C7
  10
433.000000
  20
85.000000
  0
VERTEX
  8
C7
  10
432.973200
  20
86.275200
  0
VERTEX
  8
C7
  10
432.900900
  20
87.443300
  0
VERTEX
  8
C7
  10
432.783000
  20
88.509200
  0
VERTEX
  8
C7
  10
432.620000
  20
89.477700
  0
VERTEX
  8
C7
  10
432.411900
  20
90.353800
  0
VERTEX
  8
C7
  10
432.158900
  20
91.142200
  0
VERTEX
  8
C7
  10
431.861300
  20
91.847800
  0
VERTEX
  8
C7
  10
431.519300
  20
92.475500
  0
VERTEX
  8
C7
  10
431.133100
  20
93.030200
  0
VERTEX
  8
C7
  10
430.702900
  20
93.516800
  0
VERTEX
  8
C7
  10
430.228800
  20
93.940000
  0
VERTEX
  8
C7
  10
429.711200
  20
94.304800
  0
VERTEX
  8
C7
  10
429.150100
  20
94.615900
  0
VERTEX
  8
C7
  10
428.545800
  20
94.878400
  0
VERTEX
  8
C7
  10
427.898600
  20
95.097100
  0
VERTEX
  8
C7
  10
427.208500
  20
95.276700
  0
VERTEX
  8
C7
  10
426.475900
  20
95.422300
  0
VERTEX
  8
C7
  10
425.700900
  20
95.538600
  0
VERTEX
  8
C7
  10
424.883700
  20
95.630500
  0
VERTEX
  8
C7
  10
424.024600
  20
95.702900
  0
VERTEX
  8
C7
  10
423.123700
  20
95.760700
  0
VERTEX
  8
C7
  10
422.181300
  20
95.808600
  0
VERTEX
  8
C7
  10
421.197400
  20
95.851700
  0
VERTEX
  8
C7
  10
420.172500
  20
95.894700
  0
VERTEX
  8
C7
  10
419.106600
  20
95.942500
  0
VERTEX
  8
C7
  10
418.000000
  20
96.000000
  0
SEQEND
  8
C7
  0
POLYLINE
  8
C7
  66
1
  10
434.000000
  20
96.000000
  0
VERTEX
  8
C7
  10
434.000000
  20
96.000000
  0
VERTEX
  8
C7
  10
434.000000
  20
85.000000
  0
VERTEX
  8
C7
  10
437.000000
  20
85.000000
  0
VERTEX
  8
C7
  10
437.000000
  20
93.000000
  0
VERTEX
  8
C7
  10
440.000000
  20
93.000000
  0
VERTEX
  8
C7
  10
440.000000
  20
85.000000
  0
VERTEX
  8
C7
  10
442.000000
  20
85.000000
  0
VERTEX
  8
C7
  10
443.000000
  20
93.000000
  0
VERTEX
  8
C7
  10
445.000000
  20
93.000000
  0
VERTEX
  8
C7
  10
446.000000
  20
85.000000
  0
VERTEX
  8
C7
  10
448.000000
  20
85.000000
  0
VERTEX
  8
C7
  10
447.981800
  20
86.283000
  0
VERTEX
  8
C7
  10
447.927000
  20
87.461700
  0
VERTEX
  8
C7
  10
447.834400
  20
88.540500
  0
VERTEX
  8
C7
  10
447.702900
  20
89.523800
  0
VERTEX
  8
C7
  10
447.531300
  20
90.416100
  0
VERTEX
  8
C7
  10
447.318700
  20
91.221800
  0
VERTEX
  8
C7
  10
447.063800
  20
91.945300
  0
VERTEX
  8
C7
  10
446.765700
  20
92.591300
  0
VERTEX
  8
C7
  10
446.423100
  20
93.163900
  0
VERTEX
  8
C7
  10
446.035000
  20
93.667900
  0
VERTEX
  8
C7
  10
445.600200
  20
94.107400
  0
VERTEX
  8
C7
  10
445.117700
  20
94.487200
  0
VERTEX
  8
C7
  10
444.586400
  20
94.811500
  0
VERTEX
  8
C7
  10
444.005200
  20
95.084800
  0
VERTEX
  8
C7
  10
443.372900
  20
95.311600
  0
VERTEX
  8
C7
  10
442.688500
  20
95.496300
  0
VERTEX
  8
C7
  10
441.950800
  20
95.643400
  0
VERTEX
  8
C7
  10
441.158700
  20
95.757400
  0
VERTEX
  8
C7
  10
440.311200
  20
95.842600
  0
VERTEX
  8
C7
  10
439.407200
  20
95.903500
  0
VERTEX
  8
C7
  10
438.445500
  20
95.944700
  0
VERTEX
  8
C7
  10
437.425000
  20
95.970400
  0
VERTEX
  8
C7
  10
436.344700
  20
95.985200
  0
VERTEX
  8
C7
  10
435.203300
  20
95.993600
  0
VERTEX
  8
C7
  10
434.000000
  20
96.000000
  0
SEQEND
  8
C7
  0
POLYLINE
  8
C7
  66
1
  10
368.000000
  20
94.000000
  0
VERTEX
  8
C7
  10
368.000000
  20
94.000000
  0
VERTEX
  8
C7
  10
367.000000
  20
91.000000
  0
VERTEX
  8
C7
  10
368.000000
  20
94.000000
  0
SEQEND
  8
C7
  0
POLYLINE
  8
C7
  66
1
  10
390.000000
  20
92.000000
  0
VERTEX
  8
C7
  10
390.000000
  20
92.000000
  0
VERTEX
  8
C7
  10
391.000000
  20
87.000000
  0
VERTEX
  8
C7
  10
393.000000
  20
92.000000
  0
VERTEX
  8
C7
  10
390.000000
  20
92.000000
  0
SEQEND
  8
0
  0
ENDSEC
  0
EOF
