  0
SECTION
  2
HEADER
  9
$ACADVER
  1
AC1009
  9
$EXTMIN
  10
 0.000000
  20
 0.000000
  30
 0.000000
  9
$EXTMAX
  10
 792.000000
  20
 612.000000
  30
 0.000000
  0
ENDSEC
  0
SECTION
  2
TABLES
  0
TABLE
  2
LAYER
  70
     2048
  0
LAYER
  2
0
  70
    0
  62
     7
  6
CONTINUOUS
  0
LAYER
   2
C7
  70
     64
  62
7
  6
CONTINUOUS
  0
LAYER
   2
C18
  70
     64
  62
18
  6
CONTINUOUS
  0
ENDTAB
  0
ENDSEC
  0
SECTION
  2
ENTITIES
  0
POLYLINE
  8
C7
  66
1
  10
0.000000
  20
612.000000
  0
VERTEX
  8
C7
  10
0.000000
  20
612.000000
  0
SEQEND
  8
C7
  0
POLYLINE
  8
C7
  66
1
  10
0.000000
  20
612.000000
  0
VERTEX
  8
C7
  10
0.000000
  20
612.000000
  0
VERTEX
  8
C7
  10
0.000000
  20
0.000000
  0
VERTEX
  8
C7
  10
792.000000
  20
0.000000
  0
VERTEX
  8
C7
  10
792.000000
  20
612.000000
  0
VERTEX
  8
C7
  10
0.000000
  20
612.000000
  0
SEQEND
  8
C7
  0
POLYLINE
  8
C7
  66
1
  10
460.000000
  20
514.000000
  0
VERTEX
  8
C7
  10
460.000000
  20
514.000000
  0
VERTEX
  8
C7
  10
466.000000
  20
511.000000
  0
VERTEX
  8
C7
  10
469.000000
  20
511.000000
  0
VERTEX
  8
C7
  10
469.000000
  20
525.000000
  0
VERTEX
  8
C7
  10
468.035100
  20
524.654300
  0
VERTEX
  8
C7
  10
467.127800
  20
524.231800
  0
VERTEX
  8
C7
  10
466.276900
  20
523.737500
  0
VERTEX
  8
C7
  10
465.481000
  20
523.176300
  0
VERTEX
  8
C7
  10
464.738900
  20
522.553200
  0
VERTEX
  8
C7
  10
464.049300
  20
521.873000
  0
VERTEX
  8
C7
  10
463.411000
  20
521.140800
  0
VERTEX
  8
C7
  10
462.822800
  20
520.361400
  0
VERTEX
  8
C7
  10
462.283300
  20
519.539800
  0
VERTEX
  8
C7
  10
461.791300
  20
518.680900
  0
VERTEX
  8
C7
  10
461.345600
  20
517.789600
  0
VERTEX
  8
C7
  10
460.944800
  20
516.871000
  0
VERTEX
  8
C7
  10
460.587800
  20
515.929900
  0
VERTEX
  8
C7
  10
460.273300
  20
514.971200
  0
VERTEX
  8
C7
  10
460.000000
  20
514.000000
  0
SEQEND
  8
C7
  0
POLYLINE
  8
C7
  66
1
  10
471.000000
  20
525.000000
  0
VERTEX
  8
C7
  10
471.000000
  20
525.000000
  0
VERTEX
  8
C7
  10
471.000000
  20
519.000000
  0
VERTEX
  8
C7
  10
477.000000
  20
519.000000
  0
VERTEX
  8
C7
  10
477.000000
  20
525.000000
  0
VERTEX
  8
C7
  10
471.000000
  20
525.000000
  0
SEQEND
  8
C7
  0
POLYLINE
  8
C7
  66
1
  10
480.000000
  20
525.000000
  0
VERTEX
  8
C7
  10
480.000000
  20
525.000000
  0
VERTEX
  8
C7
  10
479.796000
  20
524.122300
  0
VERTEX
  8
C7
  10
479.586000
  20
523.231700
  0
VERTEX
  8
C7
  10
479.375700
  20
522.331100
  0
VERTEX
  8
C7
  10
479.170900
  20
521.423200
  0
VERTEX
  8
C7
  10
478.977300
  20
520.510800
  0
VERTEX
  8
C7
  10
478.800700
  20
519.596600
  0
VERTEX
  8
C7
  10
478.647000
  20
518.683500
  0
VERTEX
  8
C7
  10
478.521700
  20
517.774200
  0
VERTEX
  8
C7
  10
478.430800
  20
516.871500
  0
VERTEX
  8
C7
  10
478.380000
  20
515.978100
  0
VERTEX
  8
C7
  10
478.375100
  20
515.097000
  0
VERTEX
  8
C7
  10
478.421800
  20
514.230700
  0
VERTEX
  8
C7
  10
478.526000
  20
513.382100
  0
VERTEX
  8
C7
  10
478.693400
  20
512.554000
  0
VERTEX
  8
C7
  10
478.929700
  20
511.749200
  0
VERTEX
  8
C7
  10
479.240700
  20
510.970400
  0
VERTEX
  8
C7
  10
479.632300
  20
510.220400
  0
VERTEX
  8
C7
  10
480.110200
  20
509.502100
  0
VERTEX
  8
C7
  10
480.680100
  20
508.818000
  0
VERTEX
  8
C7
  10
481.347900
  20
508.171200
  0
VERTEX
  8
C7
  10
482.119200
  20
507.564200
  0
VERTEX
  8
C7
  10
483.000000
  20
507.000000
  0
VERTEX
  8
C7
  10
483.000000
  20
525.000000
  0
VERTEX
  8
C7
  10
480.000000
  20
525.000000
  0
SEQEND
  8
C7
  0
POLYLINE
  8
C7
  66
1
  10
485.000000
  20
519.000000
  0
VERTEX
  8
C7
  10
485.000000
  20
519.000000
  0
VERTEX
  8
C7
  10
488.000000
  20
520.000000
  0
VERTEX
  8
C7
  10
488.000000
  20
511.000000
  0
VERTEX
  8
C7
  10
491.000000
  20
511.000000
  0
VERTEX
  8
C7
  10
491.000000
  20
525.000000
  0
VERTEX
  8
C7
  10
485.000000
  20
519.000000
  0
SEQEND
  8
C7
  0
POLYLINE
  8
C7
  66
1
  10
496.314026
  20
523.952881
  0
VERTEX
  8
C7
  10
496.314026
  20
523.952881
  0
VERTEX
  8
C7
  10
495.822700
  20
523.588000
  0
VERTEX
  8
C7
  10
495.388100
  20
523.145200
  0
VERTEX
  8
C7
  10
495.009200
  20
522.633100
  0
VERTEX
  8
C7
  10
494.685500
  20
522.060200
  0
VERTEX
  8
C7
  10
494.416000
  20
521.435200
  0
VERTEX
  8
C7
  10
494.200100
  20
520.766800
  0
VERTEX
  8
C7
  10
494.037000
  20
520.063700
  0
VERTEX
  8
C7
  10
493.925800
  20
519.334500
  0
VERTEX
  8
C7
  10
493.866000
  20
518.587800
  0
VERTEX
  8
C7
  10
493.856600
  20
517.832300
  0
VERTEX
  8
C7
  10
493.897000
  20
517.076700
  0
VERTEX
  8
C7
  10
493.986300
  20
516.329600
  0
VERTEX
  8
C7
  10
494.123800
  20
515.599700
  0
VERTEX
  8
C7
  10
494.308800
  20
514.895600
  0
VERTEX
  8
C7
  10
494.540500
  20
514.226100
  0
VERTEX
  8
C7
  10
494.818200
  20
513.599600
  0
VERTEX
  8
C7
  10
495.141000
  20
513.025000
  0
VERTEX
  8
C7
  10
495.508200
  20
512.510800
  0
VERTEX
  8
C7
  10
495.919000
  20
512.065800
  0
VERTEX
  8
C7
  10
496.372800
  20
511.698500
  0
VERTEX
  8
C7
  10
496.868600
  20
511.417700
  0
VERTEX
  8
C7
  10
497.405900
  20
511.231900
  0
VERTEX
  8
C7
  10
497.983700
  20
511.149900
  0
VERTEX
  8
C7
  10
498.601400
  20
511.180300
  0
VERTEX
  8
C7
  10
499.258100
  20
511.331700
  0
VERTEX
  8
C7
  10
499.953200
  20
511.612800
  0
VERTEX
  8
C7
  10
500.685900
  20
512.032400
  0
VERTEX
  8
C7
  10
501.183700
  20
512.421100
  0
VERTEX
  8
C7
  10
501.618400
  20
512.888100
  0
VERTEX
  8
C7
  10
501.991400
  20
513.424200
  0
VERTEX
  8
C7
  10
502.303700
  20
514.020400
  0
VERTEX
  8
C7
  10
502.556700
  20
514.667500
  0
VERTEX
  8
C7
  10
502.751500
  20
515.356500
  0
VERTEX
  8
C7
  10
502.889400
  20
516.078300
  0
VERTEX
  8
C7
  10
502.971500
  20
516.823900
  0
VERTEX
  8
C7
  10
502.999200
  20
517.584100
  0
VERTEX
  8
C7
  10
502.973600
  20
518.349800
  0
VERTEX
  8
C7
  10
502.895900
  20
519.112100
  0
VERTEX
  8
C7
  10
502.767400
  20
519.861800
  0
VERTEX
  8
C7
  10
502.589200
  20
520.589800
  0
VERTEX
  8
C7
  10
502.362700
  20
521.287100
  0
VERTEX
  8
C7
  10
502.089000
  20
521.944600
  0
VERTEX
  8
C7
  10
501.769400
  20
522.553200
  0
VERTEX
  8
C7
  10
501.405000
  20
523.103800
  0
VERTEX
  8
C7
  10
500.997100
  20
523.587400
  0
VERTEX
  8
C7
  10
500.546900
  20
523.994800
  0
VERTEX
  8
C7
  10
500.055600
  20
524.317100
  0
VERTEX
  8
C7
  10
499.524500
  20
524.545000
  0
VERTEX
  8
C7
  10
498.954800
  20
524.669600
  0
VERTEX
  8
C7
  10
498.347600
  20
524.681800
  0
VERTEX
  8
C7
  10
497.704300
  20
524.572400
  0
VERTEX
  8
C7
  10
497.026000
  20
524.332500
  0
VERTEX
  8
C7
  10
496.314000
  20
523.952900
  0
SEQEND
  8
C7
  0
POLYLINE
  8
C7
  66
1
  10
505.000000
  20
519.000000
  0
VERTEX
  8
C7
  10
505.000000
  20
519.000000
  0
VERTEX
  8
C7
  10
508.000000
  20
520.000000
  0
VERTEX
  8
C7
  10
508.000000
  20
511.000000
  0
VERTEX
  8
C7
  10
511.000000
  20
511.000000
  0
VERTEX
  8
C7
  10
511.000000
  20
525.000000
  0
VERTEX
  8
C7
  10
505.000000
  20
519.000000
  0
SEQEND
  8
C7
  0
POLYLINE
  8
C7
  66
1
  10
522.000000
  20
520.000000
  0
VERTEX
  8
C7
  10
522.000000
  20
520.000000
  0
VERTEX
  8
C7
  10
522.000000
  20
521.000000
  0
VERTEX
  8
C7
  10
528.000000
  20
521.000000
  0
VERTEX
  8
C7
  10
527.750800
  20
521.669300
  0
VERTEX
  8
C7
  10
527.497500
  20
522.275800
  0
VERTEX
  8
C7
  10
527.240400
  20
522.821200
  0
VERTEX
  8
C7
  10
526.980200
  20
523.307300
  0
VERTEX
  8
C7
  10
526.717200
  20
523.735800
  0
VERTEX
  8
C7
  10
526.452000
  20
524.108500
  0
VERTEX
  8
C7
  10
526.185200
  20
524.427200
  0
VERTEX
  8
C7
  10
525.917100
  20
524.693700
  0
VERTEX
  8
C7
  10
525.648400
  20
524.909700
  0
VERTEX
  8
C7
  10
525.379400
  20
525.076900
  0
VERTEX
  8
C7
  10
525.110700
  20
525.197200
  0
VERTEX
  8
C7
  10
524.842900
  20
525.272400
  0
VERTEX
  8
C7
  10
524.576300
  20
525.304200
  0
VERTEX
  8
C7
  10
524.311500
  20
525.294300
  0
VERTEX
  8
C7
  10
524.049100
  20
525.244600
  0
VERTEX
  8
C7
  10
523.789400
  20
525.156800
  0
VERTEX
  8
C7
  10
523.533100
  20
525.032700
  0
VERTEX
  8
C7
  10
523.280500
  20
524.874000
  0
VERTEX
  8
C7
  10
523.032300
  20
524.682600
  0
VERTEX
  8
C7
  10
522.788800
  20
524.460200
  0
VERTEX
  8
C7
  10
522.550700
  20
524.208500
  0
VERTEX
  8
C7
  10
522.318400
  20
523.929400
  0
VERTEX
  8
C7
  10
522.092300
  20
523.624600
  0
VERTEX
  8
C7
  10
521.873100
  20
523.295900
  0
VERTEX
  8
C7
  10
521.661200
  20
522.945000
  0
VERTEX
  8
C7
  10
521.457100
  20
522.573800
  0
VERTEX
  8
C7
  10
521.261300
  20
522.183900
  0
VERTEX
  8
C7
  10
521.074300
  20
521.777300
  0
VERTEX
  8
C7
  10
520.896600
  20
521.355500
  0
VERTEX
  8
C7
  10
520.728800
  20
520.920500
  0
VERTEX
  8
C7
  10
520.571200
  20
520.473900
  0
VERTEX
  8
C7
  10
520.424400
  20
520.017600
  0
VERTEX
  8
C7
  10
520.289000
  20
519.553300
  0
VERTEX
  8
C7
  10
520.165400
  20
519.082800
  0
VERTEX
  8
C7
  10
520.054000
  20
518.607800
  0
VERTEX
  8
C7
  10
519.955500
  20
518.130200
  0
VERTEX
  8
C7
  10
519.870300
  20
517.651700
  0
VERTEX
  8
C7
  10
519.798900
  20
517.174000
  0
VERTEX
  8
C7
  10
519.741900
  20
516.699000
  0
VERTEX
  8
C7
  10
519.699600
  20
516.228400
  0
VERTEX
  8
C7
  10
519.672600
  20
515.764000
  0
VERTEX
  8
C7
  10
519.661500
  20
515.307500
  0
VERTEX
  8
C7
  10
519.666700
  20
514.860800
  0
VERTEX
  8
C7
  10
519.688700
  20
514.425600
  0
VERTEX
  8
C7
  10
519.728000
  20
514.003600
  0
VERTEX
  8
C7
  10
519.785100
  20
513.596700
  0
VERTEX
  8
C7
  10
519.860600
  20
513.206500
  0
VERTEX
  8
C7
  10
519.954800
  20
512.835000
  0
VERTEX
  8
C7
  10
520.068400
  20
512.483800
  0
VERTEX
  8
C7
  10
520.201800
  20
512.154700
  0
VERTEX
  8
C7
  10
520.355500
  20
511.849500
  0
VERTEX
  8
C7
  10
520.530100
  20
511.570000
  0
VERTEX
  8
C7
  10
520.725900
  20
511.317900
  0
VERTEX
  8
C7
  10
520.943600
  20
511.095000
  0
VERTEX
  8
C7
  10
521.183600
  20
510.903100
  0
VERTEX
  8
C7
  10
521.446400
  20
510.743900
  0
VERTEX
  8
C7
  10
521.732600
  20
510.619300
  0
VERTEX
  8
C7
  10
522.042500
  20
510.530900
  0
VERTEX
  8
C7
  10
522.376800
  20
510.480600
  0
VERTEX
  8
C7
  10
522.735900
  20
510.470100
  0
VERTEX
  8
C7
  10
523.120400
  20
510.501200
  0
VERTEX
  8
C7
  10
523.530600
  20
510.575600
  0
VERTEX
  8
C7
  10
523.967200
  20
510.695200
  0
VERTEX
  8
C7
  10
524.430600
  20
510.861800
  0
VERTEX
  8
C7
  10
524.921300
  20
511.077000
  0
VERTEX
  8
C7
  10
525.439900
  20
511.342600
  0
VERTEX
  8
C7
  10
525.986700
  20
511.660500
  0
VERTEX
  8
C7
  10
526.562500
  20
512.032400
  0
VERTEX
  8
C7
  10
527.397300
  20
512.680200
  0
VERTEX
  8
C7
  10
528.007900
  20
513.330700
  0
VERTEX
  8
C7
  10
528.411400
  20
513.979000
  0
VERTEX
  8
C7
  10
528.625100
  20
514.619900
  0
VERTEX
  8
C7
  10
528.666300
  20
515.248400
  0
VERTEX
  8
C7
  10
528.552300
  20
515.859600
  0
VERTEX
  8
C7
  10
528.300400
  20
516.448400
  0
VERTEX
  8
C7
  10
527.927900
  20
517.009700
  0
VERTEX
  8
C7
  10
527.452000
  20
517.538600
  0
VERTEX
  8
C7
  10
526.890100
  20
518.030100
  0
VERTEX
  8
C7
  10
526.259500
  20
518.479100
  0
VERTEX
  8
C7
  10
525.577300
  20
518.880600
  0
VERTEX
  8
C7
  10
524.861100
  20
519.229600
  0
VERTEX
  8
C7
  10
524.127900
  20
519.521000
  0
VERTEX
  8
C7
  10
523.395100
  20
519.749900
  0
VERTEX
  8
C7
  10
522.680000
  20
519.911200
  0
VERTEX
  8
C7
  10
522.000000
  20
520.000000
  0
SEQEND
  8
C7
  0
POLYLINE
  8
C7
  66
1
  10
560.000000
  20
525.000000
  0
VERTEX
  8
C7
  10
560.000000
  20
525.000000
  0
VERTEX
  8
C7
  10
560.000000
  20
507.000000
  0
VERTEX
  8
C7
  10
560.735000
  20
507.475000
  0
VERTEX
  8
C7
  10
561.408600
  20
508.011000
  0
VERTEX
  8
C7
  10
562.020900
  20
508.602900
  0
VERTEX
  8
C7
  10
562.571900
  20
509.245200
  0
VERTEX
  8
C7
  10
563.061600
  20
509.932600
  0
VERTEX
  8
C7
  10
563.490000
  20
510.659900
  0
VERTEX
  8
C7
  10
563.857100
  20
511.421800
  0
VERTEX
  8
C7
  10
564.163000
  20
512.212900
  0
VERTEX
  8
C7
  10
564.407600
  20
513.028000
  0
VERTEX
  8
C7
  10
564.590900
  20
513.861700
  0
VERTEX
  8
C7
  10
564.713000
  20
514.708700
  0
VERTEX
  8
C7
  10
564.773900
  20
515.563800
  0
VERTEX
  8
C7
  10
564.773500
  20
516.421700
  0
VERTEX
  8
C7
  10
564.712000
  20
517.277000
  0
VERTEX
  8
C7
  10
564.589300
  20
518.124400
  0
VERTEX
  8
C7
  10
564.405400
  20
518.958700
  0
VERTEX
  8
C7
  10
564.160400
  20
519.774500
  0
VERTEX
  8
C7
  10
563.854200
  20
520.566500
  0
VERTEX
  8
C7
  10
563.486900
  20
521.329500
  0
VERTEX
  8
C7
  10
563.058500
  20
522.058100
  0
VERTEX
  8
C7
  10
562.568900
  20
522.747000
  0
VERTEX
  8
C7
  10
562.018300
  20
523.390900
  0
VERTEX
  8
C7
  10
561.406600
  20
523.984600
  0
VERTEX
  8
C7
  10
560.733800
  20
524.522700
  0
VERTEX
  8
C7
  10
560.000000
  20
525.000000
  0
SEQEND
  8
C7
  0
POLYLINE
  8
C7
  66
1
  10
497.000000
  20
522.000000
  0
VERTEX
  8
C7
  10
497.000000
  20
522.000000
  0
VERTEX
  8
C7
  10
498.000000
  20
513.000000
  0
VERTEX
  8
C7
  10
499.000000
  20
513.000000
  0
VERTEX
  8
C7
  10
500.000000
  20
522.000000
  0
VERTEX
  8
C7
  10
497.000000
  20
522.000000
  0
SEQEND
  8
C7
  0
POLYLINE
  8
C7
  66
1
  10
248.000000
  20
521.000000
  0
VERTEX
  8
C7
  10
248.000000
  20
521.000000
  0
VERTEX
  8
C7
  10
247.670200
  20
520.344300
  0
VERTEX
  8
C7
  10
247.343600
  20
519.634500
  0
VERTEX
  8
C7
  10
247.024600
  20
518.876600
  0
VERTEX
  8
C7
  10
246.717600
  20
518.077000
  0
VERTEX
  8
C7
  10
246.427100
  20
517.242000
  0
VERTEX
  8
C7
  10
246.157700
  20
516.377900
  0
VERTEX
  8
C7
  10
245.913700
  20
515.490900
  0
VERTEX
  8
C7
  10
245.699700
  20
514.587300
  0
VERTEX
  8
C7
  10
245.520100
  20
513.673400
  0
VERTEX
  8
C7
  10
245.379400
  20
512.755500
  0
VERTEX
  8
C7
  10
245.282000
  20
511.839800
  0
VERTEX
  8
C7
  10
245.232600
  20
510.932700
  0
VERTEX
  8
C7
  10
245.235400
  20
510.040400
  0
VERTEX
  8
C7
  10
245.295000
  20
509.169200
  0
VERTEX
  8
C7
  10
245.416000
  20
508.325400
  0
VERTEX
  8
C7
  10
245.602600
  20
507.515300
  0
VERTEX
  8
C7
  10
245.859500
  20
506.745100
  0
VERTEX
  8
C7
  10
246.191100
  20
506.021200
  0
VERTEX
  8
C7
  10
246.601900
  20
505.349700
  0
VERTEX
  8
C7
  10
247.096300
  20
504.737100
  0
VERTEX
  8
C7
  10
247.678800
  20
504.189500
  0
VERTEX
  8
C7
  10
248.354000
  20
503.713200
  0
VERTEX
  8
C7
  10
249.126200
  20
503.314600
  0
VERTEX
  8
C7
  10
250.000000
  20
503.000000
  0
VERTEX
  8
C7
  10
250.000000
  20
521.000000
  0
VERTEX
  8
C7
  10
248.000000
  20
521.000000
  0
SEQEND
  8
C7
  0
POLYLINE
  8
C7
  66
1
  10
301.000000
  20
521.000000
  0
VERTEX
  8
C7
  10
301.000000
  20
521.000000
  0
VERTEX
  8
C7
  10
301.383000
  20
519.944300
  0
VERTEX
  8
C7
  10
301.730200
  20
518.923600
  0
VERTEX
  8
C7
  10
302.040500
  20
517.933800
  0
VERTEX
  8
C7
  10
302.312600
  20
516.970900
  0
VERTEX
  8
C7
  10
302.545400
  20
516.030900
  0
VERTEX
  8
C7
  10
302.737600
  20
515.109600
  0
VERTEX
  8
C7
  10
302.888000
  20
514.203000
  0
VERTEX
  8
C7
  10
302.995500
  20
513.307200
  0
VERTEX
  8
C7
  10
303.058900
  20
512.418000
  0
VERTEX
  8
C7
  10
303.076800
  20
511.531300
  0
VERTEX
  8
C7
  10
303.048300
  20
510.643200
  0
VERTEX
  8
C7
  10
302.971900
  20
509.749600
  0
VERTEX
  8
C7
  10
302.846700
  20
508.846400
  0
VERTEX
  8
C7
  10
302.671200
  20
507.929600
  0
VERTEX
  8
C7
  10
302.444500
  20
506.995200
  0
VERTEX
  8
C7
  10
302.165100
  20
506.039100
  0
VERTEX
  8
C7
  10
301.832100
  20
505.057200
  0
VERTEX
  8
C7
  10
301.444100
  20
504.045500
  0
VERTEX
  8
C7
  10
301.000000
  20
503.000000
  0
VERTEX
  8
C7
  10
301.774000
  20
503.299600
  0
VERTEX
  8
C7
  10
302.489800
  20
503.674800
  0
VERTEX
  8
C7
  10
303.147600
  20
504.119600
  0
VERTEX
  8
C7
  10
303.747400
  20
504.628400
  0
VERTEX
  8
C7
  10
304.289300
  20
505.195400
  0
VERTEX
  8
C7
  10
304.773400
  20
505.814700
  0
VERTEX
  8
C7
  10
305.199900
  20
506.480600
  0
VERTEX
  8
C7
  10
305.568700
  20
507.187300
  0
VERTEX
  8
C7
  10
305.880100
  20
507.929100
  0
VERTEX
  8
C7
  10
306.134100
  20
508.700200
  0
VERTEX
  8
C7
  10
306.330700
  20
509.494800
  0
VERTEX
  8
C7
  10
306.470200
  20
510.307000
  0
VERTEX
  8
C7
  10
306.552500
  20
511.131300
  0
VERTEX
  8
C7
  10
306.577900
  20
511.961700
  0
VERTEX
  8
C7
  10
306.546300
  20
512.792400
  0
VERTEX
  8
C7
  10
306.457900
  20
513.617800
  0
VERTEX
  8
C7
  10
306.312700
  20
514.432100
  0
VERTEX
  8
C7
  10
306.111000
  20
515.229400
  0
VERTEX
  8
C7
  10
305.852700
  20
516.004000
  0
VERTEX
  8
C7
  10
305.537900
  20
516.750000
  0
VERTEX
  8
C7
  10
305.166900
  20
517.461900
  0
VERTEX
  8
C7
  10
304.739600
  20
518.133600
  0
VERTEX
  8
C7
  10
304.256100
  20
518.759600
  0
VERTEX
  8
C7
  10
303.716600
  20
519.334000
  0
VERTEX
  8
C7
  10
303.121100
  20
519.851000
  0
VERTEX
  8
C7
  10
302.469800
  20
520.304800
  0
VERTEX
  8
C7
  10
301.762700
  20
520.689700
  0
VERTEX
  8
C7
  10
301.000000
  20
521.000000
  0
SEQEND
  8
C7
  0
POLYLINE
  8
C7
  66
1
  10
360.000000
  20
521.000000
  0
VERTEX
  8
C7
  10
360.000000
  20
521.000000
  0
VERTEX
  8
C7
  10
360.000000
  20
517.000000
  0
VERTEX
  8
C7
  10
347.000000
  20
519.000000
  0
VERTEX
  8
C7
  10
346.414100
  20
518.225800
  0
VERTEX
  8
C7
  10
345.756700
  20
517.585100
  0
VERTEX
  8
C7
  10
345.035000
  20
517.065900
  0
VERTEX
  8
C7
  10
344.256400
  20
516.656400
  0
VERTEX
  8
C7
  10
343.427900
  20
516.344800
  0
VERTEX
  8
C7
  10
342.556900
  20
516.119100
  0
VERTEX
  8
C7
  10
341.650700
  20
515.967600
  0
VERTEX
  8
C7
  10
340.716400
  20
515.878300
  0
VERTEX
  8
C7
  10
339.761300
  20
515.839400
  0
VERTEX
  8
C7
  10
338.792700
  20
515.839000
  0
VERTEX
  8
C7
  10
337.817700
  20
515.865300
  0
VERTEX
  8
C7
  10
336.843700
  20
515.906400
  0
VERTEX
  8
C7
  10
335.878000
  20
515.950500
  0
VERTEX
  8
C7
  10
334.927600
  20
515.985600
  0
VERTEX
  8
C7
  10
334.000000
  20
516.000000
  0
VERTEX
  8
C7
  10
334.000000
  20
515.000000
  0
VERTEX
  8
C7
  10
347.000000
  20
513.000000
  0
VERTEX
  8
C7
  10
360.000000
  20
515.000000
  0
VERTEX
  8
C7
  10
360.007100
  20
514.190700
  0
VERTEX
  8
C7
  10
360.027700
  20
513.349800
  0
VERTEX
  8
C7
  10
360.060500
  20
512.479300
  0
VERTEX
  8
C7
  10
360.104000
  20
511.581000
  0
VERTEX
  8
C7
  10
360.157100
  20
510.657000
  0
VERTEX
  8
C7
  10
360.218300
  20
509.709000
  0
VERTEX
  8
C7
  10
360.286400
  20
508.739100
  0
VERTEX
  8
C7
  10
360.360000
  20
507.749200
  0
VERTEX
  8
C7
  10
360.437800
  20
506.741200
  0
VERTEX
  8
C7
  10
360.518600
  20
505.717100
  0
VERTEX
  8
C7
  10
360.600900
  20
504.678700
  0
VERTEX
  8
C7
  10
360.683400
  20
503.628000
  0
VERTEX
  8
C7
  10
360.764900
  20
502.566900
  0
VERTEX
  8
C7
  10
360.844100
  20
501.497300
  0
VERTEX
  8
C7
  10
360.919500
  20
500.421300
  0
VERTEX
  8
C7
  10
360.989900
  20
499.340600
  0
VERTEX
  8
C7
  10
361.053900
  20
498.257300
  0
VERTEX
  8
C7
  10
361.110300
  20
497.173200
  0
VERTEX
  8
C7
  10
361.157800
  20
496.090300
  0
VERTEX
  8
C7
  10
361.194900
  20
495.010600
  0
VERTEX
  8
C7
  10
361.220400
  20
493.935900
  0
VERTEX
  8
C7
  10
361.233000
  20
492.868100
  0
VERTEX
  8
C7
  10
361.231300
  20
491.809300
  0
VERTEX
  8
C7
  10
361.214000
  20
490.761300
  0
VERTEX
  8
C7
  10
361.179900
  20
489.726000
  0
VERTEX
  8
C7
  10
361.127500
  20
488.705500
  0
VERTEX
  8
C7
  10
361.055600
  20
487.701500
  0
VERTEX
  8
C7
  10
360.962900
  20
486.716100
  0
VERTEX
  8
C7
  10
360.848000
  20
485.751200
  0
VERTEX
  8
C7
  10
360.709600
  20
484.808600
  0
VERTEX
  8
C7
  10
360.546400
  20
483.890400
  0
VERTEX
  8
C7
  10
360.357000
  20
482.998400
  0
VERTEX
  8
C7
  10
360.140200
  20
482.134700
  0
VERTEX
  8
C7
  10
359.894600
  20
481.301000
  0
VERTEX
  8
C7
  10
359.619000
  20
480.499400
  0
VERTEX
  8
C7
  10
359.311900
  20
479.731700
  0
VERTEX
  8
C7
  10
358.972200
  20
479.000000
  0
VERTEX
  8
C7
  10
358.532600
  20
478.165100
  0
VERTEX
  8
C7
  10
358.067100
  20
477.365600
  0
VERTEX
  8
C7
  10
357.576400
  20
476.600600
  0
VERTEX
  8
C7
  10
357.061100
  20
475.869500
  0
VERTEX
  8
C7
  10
356.521900
  20
475.171500
  0
VERTEX
  8
C7
  10
355.959300
  20
474.506000
  0
VERTEX
  8
C7
  10
355.374200
  20
473.872200
  0
VERTEX
  8
C7
  10
354.767200
  20
473.269300
  0
VERTEX
  8
C7
  10
354.138800
  20
472.696800
  0
VERTEX
  8
C7
  10
353.489900
  20
472.153900
  0
VERTEX
  8
C7
  10
352.821000
  20
471.639900
  0
VERTEX
  8
C7
  10
352.132800
  20
471.153900
  0
VERTEX
  8
C7
  10
351.425900
  20
470.695500
  0
VERTEX
  8
C7
  10
350.701100
  20
470.263800
  0
VERTEX
  8
C7
  10
349.959100
  20
469.858000
  0
VERTEX
  8
C7
  10
349.200400
  20
469.477600
  0
VERTEX
  8
C7
  10
348.425700
  20
469.121800
  0
VERTEX
  8
C7
  10
347.635700
  20
468.789800
  0
VERTEX
  8
C7
  10
346.831000
  20
468.481100
  0
VERTEX
  8
C7
  10
346.012400
  20
468.194700
  0
VERTEX
  8
C7
  10
345.180500
  20
467.930100
  0
VERTEX
  8
C7
  10
344.335900
  20
467.686600
  0
VERTEX
  8
C7
  10
343.479300
  20
467.463300
  0
VERTEX
  8
C7
  10
342.611400
  20
467.259600
  0
VERTEX
  8
C7
  10
341.732800
  20
467.074800
  0
VERTEX
  8
C7
  10
340.844300
  20
466.908200
  0
VERTEX
  8
C7
  10
339.946300
  20
466.759100
  0
VERTEX
  8
C7
  10
339.039800
  20
466.626700
  0
VERTEX
  8
C7
  10
338.125200
  20
466.510300
  0
VERTEX
  8
C7
  10
337.203200
  20
466.409200
  0
VERTEX
  8
C7
  10
336.274600
  20
466.322800
  0
VERTEX
  8
C7
  10
335.340000
  20
466.250200
  0
VERTEX
  8
C7
  10
334.400000
  20
466.190800
  0
VERTEX
  8
C7
  10
333.455300
  20
466.143900
  0
VERTEX
  8
C7
  10
332.506600
  20
466.108700
  0
VERTEX
  8
C7
  10
331.554500
  20
466.084600
  0
VERTEX
  8
C7
  10
330.599700
  20
466.070800
  0
VERTEX
  8
C7
  10
329.642900
  20
466.066600
  0
VERTEX
  8
C7
  10
328.684700
  20
466.071300
  0
VERTEX
  8
C7
  10
327.725700
  20
466.084200
  0
VERTEX
  8
C7
  10
326.766800
  20
466.104600
  0
VERTEX
  8
C7
  10
325.808400
  20
466.131700
  0
VERTEX
  8
C7
  10
324.851400
  20
466.164900
  0
VERTEX
  8
C7
  10
323.896200
  20
466.203400
  0
VERTEX
  8
C7
  10
322.943700
  20
466.246500
  0
VERTEX
  8
C7
  10
321.994400
  20
466.293600
  0
VERTEX
  8
C7
  10
321.049100
  20
466.343800
  0
VERTEX
  8
C7
  10
320.108400
  20
466.396500
  0
VERTEX
  8
C7
  10
319.172900
  20
466.451000
  0
VERTEX
  8
C7
  10
318.243400
  20
466.506500
  0
VERTEX
  8
C7
  10
317.320400
  20
466.562400
  0
VERTEX
  8
C7
  10
316.404700
  20
466.617900
  0
VERTEX
  8
C7
  10
315.496900
  20
466.672300
  0
VERTEX
  8
C7
  10
314.597600
  20
466.724900
  0
VERTEX
  8
C7
  10
313.707700
  20
466.775100
  0
VERTEX
  8
C7
  10
312.827600
  20
466.821900
  0
VERTEX
  8
C7
  10
311.958000
  20
466.864900
  0
VERTEX
  8
C7
  10
311.099800
  20
466.903200
  0
VERTEX
  8
C7
  10
310.253400
  20
466.936100
  0
VERTEX
  8
C7
  10
309.419500
  20
466.963000
  0
VERTEX
  8
C7
  10
308.598900
  20
466.983000
  0
VERTEX
  8
C7
  10
307.792100
  20
466.995600
  0
VERTEX
  8
C7
  10
307.000000
  20
467.000000
  0
VERTEX
  8
C7
  10
334.000000
  20
495.000000
  0
VERTEX
  8
C7
  10
333.244200
  20
494.452100
  0
VERTEX
  8
C7
  10
332.499200
  20
493.881800
  0
VERTEX
  8
C7
  10
331.764100
  20
493.290500
  0
VERTEX
  8
C7
  10
331.038400
  20
492.679300
  0
VERTEX
  8
C7
  10
330.321400
  20
492.049600
  0
VERTEX
  8
C7
  10
329.612600
  20
491.402800
  0
VERTEX
  8
C7
  10
328.911200
  20
490.740000
  0
VERTEX
  8
C7
  10
328.216700
  20
490.062600
  0
VERTEX
  8
C7
  10
327.528300
  20
489.371900
  0
VERTEX
  8
C7
  10
326.845600
  20
488.669200
  0
VERTEX
  8
C7
  10
326.167800
  20
487.955900
  0
VERTEX
  8
C7
  10
325.494300
  20
487.233100
  0
VERTEX
  8
C7
  10
324.824500
  20
486.502200
  0
VERTEX
  8
C7
  10
324.157700
  20
485.764500
  0
VERTEX
  8
C7
  10
323.493400
  20
485.021300
  0
VERTEX
  8
C7
  10
322.830900
  20
484.274000
  0
VERTEX
  8
C7
  10
322.169500
  20
483.523700
  0
VERTEX
  8
C7
  10
321.508600
  20
482.771800
  0
VERTEX
  8
C7
  10
320.847600
  20
482.019600
  0
VERTEX
  8
C7
  10
320.185900
  20
481.268400
  0
VERTEX
  8
C7
  10
319.522800
  20
480.519600
  0
VERTEX
  8
C7
  10
318.857700
  20
479.774300
  0
VERTEX
  8
C7
  10
318.190000
  20
479.033900
  0
VERTEX
  8
C7
  10
317.519000
  20
478.299700
  0
VERTEX
  8
C7
  10
316.844100
  20
477.573100
  0
VERTEX
  8
C7
  10
316.164700
  20
476.855200
  0
VERTEX
  8
C7
  10
315.480100
  20
476.147400
  0
VERTEX
  8
C7
  10
314.789700
  20
475.451100
  0
VERTEX
  8
C7
  10
314.092900
  20
474.767400
  0
VERTEX
  8
C7
  10
313.389100
  20
474.097800
  0
VERTEX
  8
C7
  10
312.677500
  20
473.443400
  0
VERTEX
  8
C7
  10
311.957600
  20
472.805700
  0
VERTEX
  8
C7
  10
311.228800
  20
472.185800
  0
VERTEX
  8
C7
  10
310.490400
  20
471.585200
  0
VERTEX
  8
C7
  10
309.741700
  20
471.005000
  0
VERTEX
  8
C7
  10
308.982200
  20
470.446700
  0
VERTEX
  8
C7
  10
308.211300
  20
469.911500
  0
VERTEX
  8
C7
  10
307.428200
  20
469.400700
  0
VERTEX
  8
C7
  10
306.632400
  20
468.915600
  0
VERTEX
  8
C7
  10
305.823200
  20
468.457500
  0
VERTEX
  8
C7
  10
305.000000
  20
468.027700
  0
VERTEX
  8
C7
  10
304.280000
  20
467.690700
  0
VERTEX
  8
C7
  10
303.527100
  20
467.382100
  0
VERTEX
  8
C7
  10
302.742800
  20
467.100900
  0
VERTEX
  8
C7
  10
301.928700
  20
466.846100
  0
VERTEX
  8
C7
  10
301.086100
  20
466.616700
  0
VERTEX
  8
C7
  10
300.216700
  20
466.411700
  0
VERTEX
  8
C7
  10
299.321900
  20
466.230200
  0
VERTEX
  8
C7
  10
298.403300
  20
466.071200
  0
VERTEX
  8
C7
  10
297.462400
  20
465.933600
  0
VERTEX
  8
C7
  10
296.500700
  20
465.816600
  0
VERTEX
  8
C7
  10
295.519700
  20
465.719000
  0
VERTEX
  8
C7
  10
294.520900
  20
465.640000
  0
VERTEX
  8
C7
  10
293.505900
  20
465.578500
  0
VERTEX
  8
C7
  10
292.476100
  20
465.533500
  0
VERTEX
  8
C7
  10
291.433000
  20
465.504100
  0
VERTEX
  8
C7
  10
290.378200
  20
465.489300
  0
VERTEX
  8
C7
  10
289.313300
  20
465.488100
  0
VERTEX
  8
C7
  10
288.239600
  20
465.499500
  0
VERTEX
  8
C7
  10
287.158800
  20
465.522600
  0
VERTEX
  8
C7
  10
286.072200
  20
465.556200
  0
VERTEX
  8
C7
  10
284.981600
  20
465.599500
  0
VERTEX
  8
C7
  10
283.888200
  20
465.651500
  0
VERTEX
  8
C7
  10
282.793800
  20
465.711200
  0
VERTEX
  8
C7
  10
281.699800
  20
465.777600
  0
VERTEX
  8
C7
  10
280.607600
  20
465.849600
  0
VERTEX
  8
C7
  10
279.518900
  20
465.926400
  0
VERTEX
  8
C7
  10
278.435100
  20
466.007000
  0
VERTEX
  8
C7
  10
277.357700
  20
466.090200
  0
VERTEX
  8
C7
  10
276.288300
  20
466.175300
  0
VERTEX
  8
C7
  10
275.228400
  20
466.261100
  0
VERTEX
  8
C7
  10
274.179400
  20
466.346800
  0
VERTEX
  8
C7
  10
273.143000
  20
466.431200
  0
VERTEX
  8
C7
  10
272.120500
  20
466.513500
  0
VERTEX
  8
C7
  10
271.113600
  20
466.592600
  0
VERTEX
  8
C7
  10
270.123800
  20
466.667600
  0
VERTEX
  8
C7
  10
269.152500
  20
466.737500
  0
VERTEX
  8
C7
  10
268.201200
  20
466.801200
  0
VERTEX
  8
C7
  10
267.271500
  20
466.857800
  0
VERTEX
  8
C7
  10
266.365000
  20
466.906400
  0
VERTEX
  8
C7
  10
265.483000
  20
466.945800
  0
VERTEX
  8
C7
  10
264.627200
  20
466.975200
  0
VERTEX
  8
C7
  10
263.799000
  20
466.993600
  0
VERTEX
  8
C7
  10
263.000000
  20
467.000000
  0
VERTEX
  8
C7
  10
290.000000
  20
495.000000
  0
VERTEX
  8
C7
  10
289.287700
  20
494.484600
  0
VERTEX
  8
C7
  10
288.583500
  20
493.948700
  0
VERTEX
  8
C7
  10
287.887000
  20
493.393500
  0
VERTEX
  8
C7
  10
287.197700
  20
492.820100
  0
VERTEX
  8
C7
  10
286.515000
  20
492.229800
  0
VERTEX
  8
C7
  10
285.838600
  20
491.623600
  0
VERTEX
  8
C7
  10
285.167800
  20
491.002800
  0
VERTEX
  8
C7
  10
284.502200
  20
490.368600
  0
VERTEX
  8
C7
  10
283.841300
  20
489.722100
  0
VERTEX
  8
C7
  10
283.184700
  20
489.064500
  0
VERTEX
  8
C7
  10
282.531800
  20
488.397000
  0
VERTEX
  8
C7
  10
281.882100
  20
487.720800
  0
VERTEX
  8
C7
  10
281.235200
  20
487.037000
  0
VERTEX
  8
C7
  10
280.590600
  20
486.346800
  0
VERTEX
  8
C7
  10
279.947700
  20
485.651400
  0
VERTEX
  8
C7
  10
279.306100
  20
484.952000
  0
VERTEX
  8
C7
  10
278.665300
  20
484.249700
  0
VERTEX
  8
C7
  10
278.024900
  20
483.545800
  0
VERTEX
  8
C7
  10
277.384200
  20
482.841300
  0
VERTEX
  8
C7
  10
276.742900
  20
482.137600
  0
VERTEX
  8
C7
  10
276.100400
  20
481.435700
  0
VERTEX
  8
C7
  10
275.456300
  20
480.736800
  0
VERTEX
  8
C7
  10
274.810000
  20
480.042100
  0
VERTEX
  8
C7
  10
274.161200
  20
479.352900
  0
VERTEX
  8
C7
  10
273.509100
  20
478.670200
  0
VERTEX
  8
C7
  10
272.853500
  20
477.995200
  0
VERTEX
  8
C7
  10
272.193800
  20
477.329200
  0
VERTEX
  8
C7
  10
271.529500
  20
476.673200
  0
VERTEX
  8
C7
  10
270.860100
  20
476.028500
  0
VERTEX
  8
C7
  10
270.185200
  20
475.396300
  0
VERTEX
  8
C7
  10
269.504200
  20
474.777700
  0
VERTEX
  8
C7
  10
268.816700
  20
474.174000
  0
VERTEX
  8
C7
  10
268.122100
  20
473.586200
  0
VERTEX
  8
C7
  10
267.420000
  20
473.015500
  0
VERTEX
  8
C7
  10
266.709900
  20
472.463300
  0
VERTEX
  8
C7
  10
265.991300
  20
471.930500
  0
VERTEX
  8
C7
  10
265.263700
  20
471.418400
  0
VERTEX
  8
C7
  10
264.526600
  20
470.928200
  0
VERTEX
  8
C7
  10
263.779600
  20
470.461000
  0
VERTEX
  8
C7
  10
263.022100
  20
470.018100
  0
VERTEX
  8
C7
  10
262.253600
  20
469.600500
  0
VERTEX
  8
C7
  10
261.473700
  20
469.209600
  0
VERTEX
  8
C7
  10
260.681900
  20
468.846400
  0
VERTEX
  8
C7
  10
259.877700
  20
468.512100
  0
VERTEX
  8
C7
  10
259.060500
  20
468.207900
  0
VERTEX
  8
C7
  10
258.230000
  20
467.935100
  0
VERTEX
  8
C7
  10
257.385500
  20
467.694700
  0
VERTEX
  8
C7
  10
256.526700
  20
467.487900
  0
VERTEX
  8
C7
  10
255.653100
  20
467.316000
  0
VERTEX
  8
C7
  10
254.764000
  20
467.180000
  0
VERTEX
  8
C7
  10
253.859200
  20
467.081300
  0
VERTEX
  8
C7
  10
252.938000
  20
467.020800
  0
VERTEX
  8
C7
  10
252.000000
  20
467.000000
  0
VERTEX
  8
C7
  10
254.000000
  20
480.000000
  0
VERTEX
  8
C7
  10
252.000000
  20
493.000000
  0
VERTEX
  8
C7
  10
251.000000
  20
493.000000
  0
VERTEX
  8
C7
  10
251.014300
  20
492.072300
  0
VERTEX
  8
C7
  10
251.049400
  20
491.121900
  0
VERTEX
  8
C7
  10
251.093500
  20
490.156100
  0
VERTEX
  8
C7
  10
251.134600
  20
489.182100
  0
VERTEX
  8
C7
  10
251.160900
  20
488.207200
  0
VERTEX
  8
C7
  10
251.160500
  20
487.238500
  0
VERTEX
  8
C7
  10
251.121600
  20
486.283500
  0
VERTEX
  8
C7
  10
251.032300
  20
485.349200
  0
VERTEX
  8
C7
  10
250.880800
  20
484.442900
  0
VERTEX
  8
C7
  10
250.655100
  20
483.571900
  0
VERTEX
  8
C7
  10
250.343500
  20
482.743500
  0
VERTEX
  8
C7
  10
249.934000
  20
481.964800
  0
VERTEX
  8
C7
  10
249.414800
  20
481.243200
  0
VERTEX
  8
C7
  10
248.774100
  20
480.585800
  0
VERTEX
  8
C7
  10
248.000000
  20
480.000000
  0
VERTEX
  8
C7
  10
250.000000
  20
467.000000
  0
VERTEX
  8
C7
  10
219.000000
  20
467.000000
  0
VERTEX
  8
C7
  10
246.000000
  20
495.000000
  0
VERTEX
  8
C7
  10
245.244200
  20
494.452100
  0
VERTEX
  8
C7
  10
244.499200
  20
493.881800
  0
VERTEX
  8
C7
  10
243.764100
  20
493.290500
  0
VERTEX
  8
C7
  10
243.038400
  20
492.679300
  0
VERTEX
  8
C7
  10
242.321400
  20
492.049600
  0
VERTEX
  8
C7
  10
241.612600
  20
491.402800
  0
VERTEX
  8
C7
  10
240.911200
  20
490.740000
  0
VERTEX
  8
C7
  10
240.216700
  20
490.062600
  0
VERTEX
  8
C7
  10
239.528300
  20
489.371900
  0
VERTEX
  8
C7
  10
238.845600
  20
488.669200
  0
VERTEX
  8
C7
  10
238.167800
  20
487.955900
  0
VERTEX
  8
C7
  10
237.494300
  20
487.233100
  0
VERTEX
  8
C7
  10
236.824500
  20
486.502200
  0
VERTEX
  8
C7
  10
236.157700
  20
485.764500
  0
VERTEX
  8
C7
  10
235.493400
  20
485.021300
  0
VERTEX
  8
C7
  10
234.830800
  20
484.274000
  0
VERTEX
  8
C7
  10
234.169400
  20
483.523700
  0
VERTEX
  8
C7
  10
233.508600
  20
482.771800
  0
VERTEX
  8
C7
  10
232.847600
  20
482.019600
  0
VERTEX
  8
C7
  10
232.185900
  20
481.268400
  0
VERTEX
  8
C7
  10
231.522800
  20
480.519600
  0
VERTEX
  8
C7
  10
230.857700
  20
479.774300
  0
VERTEX
  8
C7
  10
230.190000
  20
479.033900
  0
VERTEX
  8
C7
  10
229.519000
  20
478.299700
  0
VERTEX
  8
C7
  10
228.844100
  20
477.573100
  0
VERTEX
  8
C7
  10
228.164700
  20
476.855200
  0
VERTEX
  8
C7
  10
227.480100
  20
476.147400
  0
VERTEX
  8
C7
  10
226.789700
  20
475.451100
  0
VERTEX
  8
C7
  10
226.092900
  20
474.767400
  0
VERTEX
  8
C7
  10
225.389000
  20
474.097800
  0
VERTEX
  8
C7
  10
224.677500
  20
473.443400
  0
VERTEX
  8
C7
  10
223.957600
  20
472.805700
  0
VERTEX
  8
C7
  10
223.228800
  20
472.185800
  0
VERTEX
  8
C7
  10
222.490300
  20
471.585200
  0
VERTEX
  8
C7
  10
221.741700
  20
471.005000
  0
VERTEX
  8
C7
  10
220.982200
  20
470.446700
  0
VERTEX
  8
C7
  10
220.211300
  20
469.911500
  0
VERTEX
  8
C7
  10
219.428200
  20
469.400700
  0
VERTEX
  8
C7
  10
218.632400
  20
468.915600
  0
VERTEX
  8
C7
  10
217.823200
  20
468.457500
  0
VERTEX
  8
C7
  10
217.000000
  20
468.027700
  0
VERTEX
  8
C7
  10
216.280000
  20
467.690700
  0
VERTEX
  8
C7
  10
215.527100
  20
467.382100
  0
VERTEX
  8
C7
  10
214.742800
  20
467.100900
  0
VERTEX
  8
C7
  10
213.928700
  20
466.846100
  0
VERTEX
  8
C7
  10
213.086100
  20
466.616700
  0
VERTEX
  8
C7
  10
212.216700
  20
466.411700
  0
VERTEX
  8
C7
  10
211.321900
  20
466.230200
  0
VERTEX
  8
C7
  10
210.403300
  20
466.071200
  0
VERTEX
  8
C7
  10
209.462400
  20
465.933600
  0
VERTEX
  8
C7
  10
208.500700
  20
465.816600
  0
VERTEX
  8
C7
  10
207.519700
  20
465.719000
  0
VERTEX
  8
C7
  10
206.520900
  20
465.640000
  0
VERTEX
  8
C7
  10
205.505900
  20
465.578500
  0
VERTEX
  8
C7
  10
204.476100
  20
465.533500
  0
VERTEX
  8
C7
  10
203.433000
  20
465.504100
  0
VERTEX
  8
C7
  10
202.378200
  20
465.489300
  0
VERTEX
  8
C7
  10
201.313300
  20
465.488100
  0
VERTEX
  8
C7
  10
200.239600
  20
465.499500
  0
VERTEX
  8
C7
  10
199.158800
  20
465.522600
  0
VERTEX
  8
C7
  10
198.072200
  20
465.556200
  0
VERTEX
  8
C7
  10
196.981600
  20
465.599500
  0
VERTEX
  8
C7
  10
195.888200
  20
465.651500
  0
VERTEX
  8
C7
  10
194.793800
  20
465.711200
  0
VERTEX
  8
C7
  10
193.699800
  20
465.777600
  0
VERTEX
  8
C7
  10
192.607600
  20
465.849600
  0
VERTEX
  8
C7
  10
191.518900
  20
465.926400
  0
VERTEX
  8
C7
  10
190.435100
  20
466.007000
  0
VERTEX
  8
C7
  10
189.357700
  20
466.090200
  0
VERTEX
  8
C7
  10
188.288300
  20
466.175300
  0
VERTEX
  8
C7
  10
187.228400
  20
466.261100
  0
VERTEX
  8
C7
  10
186.179400
  20
466.346800
  0
VERTEX
  8
C7
  10
185.143000
  20
466.431200
  0
VERTEX
  8
C7
  10
184.120500
  20
466.513500
  0
VERTEX
  8
C7
  10
183.113600
  20
466.592600
  0
VERTEX
  8
C7
  10
182.123800
  20
466.667600
  0
VERTEX
  8
C7
  10
181.152500
  20
466.737500
  0
VERTEX
  8
C7
  10
180.201200
  20
466.801200
  0
VERTEX
  8
C7
  10
179.271500
  20
466.857800
  0
VERTEX
  8
C7
  10
178.365000
  20
466.906400
  0
VERTEX
  8
C7
  10
177.483000
  20
466.945800
  0
VERTEX
  8
C7
  10
176.627200
  20
466.975200
  0
VERTEX
  8
C7
  10
175.799000
  20
466.993600
  0
VERTEX
  8
C7
  10
175.000000
  20
467.000000
  0
VERTEX
  8
C7
  10
202.000000
  20
495.000000
  0
VERTEX
  8
C7
  10
201.244200
  20
494.452100
  0
VERTEX
  8
C7
  10
200.499200
  20
493.881800
  0
VERTEX
  8
C7
  10
199.764100
  20
493.290500
  0
VERTEX
  8
C7
  10
199.038400
  20
492.679300
  0
VERTEX
  8
C7
  10
198.321400
  20
492.049600
  0
VERTEX
  8
C7
  10
197.612600
  20
491.402800
  0
VERTEX
  8
C7
  10
196.911200
  20
490.740000
  0
VERTEX
  8
C7
  10
196.216700
  20
490.062600
  0
VERTEX
  8
C7
  10
195.528300
  20
489.371900
  0
VERTEX
  8
C7
  10
194.845600
  20
488.669200
  0
VERTEX
  8
C7
  10
194.167800
  20
487.955900
  0
VERTEX
  8
C7
  10
193.494300
  20
487.233100
  0
VERTEX
  8
C7
  10
192.824500
  20
486.502200
  0
VERTEX
  8
C7
  10
192.157700
  20
485.764500
  0
VERTEX
  8
C7
  10
191.493400
  20
485.021300
  0
VERTEX
  8
C7
  10
190.830800
  20
484.274000
  0
VERTEX
  8
C7
  10
190.169400
  20
483.523700
  0
VERTEX
  8
C7
  10
189.508600
  20
482.771800
  0
VERTEX
  8
C7
  10
188.847600
  20
482.019600
  0
VERTEX
  8
C7
  10
188.185900
  20
481.268400
  0
VERTEX
  8
C7
  10
187.522800
  20
480.519600
  0
VERTEX
  8
C7
  10
186.857700
  20
479.774300
  0
VERTEX
  8
C7
  10
186.190000
  20
479.033900
  0
VERTEX
  8
C7
  10
185.519000
  20
478.299700
  0
VERTEX
  8
C7
  10
184.844100
  20
477.573100
  0
VERTEX
  8
C7
  10
184.164700
  20
476.855200
  0
VERTEX
  8
C7
  10
183.480100
  20
476.147400
  0
VERTEX
  8
C7
  10
182.789700
  20
475.451100
  0
VERTEX
  8
C7
  10
182.092900
  20
474.767400
  0
VERTEX
  8
C7
  10
181.389000
  20
474.097800
  0
VERTEX
  8
C7
  10
180.677500
  20
473.443400
  0
VERTEX
  8
C7
  10
179.957600
  20
472.805700
  0
VERTEX
  8
C7
  10
179.228800
  20
472.185800
  0
VERTEX
  8
C7
  10
178.490300
  20
471.585200
  0
VERTEX
  8
C7
  10
177.741700
  20
471.005000
  0
VERTEX
  8
C7
  10
176.982200
  20
470.446700
  0
VERTEX
  8
C7
  10
176.211300
  20
469.911500
  0
VERTEX
  8
C7
  10
175.428200
  20
469.400700
  0
VERTEX
  8
C7
  10
174.632400
  20
468.915600
  0
VERTEX
  8
C7
  10
173.823200
  20
468.457500
  0
VERTEX
  8
C7
  10
173.000000
  20
468.027700
  0
VERTEX
  8
C7
  10
172.280000
  20
467.690700
  0
VERTEX
  8
C7
  10
171.527100
  20
467.382100
  0
VERTEX
  8
C7
  10
170.742800
  20
467.100900
  0
VERTEX
  8
C7
  10
169.928700
  20
466.846100
  0
VERTEX
  8
C7
  10
169.086100
  20
466.616700
  0
VERTEX
  8
C7
  10
168.216700
  20
466.411700
  0
VERTEX
  8
C7
  10
167.321900
  20
466.230200
  0
VERTEX
  8
C7
  10
166.403300
  20
466.071200
  0
VERTEX
  8
C7
  10
165.462400
  20
465.933600
  0
VERTEX
  8
C7
  10
164.500700
  20
465.816600
  0
VERTEX
  8
C7
  10
163.519700
  20
465.719000
  0
VERTEX
  8
C7
  10
162.520900
  20
465.640000
  0
VERTEX
  8
C7
  10
161.505900
  20
465.578500
  0
VERTEX
  8
C7
  10
160.476100
  20
465.533500
  0
VERTEX
  8
C7
  10
159.433000
  20
465.504100
  0
VERTEX
  8
C7
  10
158.378200
  20
465.489300
  0
VERTEX
  8
C7
  10
157.313300
  20
465.488100
  0
VERTEX
  8
C7
  10
156.239600
  20
465.499500
  0
VERTEX
  8
C7
  10
155.158800
  20
465.522600
  0
VERTEX
  8
C7
  10
154.072200
  20
465.556200
  0
VERTEX
  8
C7
  10
152.981600
  20
465.599500
  0
VERTEX
  8
C7
  10
151.888200
  20
465.651500
  0
VERTEX
  8
C7
  10
150.793800
  20
465.711200
  0
VERTEX
  8
C7
  10
149.699800
  20
465.777600
  0
VERTEX
  8
C7
  10
148.607600
  20
465.849600
  0
VERTEX
  8
C7
  10
147.518900
  20
465.926400
  0
VERTEX
  8
C7
  10
146.435100
  20
466.007000
  0
VERTEX
  8
C7
  10
145.357700
  20
466.090200
  0
VERTEX
  8
C7
  10
144.288300
  20
466.175300
  0
VERTEX
  8
C7
  10
143.228400
  20
466.261100
  0
VERTEX
  8
C7
  10
142.179400
  20
466.346800
  0
VERTEX
  8
C7
  10
141.143000
  20
466.431200
  0
VERTEX
  8
C7
  10
140.120500
  20
466.513500
  0
VERTEX
  8
C7
  10
139.113600
  20
466.592600
  0
VERTEX
  8
C7
  10
138.123800
  20
466.667600
  0
VERTEX
  8
C7
  10
137.152500
  20
466.737500
  0
VERTEX
  8
C7
  10
136.201200
  20
466.801200
  0
VERTEX
  8
C7
  10
135.271500
  20
466.857800
  0
VERTEX
  8
C7
  10
134.365000
  20
466.906400
  0
VERTEX
  8
C7
  10
133.483000
  20
466.945800
  0
VERTEX
  8
C7
  10
132.627200
  20
466.975200
  0
VERTEX
  8
C7
  10
131.799000
  20
466.993600
  0
VERTEX
  8
C7
  10
131.000000
  20
467.000000
  0
VERTEX
  8
C7
  10
158.000000
  20
495.000000
  0
VERTEX
  8
C7
  10
129.000000
  20
468.027771
  0
VERTEX
  8
C7
  10
108.000000
  20
467.000000
  0
VERTEX
  8
C7
  10
108.000000
  20
466.000000
  0
VERTEX
  8
C7
  10
112.000000
  20
466.000000
  0
VERTEX
  8
C7
  10
110.000000
  20
453.000000
  0
VERTEX
  8
C7
  10
110.449800
  20
452.348200
  0
VERTEX
  8
C7
  10
110.854200
  20
451.644100
  0
VERTEX
  8
C7
  10
111.215300
  20
450.891000
  0
VERTEX
  8
C7
  10
111.535000
  20
450.092100
  0
VERTEX
  8
C7
  10
111.815500
  20
449.250400
  0
VERTEX
  8
C7
  10
112.058800
  20
448.369200
  0
VERTEX
  8
C7
  10
112.266900
  20
447.451600
  0
VERTEX
  8
C7
  10
112.441800
  20
446.500900
  0
VERTEX
  8
C7
  10
112.585600
  20
445.520200
  0
VERTEX
  8
C7
  10
112.700400
  20
444.512600
  0
VERTEX
  8
C7
  10
112.788100
  20
443.481500
  0
VERTEX
  8
C7
  10
112.850900
  20
442.429900
  0
VERTEX
  8
C7
  10
112.890600
  20
441.361000
  0
VERTEX
  8
C7
  10
112.909500
  20
440.278000
  0
VERTEX
  8
C7
  10
112.909500
  20
439.184200
  0
VERTEX
  8
C7
  10
112.892700
  20
438.082600
  0
VERTEX
  8
C7
  10
112.861100
  20
436.976400
  0
VERTEX
  8
C7
  10
112.816800
  20
435.868900
  0
VERTEX
  8
C7
  10
112.761700
  20
434.763100
  0
VERTEX
  8
C7
  10
112.698000
  20
433.662400
  0
VERTEX
  8
C7
  10
112.627600
  20
432.569800
  0
VERTEX
  8
C7
  10
112.552700
  20
431.488600
  0
VERTEX
  8
C7
  10
112.475200
  20
430.421900
  0
VERTEX
  8
C7
  10
112.397200
  20
429.372900
  0
VERTEX
  8
C7
  10
112.320800
  20
428.344800
  0
VERTEX
  8
C7
  10
112.247900
  20
427.340800
  0
VERTEX
  8
C7
  10
112.180600
  20
426.364000
  0
VERTEX
  8
C7
  10
112.121000
  20
425.417600
  0
VERTEX
  8
C7
  10
112.071100
  20
424.504800
  0
VERTEX
  8
C7
  10
112.032900
  20
423.628900
  0
VERTEX
  8
C7
  10
112.008500
  20
422.792800
  0
VERTEX
  8
C7
  10
112.000000
  20
422.000000
  0
VERTEX
  8
C7
  10
112.000000
  20
339.000000
  0
VERTEX
  8
C7
  10
113.000000
  20
339.000000
  0
VERTEX
  8
C7
  10
113.000000
  20
424.000000
  0
VERTEX
  8
C7
  10
112.991000
  20
424.675600
  0
VERTEX
  8
C7
  10
112.965800
  20
425.412700
  0
VERTEX
  8
C7
  10
112.926500
  20
426.206400
  0
VERTEX
  8
C7
  10
112.875500
  20
427.052300
  0
VERTEX
  8
C7
  10
112.815000
  20
427.945600
  0
VERTEX
  8
C7
  10
112.747400
  20
428.881600
  0
VERTEX
  8
C7
  10
112.675000
  20
429.855800
  0
VERTEX
  8
C7
  10
112.599900
  20
430.863500
  0
VERTEX
  8
C7
  10
112.524700
  20
431.899900
  0
VERTEX
  8
C7
  10
112.451400
  20
432.960600
  0
VERTEX
  8
C7
  10
112.382500
  20
434.040800
  0
VERTEX
  8
C7
  10
112.320300
  20
435.135800
  0
VERTEX
  8
C7
  10
112.266900
  20
436.241100
  0
VERTEX
  8
C7
  10
112.224700
  20
437.352000
  0
VERTEX
  8
C7
  10
112.196100
  20
438.463800
  0
VERTEX
  8
C7
  10
112.183300
  20
439.571800
  0
VERTEX
  8
C7
  10
112.188500
  20
440.671500
  0
VERTEX
  8
C7
  10
112.214200
  20
441.758200
  0
VERTEX
  8
C7
  10
112.262500
  20
442.827200
  0
VERTEX
  8
C7
  10
112.335900
  20
443.873800
  0
VERTEX
  8
C7
  10
112.436500
  20
444.893500
  0
VERTEX
  8
C7
  10
112.566700
  20
445.881600
  0
VERTEX
  8
C7
  10
112.728700
  20
446.833400
  0
VERTEX
  8
C7
  10
112.924900
  20
447.744200
  0
VERTEX
  8
C7
  10
113.157600
  20
448.609500
  0
VERTEX
  8
C7
  10
113.429000
  20
449.424600
  0
VERTEX
  8
C7
  10
113.741500
  20
450.184800
  0
VERTEX
  8
C7
  10
114.097300
  20
450.885500
  0
VERTEX
  8
C7
  10
114.498800
  20
451.522000
  0
VERTEX
  8
C7
  10
114.948200
  20
452.089700
  0
VERTEX
  8
C7
  10
115.447800
  20
452.583900
  0
VERTEX
  8
C7
  10
116.000000
  20
453.000000
  0
VERTEX
  8
C7
  10
114.000000
  20
466.000000
  0
VERTEX
  8
C7
  10
203.000000
  20
466.000000
  0
VERTEX
  8
C7
  10
202.787500
  20
465.081500
  0
VERTEX
  8
C7
  10
202.586000
  20
464.156800
  0
VERTEX
  8
C7
  10
202.395100
  20
463.225900
  0
VERTEX
  8
C7
  10
202.214600
  20
462.289200
  0
VERTEX
  8
C7
  10
202.044300
  20
461.346700
  0
VERTEX
  8
C7
  10
201.883900
  20
460.398600
  0
VERTEX
  8
C7
  10
201.733300
  20
459.445200
  0
VERTEX
  8
C7
  10
201.592200
  20
458.486400
  0
VERTEX
  8
C7
  10
201.460300
  20
457.522700
  0
VERTEX
  8
C7
  10
201.337500
  20
456.554000
  0
VERTEX
  8
C7
  10
201.223600
  20
455.580600
  0
VERTEX
  8
C7
  10
201.118200
  20
454.602600
  0
VERTEX
  8
C7
  10
201.021200
  20
453.620300
  0
VERTEX
  8
C7
  10
200.932400
  20
452.633800
  0
VERTEX
  8
C7
  10
200.851500
  20
451.643200
  0
VERTEX
  8
C7
  10
200.778300
  20
450.648700
  0
VERTEX
  8
C7
  10
200.712500
  20
449.650600
  0
VERTEX
  8
C7
  10
200.654100
  20
448.648900
  0
VERTEX
  8
C7
  10
200.602600
  20
447.643900
  0
VERTEX
  8
C7
  10
200.557900
  20
446.635700
  0
VERTEX
  8
C7
  10
200.519800
  20
445.624400
  0
VERTEX
  8
C7
  10
200.488000
  20
444.610400
  0
VERTEX
  8
C7
  10
200.462400
  20
443.593600
  0
VERTEX
  8
C7
  10
200.442700
  20
442.574400
  0
VERTEX
  8
C7
  10
200.428600
  20
441.552800
  0
VERTEX
  8
C7
  10
200.419900
  20
440.529100
  0
VERTEX
  8
C7
  10
200.416500
  20
439.503400
  0
VERTEX
  8
C7
  10
200.418100
  20
438.475800
  0
VERTEX
  8
C7
  10
200.424400
  20
437.446700
  0
VERTEX
  8
C7
  10
200.435300
  20
436.416000
  0
VERTEX
  8
C7
  10
200.450400
  20
435.384100
  0
VERTEX
  8
C7
  10
200.469700
  20
434.351000
  0
VERTEX
  8
C7
  10
200.492800
  20
433.316900
  0
VERTEX
  8
C7
  10
200.519600
  20
432.282100
  0
VERTEX
  8
C7
  10
200.549700
  20
431.246600
  0
VERTEX
  8
C7
  10
200.583100
  20
430.210700
  0
VERTEX
  8
C7
  10
200.619400
  20
429.174500
  0
VERTEX
  8
C7
  10
200.658400
  20
428.138200
  0
VERTEX
  8
C7
  10
200.699900
  20
427.102000
  0
VERTEX
  8
C7
  10
200.743700
  20
426.066000
  0
VERTEX
  8
C7
  10
200.789600
  20
425.030400
  0
VERTEX
  8
C7
  10
200.837300
  20
423.995400
  0
VERTEX
  8
C7
  10
200.886600
  20
422.961100
  0
VERTEX
  8
C7
  10
200.937200
  20
421.927800
  0
VERTEX
  8
C7
  10
200.989100
  20
420.895500
  0
VERTEX
  8
C7
  10
201.041800
  20
419.864600
  0
VERTEX
  8
C7
  10
201.095200
  20
418.835000
  0
VERTEX
  8
C7
  10
201.149100
  20
417.807000
  0
VERTEX
  8
C7
  10
201.203300
  20
416.780900
  0
VERTEX
  8
C7
  10
201.257500
  20
415.756600
  0
VERTEX
  8
C7
  10
201.311500
  20
414.734500
  0
VERTEX
  8
C7
  10
201.365000
  20
413.714700
  0
VERTEX
  8
C7
  10
201.417900
  20
412.697300
  0
VERTEX
  8
C7
  10
201.469900
  20
411.682600
  0
VERTEX
  8
C7
  10
201.520800
  20
410.670600
  0
VERTEX
  8
C7
  10
201.570300
  20
409.661700
  0
VERTEX
  8
C7
  10
201.618300
  20
408.655800
  0
VERTEX
  8
C7
  10
201.664500
  20
407.653300
  0
VERTEX
  8
C7
  10
201.708700
  20
406.654300
  0
VERTEX
  8
C7
  10
201.750700
  20
405.658900
  0
VERTEX
  8
C7
  10
201.790200
  20
404.667400
  0
VERTEX
  8
C7
  10
201.827000
  20
403.679800
  0
VERTEX
  8
C7
  10
201.860900
  20
402.696400
  0
VERTEX
  8
C7
  10
201.891600
  20
401.717400
  0
VERTEX
  8
C7
  10
201.919000
  20
400.742800
  0
VERTEX
  8
C7
  10
201.942800
  20
399.773000
  0
VERTEX
  8
C7
  10
201.962800
  20
398.808000
  0
VERTEX
  8
C7
  10
201.978700
  20
397.848000
  0
VERTEX
  8
C7
  10
201.990400
  20
396.893200
  0
VERTEX
  8
C7
  10
201.997500
  20
395.943800
  0
VERTEX
  8
C7
  10
202.000000
  20
395.000000
  0
VERTEX
  8
C7
  10
202.000000
  20
250.000000
  0
VERTEX
  8
C7
  10
202.000000
  20
199.000000
  0
VERTEX
  8
C7
  10
201.987500
  20
198.225500
  0
VERTEX
  8
C7
  10
201.953500
  20
197.389000
  0
VERTEX
  8
C7
  10
201.902600
  20
196.497500
  0
VERTEX
  8
C7
  10
201.839700
  20
195.558500
  0
VERTEX
  8
C7
  10
201.769600
  20
194.579000
  0
VERTEX
  8
C7
  10
201.697200
  20
193.566400
  0
VERTEX
  8
C7
  10
201.627200
  20
192.527800
  0
VERTEX
  8
C7
  10
201.564500
  20
191.470500
  0
VERTEX
  8
C7
  10
201.513900
  20
190.401800
  0
VERTEX
  8
C7
  10
201.480100
  20
189.328800
  0
VERTEX
  8
C7
  10
201.468200
  20
188.258900
  0
VERTEX
  8
C7
  10
201.482700
  20
187.199200
  0
VERTEX
  8
C7
  10
201.528600
  20
186.157100
  0
VERTEX
  8
C7
  10
201.610700
  20
185.139600
  0
VERTEX
  8
C7
  10
201.733800
  20
184.154100
  0
VERTEX
  8
C7
  10
201.902800
  20
183.207900
  0
VERTEX
  8
C7
  10
202.122300
  20
182.308000
  0
VERTEX
  8
C7
  10
202.397300
  20
181.461900
  0
VERTEX
  8
C7
  10
202.732600
  20
180.676600
  0
VERTEX
  8
C7
  10
203.133000
  20
179.959500
  0
VERTEX
  8
C7
  10
203.603300
  20
179.317900
  0
VERTEX
  8
C7
  10
204.235700
  20
178.680600
  0
VERTEX
  8
C7
  10
204.950700
  20
178.157200
  0
VERTEX
  8
C7
  10
205.737600
  20
177.737400
  0
VERTEX
  8
C7
  10
206.586100
  20
177.410600
  0
VERTEX
  8
C7
  10
207.485800
  20
177.166600
  0
VERTEX
  8
C7
  10
208.426200
  20
176.995100
  0
VERTEX
  8
C7
  10
209.396800
  20
176.885600
  0
VERTEX
  8
C7
  10
210.387300
  20
176.827800
  0
VERTEX
  8
C7
  10
211.387200
  20
176.811300
  0
VERTEX
  8
C7
  10
212.386100
  20
176.825800
  0
VERTEX
  8
C7
  10
213.373500
  20
176.860800
  0
VERTEX
  8
C7
  10
214.339000
  20
176.906200
  0
VERTEX
  8
C7
  10
215.272200
  20
176.951400
  0
VERTEX
  8
C7
  10
216.162700
  20
176.986100
  0
VERTEX
  8
C7
  10
217.000000
  20
177.000000
  0
VERTEX
  8
C7
  10
252.000000
  20
177.000000
  0
VERTEX
  8
C7
  10
252.000000
  20
126.000000
  0
VERTEX
  8
C7
  10
253.000000
  20
126.000000
  0
VERTEX
  8
C7
  10
253.000000
  20
130.000000
  0
VERTEX
  8
C7
  10
314.000000
  20
130.000000
  0
VERTEX
  8
C7
  10
314.000000
  20
131.000000
  0
VERTEX
  8
C7
  10
279.000000
  20
131.000000
  0
VERTEX
  8
C7
  10
278.072000
  20
130.985600
  0
VERTEX
  8
C7
  10
277.121500
  20
130.950300
  0
VERTEX
  8
C7
  10
276.155600
  20
130.906100
  0
VERTEX
  8
C7
  10
275.181700
  20
130.864900
  0
VERTEX
  8
C7
  10
274.206800
  20
130.838400
  0
VERTEX
  8
C7
  10
273.238300
  20
130.838500
  0
VERTEX
  8
C7
  10
272.283400
  20
130.877300
  0
VERTEX
  8
C7
  10
271.349300
  20
130.966400
  0
VERTEX
  8
C7
  10
270.443200
  20
131.117800
  0
VERTEX
  8
C7
  10
269.572400
  20
131.343500
  0
VERTEX
  8
C7
  10
268.744100
  20
131.655100
  0
VERTEX
  8
C7
  10
267.965400
  20
132.064700
  0
VERTEX
  8
C7
  10
267.243700
  20
132.584200
  0
VERTEX
  8
C7
  10
266.586100
  20
133.225300
  0
VERTEX
  8
C7
  10
266.000000
  20
134.000000
  0
VERTEX
  8
C7
  10
253.000000
  20
132.000000
  0
VERTEX
  8
C7
  10
253.000000
  20
177.000000
  0
VERTEX
  8
C7
  10
531.000000
  20
177.000000
  0
VERTEX
  8
C7
  10
531.000000
  20
132.000000
  0
VERTEX
  8
C7
  10
518.000000
  20
134.000000
  0
VERTEX
  8
C7
  10
517.413800
  20
133.225300
  0
VERTEX
  8
C7
  10
516.756200
  20
132.584200
  0
VERTEX
  8
C7
  10
516.034500
  20
132.064700
  0
VERTEX
  8
C7
  10
515.255800
  20
131.655100
  0
VERTEX
  8
C7
  10
514.427400
  20
131.343500
  0
VERTEX
  8
C7
  10
513.556600
  20
131.117800
  0
VERTEX
  8
C7
  10
512.650500
  20
130.966400
  0
VERTEX
  8
C7
  10
511.716400
  20
130.877300
  0
VERTEX
  8
C7
  10
510.761500
  20
130.838500
  0
VERTEX
  8
C7
  10
509.793100
  20
130.838400
  0
VERTEX
  8
C7
  10
508.818200
  20
130.864900
  0
VERTEX
  8
C7
  10
507.844300
  20
130.906100
  0
VERTEX
  8
C7
  10
506.878400
  20
130.950300
  0
VERTEX
  8
C7
  10
505.927900
  20
130.985600
  0
VERTEX
  8
C7
  10
505.000000
  20
131.000000
  0
VERTEX
  8
C7
  10
470.000000
  20
131.000000
  0
VERTEX
  8
C7
  10
470.000000
  20
130.000000
  0
VERTEX
  8
C7
  10
531.000000
  20
130.000000
  0
VERTEX
  8
C7
  10
531.000000
  20
126.000000
  0
VERTEX
  8
C7
  10
532.000000
  20
126.000000
  0
VERTEX
  8
C7
  10
532.000000
  20
177.000000
  0
VERTEX
  8
C7
  10
567.000000
  20
177.000000
  0
VERTEX
  8
C7
  10
567.837200
  20
176.986100
  0
VERTEX
  8
C7
  10
568.727600
  20
176.951400
  0
VERTEX
  8
C7
  10
569.660800
  20
176.906200
  0
VERTEX
  8
C7
  10
570.626400
  20
176.860800
  0
VERTEX
  8
C7
  10
571.613800
  20
176.825800
  0
VERTEX
  8
C7
  10
572.612700
  20
176.811300
  0
VERTEX
  8
C7
  10
573.612600
  20
176.827800
  0
VERTEX
  8
C7
  10
574.603000
  20
176.885600
  0
VERTEX
  8
C7
  10
575.573700
  20
176.995100
  0
VERTEX
  8
C7
  10
576.514000
  20
177.166600
  0
VERTEX
  8
C7
  10
577.413700
  20
177.410600
  0
VERTEX
  8
C7
  10
578.262200
  20
177.737400
  0
VERTEX
  8
C7
  10
579.049100
  20
178.157200
  0
VERTEX
  8
C7
  10
579.764100
  20
178.680600
  0
VERTEX
  8
C7
  10
580.396600
  20
179.317900
  0
VERTEX
  8
C7
  10
580.820100
  20
179.879600
  0
VERTEX
  8
C7
  10
581.201300
  20
180.505500
  0
VERTEX
  8
C7
  10
581.542200
  20
181.191800
  0
VERTEX
  8
C7
  10
581.844500
  20
181.934700
  0
VERTEX
  8
C7
  10
582.110000
  20
182.730600
  0
VERTEX
  8
C7
  10
582.340500
  20
183.575500
  0
VERTEX
  8
C7
  10
582.537900
  20
184.466000
  0
VERTEX
  8
C7
  10
582.704000
  20
185.398000
  0
VERTEX
  8
C7
  10
582.840600
  20
186.368000
  0
VERTEX
  8
C7
  10
582.949600
  20
187.372200
  0
VERTEX
  8
C7
  10
583.032700
  20
188.406900
  0
VERTEX
  8
C7
  10
583.091800
  20
189.468200
  0
VERTEX
  8
C7
  10
583.128600
  20
190.552600
  0
VERTEX
  8
C7
  10
583.145100
  20
191.656100
  0
VERTEX
  8
C7
  10
583.143100
  20
192.775100
  0
VERTEX
  8
C7
  10
583.124300
  20
193.905900
  0
VERTEX
  8
C7
  10
583.090500
  20
195.044600
  0
VERTEX
  8
C7
  10
583.043700
  20
196.187600
  0
VERTEX
  8
C7
  10
582.985600
  20
197.331100
  0
VERTEX
  8
C7
  10
582.918100
  20
198.471400
  0
VERTEX
  8
C7
  10
582.842900
  20
199.604700
  0
VERTEX
  8
C7
  10
582.761900
  20
200.727300
  0
VERTEX
  8
C7
  10
582.677000
  20
201.835400
  0
VERTEX
  8
C7
  10
582.589800
  20
202.925300
  0
VERTEX
  8
C7
  10
582.502300
  20
203.993300
  0
VERTEX
  8
C7
  10
582.416300
  20
205.035500
  0
VERTEX
  8
C7
  10
582.333600
  20
206.048400
  0
VERTEX
  8
C7
  10
582.256000
  20
207.028100
  0
VERTEX
  8
C7
  10
582.185400
  20
207.970800
  0
VERTEX
  8
C7
  10
582.123500
  20
208.872900
  0
VERTEX
  8
C7
  10
582.072200
  20
209.730600
  0
VERTEX
  8
C7
  10
582.033300
  20
210.540200
  0
VERTEX
  8
C7
  10
582.008600
  20
211.297900
  0
VERTEX
  8
C7
  10
582.000000
  20
212.000000
  0
VERTEX
  8
C7
  10
683.000000
  20
212.000000
  0
VERTEX
  8
C7
  10
683.000000
  20
213.000000
  0
VERTEX
  8
C7
  10
679.000000
  20
213.000000
  0
VERTEX
  8
C7
  10
681.000000
  20
226.000000
  0
VERTEX
  8
C7
  10
680.302400
  20
226.530400
  0
VERTEX
  8
C7
  10
679.702900
  20
227.145600
  0
VERTEX
  8
C7
  10
679.194600
  20
227.837900
  0
VERTEX
  8
C7
  10
678.771000
  20
228.599800
  0
VERTEX
  8
C7
  10
678.425200
  20
229.423500
  0
VERTEX
  8
C7
  10
678.150400
  20
230.301400
  0
VERTEX
  8
C7
  10
677.940100
  20
231.225800
  0
VERTEX
  8
C7
  10
677.787400
  20
232.189200
  0
VERTEX
  8
C7
  10
677.685600
  20
233.183800
  0
VERTEX
  8
C7
  10
677.627900
  20
234.202000
  0
VERTEX
  8
C7
  10
677.607700
  20
235.236200
  0
VERTEX
  8
C7
  10
677.618200
  20
236.278700
  0
VERTEX
  8
C7
  10
677.652700
  20
237.321900
  0
VERTEX
  8
C7
  10
677.704400
  20
238.358000
  0
VERTEX
  8
C7
  10
677.766700
  20
239.379500
  0
VERTEX
  8
C7
  10
677.832700
  20
240.378800
  0
VERTEX
  8
C7
  10
677.895800
  20
241.348100
  0
VERTEX
  8
C7
  10
677.949200
  20
242.279800
  0
VERTEX
  8
C7
  10
677.986100
  20
243.166300
  0
VERTEX
  8
C7
  10
678.000000
  20
244.000000
  0
VERTEX
  8
C7
  10
678.000000
  20
296.000000
  0
VERTEX
  8
C7
  10
677.000000
  20
296.000000
  0
VERTEX
  8
C7
  10
677.000000
  20
213.000000
  0
VERTEX
  8
C7
  10
582.000000
  20
213.000000
  0
VERTEX
  8
C7
  10
582.000000
  20
404.000000
  0
VERTEX
  8
C7
  10
677.000000
  20
404.000000
  0
VERTEX
  8
C7
  10
675.000000
  20
391.000000
  0
VERTEX
  8
C7
  10
677.000000
  20
371.000000
  0
VERTEX
  8
C7
  10
677.000000
  20
321.000000
  0
VERTEX
  8
C7
  10
678.000000
  20
321.000000
  0
VERTEX
  8
C7
  10
678.000000
  20
373.000000
  0
VERTEX
  8
C7
  10
677.986100
  20
373.833600
  0
VERTEX
  8
C7
  10
677.949200
  20
374.720000
  0
VERTEX
  8
C7
  10
677.895800
  20
375.651800
  0
VERTEX
  8
C7
  10
677.832700
  20
376.621100
  0
VERTEX
  8
C7
  10
677.766700
  20
377.620300
  0
VERTEX
  8
C7
  10
677.704400
  20
378.641800
  0
VERTEX
  8
C7
  10
677.652700
  20
379.678000
  0
VERTEX
  8
C7
  10
677.618200
  20
380.721200
  0
VERTEX
  8
C7
  10
677.607700
  20
381.763700
  0
VERTEX
  8
C7
  10
677.627900
  20
382.797800
  0
VERTEX
  8
C7
  10
677.685600
  20
383.816100
  0
VERTEX
  8
C7
  10
677.787400
  20
384.810700
  0
VERTEX
  8
C7
  10
677.940100
  20
385.774100
  0
VERTEX
  8
C7
  10
678.150400
  20
386.698500
  0
VERTEX
  8
C7
  10
678.425200
  20
387.576400
  0
VERTEX
  8
C7
  10
678.771000
  20
388.400100
  0
VERTEX
  8
C7
  10
679.194600
  20
389.162000
  0
VERTEX
  8
C7
  10
679.702900
  20
389.854300
  0
VERTEX
  8
C7
  10
680.302400
  20
390.469500
  0
VERTEX
  8
C7
  10
681.000000
  20
391.000000
  0
VERTEX
  8
C7
  10
679.000000
  20
404.000000
  0
VERTEX
  8
C7
  10
683.000000
  20
404.000000
  0
VERTEX
  8
C7
  10
683.000000
  20
405.000000
  0
VERTEX
  8
C7
  10
679.000000
  20
405.000000
  0
VERTEX
  8
C7
  10
678.000000
  20
423.000000
  0
VERTEX
  8
C7
  10
677.000000
  20
423.000000
  0
VERTEX
  8
C7
  10
677.000000
  20
405.000000
  0
VERTEX
  8
C7
  10
582.000000
  20
405.000000
  0
VERTEX
  8
C7
  10
582.003200
  20
405.902700
  0
VERTEX
  8
C7
  10
582.012800
  20
406.814600
  0
VERTEX
  8
C7
  10
582.028300
  20
407.735400
  0
VERTEX
  8
C7
  10
582.049300
  20
408.664800
  0
VERTEX
  8
C7
  10
582.075700
  20
409.602400
  0
VERTEX
  8
C7
  10
582.106900
  20
410.547900
  0
VERTEX
  8
C7
  10
582.142700
  20
411.501000
  0
VERTEX
  8
C7
  10
582.182800
  20
412.461300
  0
VERTEX
  8
C7
  10
582.226600
  20
413.428600
  0
VERTEX
  8
C7
  10
582.274000
  20
414.402500
  0
VERTEX
  8
C7
  10
582.324600
  20
415.382600
  0
VERTEX
  8
C7
  10
582.378000
  20
416.368700
  0
VERTEX
  8
C7
  10
582.433900
  20
417.360400
  0
VERTEX
  8
C7
  10
582.491900
  20
418.357400
  0
VERTEX
  8
C7
  10
582.551700
  20
419.359300
  0
VERTEX
  8
C7
  10
582.613000
  20
420.365900
  0
VERTEX
  8
C7
  10
582.675300
  20
421.376800
  0
VERTEX
  8
C7
  10
582.738400
  20
422.391600
  0
VERTEX
  8
C7
  10
582.801900
  20
423.410100
  0
VERTEX
  8
C7
  10
582.865500
  20
424.431900
  0
VERTEX
  8
C7
  10
582.928700
  20
425.456700
  0
VERTEX
  8
C7
  10
582.991400
  20
426.484100
  0
VERTEX
  8
C7
  10
583.053000
  20
427.513900
  0
VERTEX
  8
C7
  10
583.113300
  20
428.545700
  0
VERTEX
  8
C7
  10
583.172000
  20
429.579200
  0
VERTEX
  8
C7
  10
583.228600
  20
430.614000
  0
VERTEX
  8
C7
  10
583.282900
  20
431.649800
  0
VERTEX
  8
C7
  10
583.334400
  20
432.686400
  0
VERTEX
  8
C7
  10
583.382900
  20
433.723300
  0
VERTEX
  8
C7
  10
583.428000
  20
434.760200
  0
VERTEX
  8
C7
  10
583.469300
  20
435.796800
  0
VERTEX
  8
C7
  10
583.506500
  20
436.832900
  0
VERTEX
  8
C7
  10
583.539300
  20
437.867900
  0
VERTEX
  8
C7
  10
583.567300
  20
438.901800
  0
VERTEX
  8
C7
  10
583.590200
  20
439.934000
  0
VERTEX
  8
C7
  10
583.607500
  20
440.964200
  0
VERTEX
  8
C7
  10
583.619100
  20
441.992300
  0
VERTEX
  8
C7
  10
583.624400
  20
443.017700
  0
VERTEX
  8
C7
  10
583.623300
  20
444.040200
  0
VERTEX
  8
C7
  10
583.615200
  20
445.059500
  0
VERTEX
  8
C7
  10
583.600000
  20
446.075200
  0
VERTEX
  8
C7
  10
583.577200
  20
447.087000
  0
VERTEX
  8
C7
  10
583.546500
  20
448.094600
  0
VERTEX
  8
C7
  10
583.507500
  20
449.097700
  0
VERTEX
  8
C7
  10
583.460000
  20
450.095800
  0
VERTEX
  8
C7
  10
583.403400
  20
451.088800
  0
VERTEX
  8
C7
  10
583.337600
  20
452.076200
  0
VERTEX
  8
C7
  10
583.262200
  20
453.057700
  0
VERTEX
  8
C7
  10
583.176800
  20
454.033100
  0
VERTEX
  8
C7
  10
583.081000
  20
455.001900
  0
VERTEX
  8
C7
  10
582.974600
  20
455.963900
  0
VERTEX
  8
C7
  10
582.857100
  20
456.918700
  0
VERTEX
  8
C7
  10
582.728300
  20
457.866000
  0
VERTEX
  8
C7
  10
582.587700
  20
458.805500
  0
VERTEX
  8
C7
  10
582.435100
  20
459.736800
  0
VERTEX
  8
C7
  10
582.270100
  20
460.659600
  0
VERTEX
  8
C7
  10
582.092300
  20
461.573600
  0
VERTEX
  8
C7
  10
581.901400
  20
462.478500
  0
VERTEX
  8
C7
  10
581.697100
  20
463.373900
  0
VERTEX
  8
C7
  10
581.479000
  20
464.259500
  0
VERTEX
  8
C7
  10
581.246700
  20
465.134900
  0
VERTEX
  8
C7
  10
581.000000
  20
466.000000
  0
VERTEX
  8
C7
  10
638.000000
  20
466.000000
  0
VERTEX
  8
C7
  10
638.000000
  20
467.000000
  0
VERTEX
  8
C7
  10
614.000000
  20
467.000000
  0
VERTEX
  8
C7
  10
641.000000
  20
495.000000
  0
VERTEX
  8
C7
  10
640.244200
  20
494.452100
  0
VERTEX
  8
C7
  10
639.499200
  20
493.881800
  0
VERTEX
  8
C7
  10
638.764100
  20
493.290400
  0
VERTEX
  8
C7
  10
638.038400
  20
492.679300
  0
VERTEX
  8
C7
  10
637.321400
  20
492.049600
  0
VERTEX
  8
C7
  10
636.612600
  20
491.402700
  0
VERTEX
  8
C7
  10
635.911200
  20
490.739900
  0
VERTEX
  8
C7
  10
635.216700
  20
490.062600
  0
VERTEX
  8
C7
  10
634.528300
  20
489.371900
  0
VERTEX
  8
C7
  10
633.845600
  20
488.669200
  0
VERTEX
  8
C7
  10
633.167800
  20
487.955800
  0
VERTEX
  8
C7
  10
632.494300
  20
487.233000
  0
VERTEX
  8
C7
  10
631.824500
  20
486.502200
  0
VERTEX
  8
C7
  10
631.157700
  20
485.764500
  0
VERTEX
  8
C7
  10
630.493400
  20
485.021300
  0
VERTEX
  8
C7
  10
629.830900
  20
484.273900
  0
VERTEX
  8
C7
  10
629.169500
  20
483.523600
  0
VERTEX
  8
C7
  10
628.508600
  20
482.771800
  0
VERTEX
  8
C7
  10
627.847600
  20
482.019600
  0
VERTEX
  8
C7
  10
627.185900
  20
481.268400
  0
VERTEX
  8
C7
  10
626.522800
  20
480.519500
  0
VERTEX
  8
C7
  10
625.857700
  20
479.774200
  0
VERTEX
  8
C7
  10
625.190000
  20
479.033900
  0
VERTEX
  8
C7
  10
624.519000
  20
478.299700
  0
VERTEX
  8
C7
  10
623.844100
  20
477.573000
  0
VERTEX
  8
C7
  10
623.164700
  20
476.855200
  0
VERTEX
  8
C7
  10
622.480100
  20
476.147400
  0
VERTEX
  8
C7
  10
621.789700
  20
475.451000
  0
VERTEX
  8
C7
  10
621.092900
  20
474.767400
  0
VERTEX
  8
C7
  10
620.389100
  20
474.097700
  0
VERTEX
  8
C7
  10
619.677500
  20
473.443400
  0
VERTEX
  8
C7
  10
618.957600
  20
472.805600
  0
VERTEX
  8
C7
  10
618.228800
  20
472.185800
  0
VERTEX
  8
C7
  10
617.490400
  20
471.585200
  0
VERTEX
  8
C7
  10
616.741700
  20
471.005000
  0
VERTEX
  8
C7
  10
615.982200
  20
470.446700
  0
VERTEX
  8
C7
  10
615.211300
  20
469.911500
  0
VERTEX
  8
C7
  10
614.428200
  20
469.400700
  0
VERTEX
  8
C7
  10
613.632400
  20
468.915600
  0
VERTEX
  8
C7
  10
612.823200
  20
468.457500
  0
VERTEX
  8
C7
  10
612.000000
  20
468.027700
  0
VERTEX
  8
C7
  10
611.280000
  20
467.690700
  0
VERTEX
  8
C7
  10
610.527100
  20
467.382100
  0
VERTEX
  8
C7
  10
609.742800
  20
467.100900
  0
VERTEX
  8
C7
  10
608.928700
  20
466.846100
  0
VERTEX
  8
C7
  10
608.086100
  20
466.616700
  0
VERTEX
  8
C7
  10
607.216700
  20
466.411700
  0
VERTEX
  8
C7
  10
606.321900
  20
466.230200
  0
VERTEX
  8
C7
  10
605.403300
  20
466.071200
  0
VERTEX
  8
C7
  10
604.462400
  20
465.933600
  0
VERTEX
  8
C7
  10
603.500700
  20
465.816600
  0
VERTEX
  8
C7
  10
602.519700
  20
465.719000
  0
VERTEX
  8
C7
  10
601.520900
  20
465.640000
  0
VERTEX
  8
C7
  10
600.505900
  20
465.578500
  0
VERTEX
  8
C7
  10
599.476100
  20
465.533500
  0
VERTEX
  8
C7
  10
598.433000
  20
465.504100
  0
VERTEX
  8
C7
  10
597.378200
  20
465.489300
  0
VERTEX
  8
C7
  10
596.313300
  20
465.488100
  0
VERTEX
  8
C7
  10
595.239600
  20
465.499500
  0
VERTEX
  8
C7
  10
594.158800
  20
465.522600
  0
VERTEX
  8
C7
  10
593.072200
  20
465.556200
  0
VERTEX
  8
C7
  10
591.981600
  20
465.599500
  0
VERTEX
  8
C7
  10
590.888200
  20
465.651500
  0
VERTEX
  8
C7
  10
589.793800
  20
465.711200
  0
VERTEX
  8
C7
  10
588.699800
  20
465.777600
  0
VERTEX
  8
C7
  10
587.607600
  20
465.849600
  0
VERTEX
  8
C7
  10
586.518900
  20
465.926400
  0
VERTEX
  8
C7
  10
585.435100
  20
466.007000
  0
VERTEX
  8
C7
  10
584.357700
  20
466.090200
  0
VERTEX
  8
C7
  10
583.288300
  20
466.175300
  0
VERTEX
  8
C7
  10
582.228400
  20
466.261100
  0
VERTEX
  8
C7
  10
581.179400
  20
466.346800
  0
VERTEX
  8
C7
  10
580.143000
  20
466.431200
  0
VERTEX
  8
C7
  10
579.120500
  20
466.513500
  0
VERTEX
  8
C7
  10
578.113600
  20
466.592600
  0
VERTEX
  8
C7
  10
577.123800
  20
466.667600
  0
VERTEX
  8
C7
  10
576.152500
  20
466.737500
  0
VERTEX
  8
C7
  10
575.201200
  20
466.801200
  0
VERTEX
  8
C7
  10
574.271500
  20
466.857800
  0
VERTEX
  8
C7
  10
573.365000
  20
466.906400
  0
VERTEX
  8
C7
  10
572.483000
  20
466.945800
  0
VERTEX
  8
C7
  10
571.627200
  20
466.975200
  0
VERTEX
  8
C7
  10
570.799000
  20
466.993600
  0
VERTEX
  8
C7
  10
570.000000
  20
467.000000
  0
VERTEX
  8
C7
  10
597.000000
  20
495.000000
  0
VERTEX
  8
C7
  10
596.244200
  20
494.452100
  0
VERTEX
  8
C7
  10
595.499200
  20
493.881800
  0
VERTEX
  8
C7
  10
594.764100
  20
493.290400
  0
VERTEX
  8
C7
  10
594.038400
  20
492.679300
  0
VERTEX
  8
C7
  10
593.321400
  20
492.049600
  0
VERTEX
  8
C7
  10
592.612600
  20
491.402700
  0
VERTEX
  8
C7
  10
591.911200
  20
490.739900
  0
VERTEX
  8
C7
  10
591.216700
  20
490.062600
  0
VERTEX
  8
C7
  10
590.528300
  20
489.371900
  0
VERTEX
  8
C7
  10
589.845600
  20
488.669200
  0
VERTEX
  8
C7
  10
589.167800
  20
487.955800
  0
VERTEX
  8
C7
  10
588.494300
  20
487.233000
  0
VERTEX
  8
C7
  10
587.824500
  20
486.502200
  0
VERTEX
  8
C7
  10
587.157700
  20
485.764500
  0
VERTEX
  8
C7
  10
586.493400
  20
485.021300
  0
VERTEX
  8
C7
  10
585.830900
  20
484.273900
  0
VERTEX
  8
C7
  10
585.169500
  20
483.523600
  0
VERTEX
  8
C7
  10
584.508600
  20
482.771800
  0
VERTEX
  8
C7
  10
583.847600
  20
482.019600
  0
VERTEX
  8
C7
  10
583.185900
  20
481.268400
  0
VERTEX
  8
C7
  10
582.522800
  20
480.519500
  0
VERTEX
  8
C7
  10
581.857700
  20
479.774200
  0
VERTEX
  8
C7
  10
581.190000
  20
479.033900
  0
VERTEX
  8
C7
  10
580.519000
  20
478.299700
  0
VERTEX
  8
C7
  10
579.844100
  20
477.573000
  0
VERTEX
  8
C7
  10
579.164700
  20
476.855200
  0
VERTEX
  8
C7
  10
578.480100
  20
476.147400
  0
VERTEX
  8
C7
  10
577.789700
  20
475.451000
  0
VERTEX
  8
C7
  10
577.092900
  20
474.767400
  0
VERTEX
  8
C7
  10
576.389100
  20
474.097700
  0
VERTEX
  8
C7
  10
575.677500
  20
473.443400
  0
VERTEX
  8
C7
  10
574.957600
  20
472.805600
  0
VERTEX
  8
C7
  10
574.228800
  20
472.185800
  0
VERTEX
  8
C7
  10
573.490400
  20
471.585200
  0
VERTEX
  8
C7
  10
572.741700
  20
471.005000
  0
VERTEX
  8
C7
  10
571.982200
  20
470.446700
  0
VERTEX
  8
C7
  10
571.211300
  20
469.911500
  0
VERTEX
  8
C7
  10
570.428200
  20
469.400700
  0
VERTEX
  8
C7
  10
569.632400
  20
468.915600
  0
VERTEX
  8
C7
  10
568.823200
  20
468.457500
  0
VERTEX
  8
C7
  10
568.000000
  20
468.027700
  0
VERTEX
  8
C7
  10
567.280000
  20
467.690700
  0
VERTEX
  8
C7
  10
566.527100
  20
467.382100
  0
VERTEX
  8
C7
  10
565.742800
  20
467.100900
  0
VERTEX
  8
C7
  10
564.928700
  20
466.846100
  0
VERTEX
  8
C7
  10
564.086100
  20
466.616700
  0
VERTEX
  8
C7
  10
563.216700
  20
466.411700
  0
VERTEX
  8
C7
  10
562.321900
  20
466.230200
  0
VERTEX
  8
C7
  10
561.403300
  20
466.071200
  0
VERTEX
  8
C7
  10
560.462400
  20
465.933600
  0
VERTEX
  8
C7
  10
559.500700
  20
465.816600
  0
VERTEX
  8
C7
  10
558.519700
  20
465.719000
  0
VERTEX
  8
C7
  10
557.520900
  20
465.640000
  0
VERTEX
  8
C7
  10
556.505900
  20
465.578500
  0
VERTEX
  8
C7
  10
555.476100
  20
465.533500
  0
VERTEX
  8
C7
  10
554.433000
  20
465.504100
  0
VERTEX
  8
C7
  10
553.378200
  20
465.489300
  0
VERTEX
  8
C7
  10
552.313300
  20
465.488100
  0
VERTEX
  8
C7
  10
551.239600
  20
465.499500
  0
VERTEX
  8
C7
  10
550.158800
  20
465.522600
  0
VERTEX
  8
C7
  10
549.072200
  20
465.556200
  0
VERTEX
  8
C7
  10
547.981600
  20
465.599500
  0
VERTEX
  8
C7
  10
546.888200
  20
465.651500
  0
VERTEX
  8
C7
  10
545.793800
  20
465.711200
  0
VERTEX
  8
C7
  10
544.699800
  20
465.777600
  0
VERTEX
  8
C7
  10
543.607600
  20
465.849600
  0
VERTEX
  8
C7
  10
542.518900
  20
465.926400
  0
VERTEX
  8
C7
  10
541.435100
  20
466.007000
  0
VERTEX
  8
C7
  10
540.357700
  20
466.090200
  0
VERTEX
  8
C7
  10
539.288300
  20
466.175300
  0
VERTEX
  8
C7
  10
538.228400
  20
466.261100
  0
VERTEX
  8
C7
  10
537.179400
  20
466.346800
  0
VERTEX
  8
C7
  10
536.143000
  20
466.431200
  0
VERTEX
  8
C7
  10
535.120500
  20
466.513500
  0
VERTEX
  8
C7
  10
534.113600
  20
466.592600
  0
VERTEX
  8
C7
  10
533.123800
  20
466.667600
  0
VERTEX
  8
C7
  10
532.152500
  20
466.737500
  0
VERTEX
  8
C7
  10
531.201200
  20
466.801200
  0
VERTEX
  8
C7
  10
530.271500
  20
466.857800
  0
VERTEX
  8
C7
  10
529.365000
  20
466.906400
  0
VERTEX
  8
C7
  10
528.483000
  20
466.945800
  0
VERTEX
  8
C7
  10
527.627200
  20
466.975200
  0
VERTEX
  8
C7
  10
526.799000
  20
466.993600
  0
VERTEX
  8
C7
  10
526.000000
  20
467.000000
  0
VERTEX
  8
C7
  10
553.000000
  20
495.000000
  0
VERTEX
  8
C7
  10
552.244200
  20
494.452100
  0
VERTEX
  8
C7
  10
551.499200
  20
493.881800
  0
VERTEX
  8
C7
  10
550.764100
  20
493.290400
  0
VERTEX
  8
C7
  10
550.038400
  20
492.679300
  0
VERTEX
  8
C7
  10
549.321400
  20
492.049600
  0
VERTEX
  8
C7
  10
548.612600
  20
491.402700
  0
VERTEX
  8
C7
  10
547.911200
  20
490.739900
  0
VERTEX
  8
C7
  10
547.216700
  20
490.062600
  0
VERTEX
  8
C7
  10
546.528300
  20
489.371900
  0
VERTEX
  8
C7
  10
545.845600
  20
488.669200
  0
VERTEX
  8
C7
  10
545.167800
  20
487.955800
  0
VERTEX
  8
C7
  10
544.494300
  20
487.233000
  0
VERTEX
  8
C7
  10
543.824500
  20
486.502200
  0
VERTEX
  8
C7
  10
543.157700
  20
485.764500
  0
VERTEX
  8
C7
  10
542.493400
  20
485.021300
  0
VERTEX
  8
C7
  10
541.830900
  20
484.273900
  0
VERTEX
  8
C7
  10
541.169500
  20
483.523600
  0
VERTEX
  8
C7
  10
540.508600
  20
482.771800
  0
VERTEX
  8
C7
  10
539.847600
  20
482.019600
  0
VERTEX
  8
C7
  10
539.185900
  20
481.268400
  0
VERTEX
  8
C7
  10
538.522800
  20
480.519500
  0
VERTEX
  8
C7
  10
537.857700
  20
479.774200
  0
VERTEX
  8
C7
  10
537.190000
  20
479.033900
  0
VERTEX
  8
C7
  10
536.519000
  20
478.299700
  0
VERTEX
  8
C7
  10
535.844100
  20
477.573000
  0
VERTEX
  8
C7
  10
535.164700
  20
476.855200
  0
VERTEX
  8
C7
  10
534.480100
  20
476.147400
  0
VERTEX
  8
C7
  10
533.789700
  20
475.451000
  0
VERTEX
  8
C7
  10
533.092900
  20
474.767400
  0
VERTEX
  8
C7
  10
532.389100
  20
474.097700
  0
VERTEX
  8
C7
  10
531.677500
  20
473.443400
  0
VERTEX
  8
C7
  10
530.957600
  20
472.805600
  0
VERTEX
  8
C7
  10
530.228800
  20
472.185800
  0
VERTEX
  8
C7
  10
529.490400
  20
471.585200
  0
VERTEX
  8
C7
  10
528.741700
  20
471.005000
  0
VERTEX
  8
C7
  10
527.982200
  20
470.446700
  0
VERTEX
  8
C7
  10
527.211300
  20
469.911500
  0
VERTEX
  8
C7
  10
526.428200
  20
469.400700
  0
VERTEX
  8
C7
  10
525.632400
  20
468.915600
  0
VERTEX
  8
C7
  10
524.823200
  20
468.457500
  0
VERTEX
  8
C7
  10
524.000000
  20
468.027700
  0
VERTEX
  8
C7
  10
523.280000
  20
467.690700
  0
VERTEX
  8
C7
  10
522.527100
  20
467.382100
  0
VERTEX
  8
C7
  10
521.742800
  20
467.100900
  0
VERTEX
  8
C7
  10
520.928700
  20
466.846100
  0
VERTEX
  8
C7
  10
520.086100
  20
466.616700
  0
VERTEX
  8
C7
  10
519.216700
  20
466.411700
  0
VERTEX
  8
C7
  10
518.321900
  20
466.230200
  0
VERTEX
  8
C7
  10
517.403300
  20
466.071200
  0
VERTEX
  8
C7
  10
516.462400
  20
465.933600
  0
VERTEX
  8
C7
  10
515.500700
  20
465.816600
  0
VERTEX
  8
C7
  10
514.519700
  20
465.719000
  0
VERTEX
  8
C7
  10
513.520900
  20
465.640000
  0
VERTEX
  8
C7
  10
512.505900
  20
465.578500
  0
VERTEX
  8
C7
  10
511.476100
  20
465.533500
  0
VERTEX
  8
C7
  10
510.433000
  20
465.504100
  0
VERTEX
  8
C7
  10
509.378200
  20
465.489300
  0
VERTEX
  8
C7
  10
508.313300
  20
465.488100
  0
VERTEX
  8
C7
  10
507.239600
  20
465.499500
  0
VERTEX
  8
C7
  10
506.158800
  20
465.522600
  0
VERTEX
  8
C7
  10
505.072200
  20
465.556200
  0
VERTEX
  8
C7
  10
503.981600
  20
465.599500
  0
VERTEX
  8
C7
  10
502.888200
  20
465.651500
  0
VERTEX
  8
C7
  10
501.793800
  20
465.711200
  0
VERTEX
  8
C7
  10
500.699800
  20
465.777600
  0
VERTEX
  8
C7
  10
499.607600
  20
465.849600
  0
VERTEX
  8
C7
  10
498.518900
  20
465.926400
  0
VERTEX
  8
C7
  10
497.435100
  20
466.007000
  0
VERTEX
  8
C7
  10
496.357700
  20
466.090200
  0
VERTEX
  8
C7
  10
495.288300
  20
466.175300
  0
VERTEX
  8
C7
  10
494.228400
  20
466.261100
  0
VERTEX
  8
C7
  10
493.179400
  20
466.346800
  0
VERTEX
  8
C7
  10
492.143000
  20
466.431200
  0
VERTEX
  8
C7
  10
491.120500
  20
466.513500
  0
VERTEX
  8
C7
  10
490.113600
  20
466.592600
  0
VERTEX
  8
C7
  10
489.123800
  20
466.667600
  0
VERTEX
  8
C7
  10
488.152500
  20
466.737500
  0
VERTEX
  8
C7
  10
487.201200
  20
466.801200
  0
VERTEX
  8
C7
  10
486.271500
  20
466.857800
  0
VERTEX
  8
C7
  10
485.365000
  20
466.906400
  0
VERTEX
  8
C7
  10
484.483000
  20
466.945800
  0
VERTEX
  8
C7
  10
483.627200
  20
466.975200
  0
VERTEX
  8
C7
  10
482.799000
  20
466.993600
  0
VERTEX
  8
C7
  10
482.000000
  20
467.000000
  0
VERTEX
  8
C7
  10
509.000000
  20
495.000000
  0
VERTEX
  8
C7
  10
508.244200
  20
494.452100
  0
VERTEX
  8
C7
  10
507.499200
  20
493.881800
  0
VERTEX
  8
C7
  10
506.764100
  20
493.290500
  0
VERTEX
  8
C7
  10
506.038400
  20
492.679300
  0
VERTEX
  8
C7
  10
505.321400
  20
492.049600
  0
VERTEX
  8
C7
  10
504.612600
  20
491.402800
  0
VERTEX
  8
C7
  10
503.911200
  20
490.740000
  0
VERTEX
  8
C7
  10
503.216700
  20
490.062600
  0
VERTEX
  8
C7
  10
502.528300
  20
489.371900
  0
VERTEX
  8
C7
  10
501.845600
  20
488.669300
  0
VERTEX
  8
C7
  10
501.167800
  20
487.955900
  0
VERTEX
  8
C7
  10
500.494300
  20
487.233100
  0
VERTEX
  8
C7
  10
499.824500
  20
486.502200
  0
VERTEX
  8
C7
  10
499.157700
  20
485.764500
  0
VERTEX
  8
C7
  10
498.493400
  20
485.021400
  0
VERTEX
  8
C7
  10
497.830900
  20
484.274000
  0
VERTEX
  8
C7
  10
497.169500
  20
483.523700
  0
VERTEX
  8
C7
  10
496.508600
  20
482.771800
  0
VERTEX
  8
C7
  10
495.847600
  20
482.019600
  0
VERTEX
  8
C7
  10
495.185900
  20
481.268500
  0
VERTEX
  8
C7
  10
494.522800
  20
480.519600
  0
VERTEX
  8
C7
  10
493.857700
  20
479.774300
  0
VERTEX
  8
C7
  10
493.190000
  20
479.033900
  0
VERTEX
  8
C7
  10
492.519000
  20
478.299800
  0
VERTEX
  8
C7
  10
491.844100
  20
477.573100
  0
VERTEX
  8
C7
  10
491.164700
  20
476.855200
  0
VERTEX
  8
C7
  10
490.480100
  20
476.147500
  0
VERTEX
  8
C7
  10
489.789700
  20
475.451100
  0
VERTEX
  8
C7
  10
489.092900
  20
474.767500
  0
VERTEX
  8
C7
  10
488.389100
  20
474.097800
  0
VERTEX
  8
C7
  10
487.677500
  20
473.443400
  0
VERTEX
  8
C7
  10
486.957600
  20
472.805700
  0
VERTEX
  8
C7
  10
486.228800
  20
472.185900
  0
VERTEX
  8
C7
  10
485.490400
  20
471.585200
  0
VERTEX
  8
C7
  10
484.741700
  20
471.005100
  0
VERTEX
  8
C7
  10
483.982200
  20
470.446700
  0
VERTEX
  8
C7
  10
483.211300
  20
469.911500
  0
VERTEX
  8
C7
  10
482.428200
  20
469.400700
  0
VERTEX
  8
C7
  10
481.632400
  20
468.915600
  0
VERTEX
  8
C7
  10
480.823200
  20
468.457500
  0
VERTEX
  8
C7
  10
480.000000
  20
468.027700
  0
VERTEX
  8
C7
  10
479.280000
  20
467.690700
  0
VERTEX
  8
C7
  10
478.527100
  20
467.382100
  0
VERTEX
  8
C7
  10
477.742800
  20
467.100900
  0
VERTEX
  8
C7
  10
476.928700
  20
466.846100
  0
VERTEX
  8
C7
  10
476.086100
  20
466.616700
  0
VERTEX
  8
C7
  10
475.216700
  20
466.411700
  0
VERTEX
  8
C7
  10
474.321900
  20
466.230200
  0
VERTEX
  8
C7
  10
473.403300
  20
466.071200
  0
VERTEX
  8
C7
  10
472.462400
  20
465.933600
  0
VERTEX
  8
C7
  10
471.500700
  20
465.816600
  0
VERTEX
  8
C7
  10
470.519700
  20
465.719000
  0
VERTEX
  8
C7
  10
469.520900
  20
465.640000
  0
VERTEX
  8
C7
  10
468.505900
  20
465.578500
  0
VERTEX
  8
C7
  10
467.476100
  20
465.533500
  0
VERTEX
  8
C7
  10
466.433000
  20
465.504100
  0
VERTEX
  8
C7
  10
465.378200
  20
465.489300
  0
VERTEX
  8
C7
  10
464.313300
  20
465.488100
  0
VERTEX
  8
C7
  10
463.239600
  20
465.499500
  0
VERTEX
  8
C7
  10
462.158800
  20
465.522600
  0
VERTEX
  8
C7
  10
461.072200
  20
465.556200
  0
VERTEX
  8
C7
  10
459.981600
  20
465.599500
  0
VERTEX
  8
C7
  10
458.888200
  20
465.651500
  0
VERTEX
  8
C7
  10
457.793800
  20
465.711200
  0
VERTEX
  8
C7
  10
456.699800
  20
465.777600
  0
VERTEX
  8
C7
  10
455.607600
  20
465.849600
  0
VERTEX
  8
C7
  10
454.518900
  20
465.926400
  0
VERTEX
  8
C7
  10
453.435100
  20
466.007000
  0
VERTEX
  8
C7
  10
452.357700
  20
466.090200
  0
VERTEX
  8
C7
  10
451.288300
  20
466.175300
  0
VERTEX
  8
C7
  10
450.228400
  20
466.261100
  0
VERTEX
  8
C7
  10
449.179400
  20
466.346800
  0
VERTEX
  8
C7
  10
448.143000
  20
466.431200
  0
VERTEX
  8
C7
  10
447.120500
  20
466.513500
  0
VERTEX
  8
C7
  10
446.113600
  20
466.592600
  0
VERTEX
  8
C7
  10
445.123800
  20
466.667600
  0
VERTEX
  8
C7
  10
444.152500
  20
466.737500
  0
VERTEX
  8
C7
  10
443.201200
  20
466.801200
  0
VERTEX
  8
C7
  10
442.271500
  20
466.857800
  0
VERTEX
  8
C7
  10
441.365000
  20
466.906400
  0
VERTEX
  8
C7
  10
440.483000
  20
466.945800
  0
VERTEX
  8
C7
  10
439.627200
  20
466.975200
  0
VERTEX
  8
C7
  10
438.799000
  20
466.993600
  0
VERTEX
  8
C7
  10
438.000000
  20
467.000000
  0
VERTEX
  8
C7
  10
465.000000
  20
495.000000
  0
VERTEX
  8
C7
  10
464.221200
  20
494.439300
  0
VERTEX
  8
C7
  10
463.456600
  20
493.865600
  0
VERTEX
  8
C7
  10
462.705500
  20
493.279500
  0
VERTEX
  8
C7
  10
461.967200
  20
492.681900
  0
VERTEX
  8
C7
  10
461.241000
  20
492.073800
  0
VERTEX
  8
C7
  10
460.526200
  20
491.455900
  0
VERTEX
  8
C7
  10
459.822100
  20
490.829100
  0
VERTEX
  8
C7
  10
459.128100
  20
490.194300
  0
VERTEX
  8
C7
  10
458.443300
  20
489.552300
  0
VERTEX
  8
C7
  10
457.767200
  20
488.903900
  0
VERTEX
  8
C7
  10
457.099100
  20
488.250100
  0
VERTEX
  8
C7
  10
456.438200
  20
487.591600
  0
VERTEX
  8
C7
  10
455.783800
  20
486.929400
  0
VERTEX
  8
C7
  10
455.135300
  20
486.264200
  0
VERTEX
  8
C7
  10
454.492000
  20
485.597000
  0
VERTEX
  8
C7
  10
453.853100
  20
484.928600
  0
VERTEX
  8
C7
  10
453.218100
  20
484.259800
  0
VERTEX
  8
C7
  10
452.586100
  20
483.591500
  0
VERTEX
  8
C7
  10
451.956500
  20
482.924600
  0
VERTEX
  8
C7
  10
451.328500
  20
482.259800
  0
VERTEX
  8
C7
  10
450.701600
  20
481.598200
  0
VERTEX
  8
C7
  10
450.075000
  20
480.940400
  0
VERTEX
  8
C7
  10
449.448000
  20
480.287400
  0
VERTEX
  8
C7
  10
448.820000
  20
479.640000
  0
VERTEX
  8
C7
  10
448.190100
  20
478.999100
  0
VERTEX
  8
C7
  10
447.557800
  20
478.365500
  0
VERTEX
  8
C7
  10
446.922300
  20
477.740100
  0
VERTEX
  8
C7
  10
446.283000
  20
477.123800
  0
VERTEX
  8
C7
  10
445.639100
  20
476.517300
  0
VERTEX
  8
C7
  10
444.990000
  20
475.921500
  0
VERTEX
  8
C7
  10
444.335000
  20
475.337400
  0
VERTEX
  8
C7
  10
443.673300
  20
474.765700
  0
VERTEX
  8
C7
  10
443.004300
  20
474.207300
  0
VERTEX
  8
C7
  10
442.327200
  20
473.663100
  0
VERTEX
  8
C7
  10
441.641500
  20
473.133900
  0
VERTEX
  8
C7
  10
440.946400
  20
472.620500
  0
VERTEX
  8
C7
  10
440.241100
  20
472.123900
  0
VERTEX
  8
C7
  10
439.525100
  20
471.644800
  0
VERTEX
  8
C7
  10
438.797600
  20
471.184200
  0
VERTEX
  8
C7
  10
438.057900
  20
470.742800
  0
VERTEX
  8
C7
  10
437.305300
  20
470.321600
  0
VERTEX
  8
C7
  10
436.539100
  20
469.921400
  0
VERTEX
  8
C7
  10
435.758700
  20
469.543000
  0
VERTEX
  8
C7
  10
434.963400
  20
469.187300
  0
VERTEX
  8
C7
  10
434.152400
  20
468.855100
  0
VERTEX
  8
C7
  10
433.325000
  20
468.547400
  0
VERTEX
  8
C7
  10
432.480600
  20
468.264900
  0
VERTEX
  8
C7
  10
431.618500
  20
468.008500
  0
VERTEX
  8
C7
  10
430.737900
  20
467.779100
  0
VERTEX
  8
C7
  10
429.838300
  20
467.577500
  0
VERTEX
  8
C7
  10
428.918800
  20
467.404600
  0
VERTEX
  8
C7
  10
427.978800
  20
467.261200
  0
VERTEX
  8
C7
  10
427.017600
  20
467.148200
  0
VERTEX
  8
C7
  10
426.034600
  20
467.066400
  0
VERTEX
  8
C7
  10
425.028900
  20
467.016700
  0
VERTEX
  8
C7
  10
424.000000
  20
467.000000
  0
VERTEX
  8
C7
  10
424.000000
  20
515.000000
  0
VERTEX
  8
C7
  10
437.000000
  20
513.000000
  0
VERTEX
  8
C7
  10
457.000000
  20
515.000000
  0
VERTEX
  8
C7
  10
457.000000
  20
516.000000
  0
VERTEX
  8
C7
  10
456.230800
  20
515.988000
  0
VERTEX
  8
C7
  10
455.408500
  20
515.955400
  0
VERTEX
  8
C7
  10
454.539300
  20
515.906900
  0
VERTEX
  8
C7
  10
453.629500
  20
515.847400
  0
VERTEX
  8
C7
  10
452.685300
  20
515.781600
  0
VERTEX
  8
C7
  10
451.713200
  20
515.714300
  0
VERTEX
  8
C7
  10
450.719300
  20
515.650300
  0
VERTEX
  8
C7
  10
449.709900
  20
515.594500
  0
VERTEX
  8
C7
  10
448.691500
  20
515.551700
  0
VERTEX
  8
C7
  10
447.670200
  20
515.526600
  0
VERTEX
  8
C7
  10
446.652300
  20
515.524000
  0
VERTEX
  8
C7
  10
445.644200
  20
515.548800
  0
VERTEX
  8
C7
  10
444.652200
  20
515.605700
  0
VERTEX
  8
C7
  10
443.682500
  20
515.699600
  0
VERTEX
  8
C7
  10
442.741500
  20
515.835200
  0
VERTEX
  8
C7
  10
441.835400
  20
516.017500
  0
VERTEX
  8
C7
  10
440.970500
  20
516.251000
  0
VERTEX
  8
C7
  10
440.153200
  20
516.540800
  0
VERTEX
  8
C7
  10
439.389700
  20
516.891500
  0
VERTEX
  8
C7
  10
438.686300
  20
517.307900
  0
VERTEX
  8
C7
  10
438.049400
  20
517.795000
  0
VERTEX
  8
C7
  10
437.485200
  20
518.357400
  0
VERTEX
  8
C7
  10
437.000000
  20
519.000000
  0
VERTEX
  8
C7
  10
424.000000
  20
517.000000
  0
VERTEX
  8
C7
  10
424.000000
  20
521.000000
  0
VERTEX
  8
C7
  10
423.000000
  20
521.000000
  0
VERTEX
  8
C7
  10
423.000000
  20
467.000000
  0
VERTEX
  8
C7
  10
394.000000
  20
467.000000
  0
VERTEX
  8
C7
  10
421.000000
  20
495.000000
  0
VERTEX
  8
C7
  10
392.000000
  20
468.027771
  0
VERTEX
  8
C7
  10
361.000000
  20
467.000000
  0
VERTEX
  8
C7
  10
361.019600
  20
468.131000
  0
VERTEX
  8
C7
  10
361.077600
  20
469.216800
  0
VERTEX
  8
C7
  10
361.172800
  20
470.259500
  0
VERTEX
  8
C7
  10
361.303800
  20
471.261300
  0
VERTEX
  8
C7
  10
361.469600
  20
472.224500
  0
VERTEX
  8
C7
  10
361.668700
  20
473.151200
  0
VERTEX
  8
C7
  10
361.900000
  20
474.043700
  0
VERTEX
  8
C7
  10
362.162300
  20
474.904200
  0
VERTEX
  8
C7
  10
362.454200
  20
475.735000
  0
VERTEX
  8
C7
  10
362.774600
  20
476.538100
  0
VERTEX
  8
C7
  10
363.122100
  20
477.315900
  0
VERTEX
  8
C7
  10
363.495600
  20
478.070500
  0
VERTEX
  8
C7
  10
363.893800
  20
478.804200
  0
VERTEX
  8
C7
  10
364.315400
  20
479.519200
  0
VERTEX
  8
C7
  10
364.759200
  20
480.217700
  0
VERTEX
  8
C7
  10
365.223900
  20
480.901900
  0
VERTEX
  8
C7
  10
365.708400
  20
481.574100
  0
VERTEX
  8
C7
  10
366.211300
  20
482.236400
  0
VERTEX
  8
C7
  10
366.731500
  20
482.891000
  0
VERTEX
  8
C7
  10
367.267600
  20
483.540300
  0
VERTEX
  8
C7
  10
367.818400
  20
484.186300
  0
VERTEX
  8
C7
  10
368.382700
  20
484.831400
  0
VERTEX
  8
C7
  10
368.959300
  20
485.477700
  0
VERTEX
  8
C7
  10
369.546800
  20
486.127500
  0
VERTEX
  8
C7
  10
370.144000
  20
486.782900
  0
VERTEX
  8
C7
  10
370.749800
  20
487.446200
  0
VERTEX
  8
C7
  10
371.362800
  20
488.119600
  0
VERTEX
  8
C7
  10
371.981700
  20
488.805300
  0
VERTEX
  8
C7
  10
372.605500
  20
489.505500
  0
VERTEX
  8
C7
  10
373.232700
  20
490.222500
  0
VERTEX
  8
C7
  10
373.862200
  20
490.958400
  0
VERTEX
  8
C7
  10
374.492700
  20
491.715500
  0
VERTEX
  8
C7
  10
375.123000
  20
492.496000
  0
VERTEX
  8
C7
  10
375.751800
  20
493.302100
  0
VERTEX
  8
C7
  10
376.377900
  20
494.136000
  0
VERTEX
  8
C7
  10
377.000000
  20
495.000000
  0
VERTEX
  8
C7
  10
361.000000
  20
480.000000
  0
VERTEX
  8
C7
  10
361.005800
  20
480.846800
  0
VERTEX
  8
C7
  10
361.022600
  20
481.715800
  0
VERTEX
  8
C7
  10
361.049500
  20
482.605800
  0
VERTEX
  8
C7
  10
361.085500
  20
483.515500
  0
VERTEX
  8
C7
  10
361.129800
  20
484.443900
  0
VERTEX
  8
C7
  10
361.181300
  20
485.389600
  0
VERTEX
  8
C7
  10
361.239100
  20
486.351500
  0
VERTEX
  8
C7
  10
361.302400
  20
487.328400
  0
VERTEX
  8
C7
  10
361.370100
  20
488.319100
  0
VERTEX
  8
C7
  10
361.441400
  20
489.322500
  0
VERTEX
  8
C7
  10
361.515200
  20
490.337400
  0
VERTEX
  8
C7
  10
361.590800
  20
491.362500
  0
VERTEX
  8
C7
  10
361.667000
  20
492.396700
  0
VERTEX
  8
C7
  10
361.743100
  20
493.438800
  0
VERTEX
  8
C7
  10
361.818000
  20
494.487600
  0
VERTEX
  8
C7
  10
361.890900
  20
495.541900
  0
VERTEX
  8
C7
  10
361.960700
  20
496.600500
  0
VERTEX
  8
C7
  10
362.026700
  20
497.662300
  0
VERTEX
  8
C7
  10
362.087700
  20
498.726000
  0
VERTEX
  8
C7
  10
362.143000
  20
499.790500
  0
VERTEX
  8
C7
  10
362.191500
  20
500.854600
  0
VERTEX
  8
C7
  10
362.232300
  20
501.917100
  0
VERTEX
  8
C7
  10
362.264600
  20
502.976700
  0
VERTEX
  8
C7
  10
362.287300
  20
504.032400
  0
VERTEX
  8
C7
  10
362.299500
  20
505.082900
  0
VERTEX
  8
C7
  10
362.300300
  20
506.127100
  0
VERTEX
  8
C7
  10
362.288800
  20
507.163700
  0
VERTEX
  8
C7
  10
362.264000
  20
508.191600
  0
VERTEX
  8
C7
  10
362.225000
  20
509.209500
  0
VERTEX
  8
C7
  10
362.170900
  20
510.216400
  0
VERTEX
  8
C7
  10
362.100600
  20
511.211000
  0
VERTEX
  8
C7
  10
362.013400
  20
512.192000
  0
VERTEX
  8
C7
  10
361.908200
  20
513.158400
  0
VERTEX
  8
C7
  10
361.784100
  20
514.109000
  0
VERTEX
  8
C7
  10
361.640300
  20
515.042500
  0
VERTEX
  8
C7
  10
361.475700
  20
515.957700
  0
VERTEX
  8
C7
  10
361.289400
  20
516.853600
  0
VERTEX
  8
C7
  10
361.080400
  20
517.728800
  0
VERTEX
  8
C7
  10
360.848000
  20
518.582300
  0
VERTEX
  8
C7
  10
360.591000
  20
519.412700
  0
VERTEX
  8
C7
  10
360.308700
  20
520.219000
  0
VERTEX
  8
C7
  10
360.000000
  20
521.000000
  0
SEQEND
  8
C7
  0
POLYLINE
  8
C7
  66
1
  10
530.000000
  20
521.000000
  0
VERTEX
  8
C7
  10
530.000000
  20
521.000000
  0
VERTEX
  8
C7
  10
530.000000
  20
511.000000
  0
VERTEX
  8
C7
  10
532.000000
  20
511.000000
  0
VERTEX
  8
C7
  10
535.000000
  20
519.000000
  0
VERTEX
  8
C7
  10
535.000000
  20
511.000000
  0
VERTEX
  8
C7
  10
538.000000
  20
511.000000
  0
VERTEX
  8
C7
  10
539.000000
  20
519.000000
  0
VERTEX
  8
C7
  10
540.000000
  20
519.000000
  0
VERTEX
  8
C7
  10
541.000000
  20
511.000000
  0
VERTEX
  8
C7
  10
543.000000
  20
511.000000
  0
VERTEX
  8
C7
  10
543.000000
  20
521.000000
  0
VERTEX
  8
C7
  10
530.000000
  20
521.000000
  0
SEQEND
  8
C7
  0
POLYLINE
  8
C7
  66
1
  10
545.000000
  20
521.000000
  0
VERTEX
  8
C7
  10
545.000000
  20
521.000000
  0
VERTEX
  8
C7
  10
545.000000
  20
511.000000
  0
VERTEX
  8
C7
  10
547.000000
  20
511.000000
  0
VERTEX
  8
C7
  10
550.000000
  20
519.000000
  0
VERTEX
  8
C7
  10
550.000000
  20
511.000000
  0
VERTEX
  8
C7
  10
553.000000
  20
511.000000
  0
VERTEX
  8
C7
  10
554.000000
  20
519.000000
  0
VERTEX
  8
C7
  10
555.000000
  20
519.000000
  0
VERTEX
  8
C7
  10
556.000000
  20
511.000000
  0
VERTEX
  8
C7
  10
558.000000
  20
511.000000
  0
VERTEX
  8
C7
  10
558.032300
  20
512.276300
  0
VERTEX
  8
C7
  10
558.021700
  20
513.439700
  0
VERTEX
  8
C7
  10
557.967200
  20
514.495200
  0
VERTEX
  8
C7
  10
557.867900
  20
515.448100
  0
VERTEX
  8
C7
  10
557.722800
  20
516.303600
  0
VERTEX
  8
C7
  10
557.530900
  20
517.066900
  0
VERTEX
  8
C7
  10
557.291400
  20
517.743300
  0
VERTEX
  8
C7
  10
557.003200
  20
518.338000
  0
VERTEX
  8
C7
  10
556.665500
  20
518.856100
  0
VERTEX
  8
C7
  10
556.277200
  20
519.303000
  0
VERTEX
  8
C7
  10
555.837300
  20
519.683900
  0
VERTEX
  8
C7
  10
555.345100
  20
520.003900
  0
VERTEX
  8
C7
  10
554.799400
  20
520.268300
  0
VERTEX
  8
C7
  10
554.199400
  20
520.482300
  0
VERTEX
  8
C7
  10
553.544100
  20
520.651200
  0
VERTEX
  8
C7
  10
552.832500
  20
520.780100
  0
VERTEX
  8
C7
  10
552.063700
  20
520.874200
  0
VERTEX
  8
C7
  10
551.236700
  20
520.938900
  0
VERTEX
  8
C7
  10
550.350600
  20
520.979300
  0
VERTEX
  8
C7
  10
549.404400
  20
521.000700
  0
VERTEX
  8
C7
  10
548.397200
  20
521.008200
  0
VERTEX
  8
C7
  10
547.328000
  20
521.007100
  0
VERTEX
  8
C7
  10
546.195900
  20
521.002600
  0
VERTEX
  8
C7
  10
545.000000
  20
521.000000
  0
SEQEND
  8
C7
  0
POLYLINE
  8
C7
  66
1
  10
198.000000
  20
516.000000
  0
VERTEX
  8
C7
  10
198.000000
  20
516.000000
  0
VERTEX
  8
C7
  10
204.000000
  20
518.000000
  0
VERTEX
  8
C7
  10
197.000000
  20
506.000000
  0
VERTEX
  8
C7
  10
207.000000
  20
506.000000
  0
VERTEX
  8
C7
  10
207.000000
  20
509.000000
  0
VERTEX
  8
C7
  10
202.000000
  20
509.000000
  0
VERTEX
  8
C7
  10
202.674300
  20
509.712400
  0
VERTEX
  8
C7
  10
203.390700
  20
510.463000
  0
VERTEX
  8
C7
  10
204.112700
  20
511.252400
  0
VERTEX
  8
C7
  10
204.804200
  20
512.081600
  0
VERTEX
  8
C7
  10
205.428800
  20
512.951200
  0
VERTEX
  8
C7
  10
205.950400
  20
513.862300
  0
VERTEX
  8
C7
  10
206.332600
  20
514.815500
  0
VERTEX
  8
C7
  10
206.539200
  20
515.811700
  0
VERTEX
  8
C7
  10
206.533900
  20
516.851800
  0
VERTEX
  8
C7
  10
206.346900
  20
517.773100
  0
VERTEX
  8
C7
  10
206.033500
  20
518.512600
  0
VERTEX
  8
C7
  10
205.610800
  20
519.081300
  0
VERTEX
  8
C7
  10
205.096100
  20
519.490300
  0
VERTEX
  8
C7
  10
204.506500
  20
519.750700
  0
VERTEX
  8
C7
  10
203.859300
  20
519.873800
  0
VERTEX
  8
C7
  10
203.171500
  20
519.870700
  0
VERTEX
  8
C7
  10
202.460600
  20
519.752500
  0
VERTEX
  8
C7
  10
201.743600
  20
519.530300
  0
VERTEX
  8
C7
  10
201.037700
  20
519.215300
  0
VERTEX
  8
C7
  10
200.360200
  20
518.818600
  0
VERTEX
  8
C7
  10
199.728200
  20
518.351400
  0
VERTEX
  8
C7
  10
199.159000
  20
517.824800
  0
VERTEX
  8
C7
  10
198.669800
  20
517.249900
  0
VERTEX
  8
C7
  10
198.277700
  20
516.637900
  0
VERTEX
  8
C7
  10
198.000000
  20
516.000000
  0
SEQEND
  8
C7
  0
POLYLINE
  8
C7
  66
1
  10
214.000000
  20
515.000000
  0
VERTEX
  8
C7
  10
214.000000
  20
515.000000
  0
VERTEX
  8
C7
  10
217.000000
  20
506.000000
  0
VERTEX
  8
C7
  10
220.000000
  20
506.000000
  0
VERTEX
  8
C7
  10
220.000000
  20
520.000000
  0
VERTEX
  8
C7
  10
214.000000
  20
515.000000
  0
SEQEND
  8
C7
  0
POLYLINE
  8
C7
  66
1
  10
226.000000
  20
520.000000
  0
VERTEX
  8
C7
  10
226.000000
  20
520.000000
  0
VERTEX
  8
C7
  10
222.000000
  20
506.000000
  0
VERTEX
  8
C7
  10
222.799400
  20
506.256000
  0
VERTEX
  8
C7
  10
223.520800
  20
506.656200
  0
VERTEX
  8
C7
  10
224.168600
  20
507.185900
  0
VERTEX
  8
C7
  10
224.747200
  20
507.830500
  0
VERTEX
  8
C7
  10
225.261100
  20
508.575400
  0
VERTEX
  8
C7
  10
225.714800
  20
509.405800
  0
VERTEX
  8
C7
  10
226.112700
  20
510.307200
  0
VERTEX
  8
C7
  10
226.459200
  20
511.264800
  0
VERTEX
  8
C7
  10
226.758800
  20
512.264100
  0
VERTEX
  8
C7
  10
227.015900
  20
513.290400
  0
VERTEX
  8
C7
  10
227.235000
  20
514.329100
  0
VERTEX
  8
C7
  10
227.420500
  20
515.365400
  0
VERTEX
  8
C7
  10
227.576900
  20
516.384800
  0
VERTEX
  8
C7
  10
227.708600
  20
517.372600
  0
VERTEX
  8
C7
  10
227.820000
  20
518.314200
  0
VERTEX
  8
C7
  10
227.915700
  20
519.194800
  0
VERTEX
  8
C7
  10
228.000000
  20
520.000000
  0
VERTEX
  8
C7
  10
226.000000
  20
520.000000
  0
SEQEND
  8
C7
  0
POLYLINE
  8
C7
  66
1
  10
228.000000
  20
510.000000
  0
VERTEX
  8
C7
  10
228.000000
  20
510.000000
  0
VERTEX
  8
C7
  10
233.000000
  20
510.000000
  0
VERTEX
  8
C7
  10
233.000000
  20
506.000000
  0
VERTEX
  8
C7
  10
236.000000
  20
506.000000
  0
VERTEX
  8
C7
  10
238.000000
  20
510.000000
  0
VERTEX
  8
C7
  10
238.000000
  20
511.000000
  0
VERTEX
  8
C7
  10
238.000000
  20
512.000000
  0
VERTEX
  8
C7
  10
236.000000
  20
520.000000
  0
VERTEX
  8
C7
  10
234.985100
  20
519.655700
  0
VERTEX
  8
C7
  10
234.053000
  20
519.246400
  0
VERTEX
  8
C7
  10
233.199800
  20
518.774100
  0
VERTEX
  8
C7
  10
232.422100
  20
518.240700
  0
VERTEX
  8
C7
  10
231.716200
  20
517.648400
  0
VERTEX
  8
C7
  10
231.078600
  20
516.999200
  0
VERTEX
  8
C7
  10
230.505500
  20
516.295100
  0
VERTEX
  8
C7
  10
229.993400
  20
515.538100
  0
VERTEX
  8
C7
  10
229.538800
  20
514.730200
  0
VERTEX
  8
C7
  10
229.137900
  20
513.873600
  0
VERTEX
  8
C7
  10
228.787200
  20
512.970200
  0
VERTEX
  8
C7
  10
228.483000
  20
512.022200
  0
VERTEX
  8
C7
  10
228.221800
  20
511.031400
  0
VERTEX
  8
C7
  10
228.000000
  20
510.000000
  0
SEQEND
  8
C7
  0
POLYLINE
  8
C7
  66
1
  10
238.000000
  20
520.000000
  0
VERTEX
  8
C7
  10
238.000000
  20
520.000000
  0
VERTEX
  8
C7
  10
238.000000
  20
515.000000
  0
VERTEX
  8
C7
  10
244.000000
  20
515.000000
  0
VERTEX
  8
C7
  10
244.000000
  20
520.000000
  0
VERTEX
  8
C7
  10
238.000000
  20
520.000000
  0
SEQEND
  8
C7
  0
POLYLINE
  8
C7
  66
1
  10
252.000000
  20
520.000000
  0
VERTEX
  8
C7
  10
252.000000
  20
520.000000
  0
VERTEX
  8
C7
  10
251.000000
  20
512.000000
  0
VERTEX
  8
C7
  10
256.000000
  20
514.000000
  0
VERTEX
  8
C7
  10
257.000000
  20
509.000000
  0
VERTEX
  8
C7
  10
251.000000
  20
511.000000
  0
VERTEX
  8
C7
  10
251.255900
  20
510.249600
  0
VERTEX
  8
C7
  10
251.539600
  20
509.584500
  0
VERTEX
  8
C7
  10
251.848200
  20
509.001400
  0
VERTEX
  8
C7
  10
252.178800
  20
508.497000
  0
VERTEX
  8
C7
  10
252.528600
  20
508.068300
  0
VERTEX
  8
C7
  10
252.894800
  20
507.712000
  0
VERTEX
  8
C7
  10
253.274400
  20
507.424900
  0
VERTEX
  8
C7
  10
253.664800
  20
507.203700
  0
VERTEX
  8
C7
  10
254.063100
  20
507.045400
  0
VERTEX
  8
C7
  10
254.466400
  20
506.946700
  0
VERTEX
  8
C7
  10
254.871800
  20
506.904400
  0
VERTEX
  8
C7
  10
255.276700
  20
506.915300
  0
VERTEX
  8
C7
  10
255.678000
  20
506.976200
  0
VERTEX
  8
C7
  10
256.073100
  20
507.083900
  0
VERTEX
  8
C7
  10
256.459000
  20
507.235300
  0
VERTEX
  8
C7
  10
256.832900
  20
507.427000
  0
VERTEX
  8
C7
  10
257.192000
  20
507.656000
  0
VERTEX
  8
C7
  10
257.533500
  20
507.919000
  0
VERTEX
  8
C7
  10
257.854500
  20
508.212800
  0
VERTEX
  8
C7
  10
258.152200
  20
508.534200
  0
VERTEX
  8
C7
  10
258.423800
  20
508.880000
  0
VERTEX
  8
C7
  10
258.666400
  20
509.247100
  0
VERTEX
  8
C7
  10
258.877100
  20
509.632200
  0
VERTEX
  8
C7
  10
259.053200
  20
510.032100
  0
VERTEX
  8
C7
  10
259.191800
  20
510.443700
  0
VERTEX
  8
C7
  10
259.290200
  20
510.863700
  0
VERTEX
  8
C7
  10
259.345300
  20
511.288900
  0
VERTEX
  8
C7
  10
259.354500
  20
511.716100
  0
VERTEX
  8
C7
  10
259.314900
  20
512.142200
  0
VERTEX
  8
C7
  10
259.223600
  20
512.563900
  0
VERTEX
  8
C7
  10
259.077800
  20
512.978100
  0
VERTEX
  8
C7
  10
258.874700
  20
513.381500
  0
VERTEX
  8
C7
  10
258.611500
  20
513.770900
  0
VERTEX
  8
C7
  10
258.285300
  20
514.143200
  0
VERTEX
  8
C7
  10
257.893200
  20
514.495100
  0
VERTEX
  8
C7
  10
257.432500
  20
514.823400
  0
VERTEX
  8
C7
  10
256.900300
  20
515.125000
  0
VERTEX
  8
C7
  10
256.293800
  20
515.396700
  0
VERTEX
  8
C7
  10
255.610100
  20
515.635200
  0
VERTEX
  8
C7
  10
254.846400
  20
515.837300
  0
VERTEX
  8
C7
  10
254.000000
  20
516.000000
  0
VERTEX
  8
C7
  10
254.000000
  20
518.000000
  0
VERTEX
  8
C7
  10
260.000000
  20
518.000000
  0
VERTEX
  8
C7
  10
260.000000
  20
520.000000
  0
VERTEX
  8
C7
  10
252.000000
  20
520.000000
  0
SEQEND
  8
C7
  0
POLYLINE
  8
C7
  66
1
  10
261.000000
  20
520.000000
  0
VERTEX
  8
C7
  10
261.000000
  20
520.000000
  0
VERTEX
  8
C7
  10
261.000000
  20
518.000000
  0
VERTEX
  8
C7
  10
266.000000
  20
518.000000
  0
VERTEX
  8
C7
  10
263.000000
  20
506.000000
  0
VERTEX
  8
C7
  10
270.000000
  20
520.000000
  0
VERTEX
  8
C7
  10
261.000000
  20
520.000000
  0
SEQEND
  8
C7
  0
POLYLINE
  8
C7
  66
1
  10
465.000000
  20
519.000000
  0
VERTEX
  8
C7
  10
465.000000
  20
519.000000
  0
VERTEX
  8
C7
  10
464.000000
  20
516.000000
  0
VERTEX
  8
C7
  10
465.000000
  20
519.000000
  0
SEQEND
  8
C7
  0
POLYLINE
  8
C7
  66
1
  10
523.000000
  20
518.000000
  0
VERTEX
  8
C7
  10
523.000000
  20
518.000000
  0
VERTEX
  8
C7
  10
523.000000
  20
513.000000
  0
VERTEX
  8
C7
  10
525.000000
  20
513.000000
  0
VERTEX
  8
C7
  10
525.000000
  20
518.000000
  0
VERTEX
  8
C7
  10
523.000000
  20
518.000000
  0
SEQEND
  8
C7
  0
POLYLINE
  8
C7
  66
1
  10
271.000000
  20
517.000000
  0
VERTEX
  8
C7
  10
271.000000
  20
517.000000
  0
VERTEX
  8
C7
  10
271.000000
  20
506.000000
  0
VERTEX
  8
C7
  10
274.000000
  20
506.000000
  0
VERTEX
  8
C7
  10
275.000000
  20
515.000000
  0
VERTEX
  8
C7
  10
276.000000
  20
515.000000
  0
VERTEX
  8
C7
  10
277.000000
  20
506.000000
  0
VERTEX
  8
C7
  10
280.000000
  20
506.000000
  0
VERTEX
  8
C7
  10
280.000000
  20
514.000000
  0
VERTEX
  8
C7
  10
283.000000
  20
506.000000
  0
VERTEX
  8
C7
  10
285.000000
  20
506.000000
  0
VERTEX
  8
C7
  10
284.981900
  20
507.291600
  0
VERTEX
  8
C7
  10
284.927400
  20
508.478100
  0
VERTEX
  8
C7
  10
284.835200
  20
509.563700
  0
VERTEX
  8
C7
  10
284.704300
  20
510.553100
  0
VERTEX
  8
C7
  10
284.533500
  20
511.450500
  0
VERTEX
  8
C7
  10
284.321600
  20
512.260700
  0
VERTEX
  8
C7
  10
284.067600
  20
512.987900
  0
VERTEX
  8
C7
  10
283.770300
  20
513.636700
  0
VERTEX
  8
C7
  10
283.428600
  20
514.211500
  0
VERTEX
  8
C7
  10
283.041400
  20
514.716900
  0
VERTEX
  8
C7
  10
282.607500
  20
515.157200
  0
VERTEX
  8
C7
  10
282.125800
  20
515.537000
  0
VERTEX
  8
C7
  10
281.595200
  20
515.860800
  0
VERTEX
  8
C7
  10
281.014500
  20
516.132900
  0
VERTEX
  8
C7
  10
280.382600
  20
516.357900
  0
VERTEX
  8
C7
  10
279.698400
  20
516.540300
  0
VERTEX
  8
C7
  10
278.960800
  20
516.684400
  0
VERTEX
  8
C7
  10
278.168600
  20
516.794900
  0
VERTEX
  8
C7
  10
277.320600
  20
516.876100
  0
VERTEX
  8
C7
  10
276.415900
  20
516.932600
  0
VERTEX
  8
C7
  10
275.453100
  20
516.968800
  0
VERTEX
  8
C7
  10
274.431300
  20
516.989100
  0
VERTEX
  8
C7
  10
273.349300
  20
516.998100
  0
VERTEX
  8
C7
  10
272.205800
  20
517.000200
  0
VERTEX
  8
C7
  10
271.000000
  20
517.000000
  0
SEQEND
  8
C7
  0
POLYLINE
  8
C7
  66
1
  10
286.000000
  20
517.000000
  0
VERTEX
  8
C7
  10
286.000000
  20
517.000000
  0
VERTEX
  8
C7
  10
286.000000
  20
506.000000
  0
VERTEX
  8
C7
  10
289.000000
  20
506.000000
  0
VERTEX
  8
C7
  10
292.000000
  20
514.000000
  0
VERTEX
  8
C7
  10
292.000000
  20
506.000000
  0
VERTEX
  8
C7
  10
295.000000
  20
506.000000
  0
VERTEX
  8
C7
  10
296.000000
  20
515.000000
  0
VERTEX
  8
C7
  10
297.000000
  20
515.000000
  0
VERTEX
  8
C7
  10
298.000000
  20
506.000000
  0
VERTEX
  8
C7
  10
300.000000
  20
506.000000
  0
VERTEX
  8
C7
  10
299.981600
  20
507.287800
  0
VERTEX
  8
C7
  10
299.926000
  20
508.470900
  0
VERTEX
  8
C7
  10
299.832200
  20
509.553500
  0
VERTEX
  8
C7
  10
299.699200
  20
510.540300
  0
VERTEX
  8
C7
  10
299.525900
  20
511.435600
  0
VERTEX
  8
C7
  10
299.311300
  20
512.243900
  0
VERTEX
  8
C7
  10
299.054300
  20
512.969600
  0
VERTEX
  8
C7
  10
298.753900
  20
513.617300
  0
VERTEX
  8
C7
  10
298.409100
  20
514.191300
  0
VERTEX
  8
C7
  10
298.018800
  20
514.696100
  0
VERTEX
  8
C7
  10
297.581900
  20
515.136300
  0
VERTEX
  8
C7
  10
297.097500
  20
515.516200
  0
VERTEX
  8
C7
  10
296.564500
  20
515.840300
  0
VERTEX
  8
C7
  10
295.981900
  20
516.113000
  0
VERTEX
  8
C7
  10
295.348600
  20
516.338900
  0
VERTEX
  8
C7
  10
294.663600
  20
516.522300
  0
VERTEX
  8
C7
  10
293.925800
  20
516.667800
  0
VERTEX
  8
C7
  10
293.134300
  20
516.779800
  0
VERTEX
  8
C7
  10
292.287900
  20
516.862700
  0
VERTEX
  8
C7
  10
291.385600
  20
516.921100
  0
VERTEX
  8
C7
  10
290.426500
  20
516.959300
  0
VERTEX
  8
C7
  10
289.409400
  20
516.981800
  0
VERTEX
  8
C7
  10
288.333300
  20
516.993100
  0
VERTEX
  8
C7
  10
287.197100
  20
516.997700
  0
VERTEX
  8
C7
  10
286.000000
  20
517.000000
  0
SEQEND
  8
C7
  0
POLYLINE
  8
C7
  66
1
  10
232.000000
  20
514.000000
  0
VERTEX
  8
C7
  10
232.000000
  20
514.000000
  0
VERTEX
  8
C7
  10
231.000000
  20
512.000000
  0
VERTEX
  8
C7
  10
233.000000
  20
512.000000
  0
VERTEX
  8
C7
  10
232.000000
  20
514.000000
  0
SEQEND
  8
C7
  0
POLYLINE
  8
C7
  66
1
  10
515.000000
  20
514.000000
  0
VERTEX
  8
C7
  10
515.000000
  20
514.000000
  0
VERTEX
  8
C7
  10
515.000000
  20
511.000000
  0
VERTEX
  8
C7
  10
518.000000
  20
511.000000
  0
VERTEX
  8
C7
  10
518.000000
  20
514.000000
  0
VERTEX
  8
C7
  10
515.000000
  20
514.000000
  0
SEQEND
  8
C7
  0
POLYLINE
  8
C7
  66
1
  10
69.000000
  20
495.000000
  0
VERTEX
  8
C7
  10
69.000000
  20
495.000000
  0
VERTEX
  8
C7
  10
63.000000
  20
488.000000
  0
VERTEX
  8
C7
  10
69.000000
  20
495.000000
  0
SEQEND
  8
C7
  0
POLYLINE
  8
C7
  66
1
  10
113.000000
  20
495.000000
  0
VERTEX
  8
C7
  10
113.000000
  20
495.000000
  0
VERTEX
  8
C7
  10
85.000000
  20
466.000000
  0
VERTEX
  8
C7
  10
85.586300
  20
466.415900
  0
VERTEX
  8
C7
  10
86.206900
  20
466.862000
  0
VERTEX
  8
C7
  10
86.859500
  20
467.337100
  0
VERTEX
  8
C7
  10
87.541600
  20
467.839800
  0
VERTEX
  8
C7
  10
88.251200
  20
468.369200
  0
VERTEX
  8
C7
  10
88.986000
  20
468.923800
  0
VERTEX
  8
C7
  10
89.743700
  20
469.502700
  0
VERTEX
  8
C7
  10
90.522000
  20
470.104400
  0
VERTEX
  8
C7
  10
91.318600
  20
470.728000
  0
VERTEX
  8
C7
  10
92.131400
  20
471.372000
  0
VERTEX
  8
C7
  10
92.958100
  20
472.035500
  0
VERTEX
  8
C7
  10
93.796300
  20
472.717100
  0
VERTEX
  8
C7
  10
94.643900
  20
473.415600
  0
VERTEX
  8
C7
  10
95.498600
  20
474.130000
  0
VERTEX
  8
C7
  10
96.358100
  20
474.858900
  0
VERTEX
  8
C7
  10
97.220200
  20
475.601100
  0
VERTEX
  8
C7
  10
98.082600
  20
476.355600
  0
VERTEX
  8
C7
  10
98.943000
  20
477.121000
  0
VERTEX
  8
C7
  10
99.799200
  20
477.896200
  0
VERTEX
  8
C7
  10
100.649000
  20
478.679900
  0
VERTEX
  8
C7
  10
101.490000
  20
479.471100
  0
VERTEX
  8
C7
  10
102.320100
  20
480.268400
  0
VERTEX
  8
C7
  10
103.136900
  20
481.070700
  0
VERTEX
  8
C7
  10
103.938200
  20
481.876800
  0
VERTEX
  8
C7
  10
104.721700
  20
482.685500
  0
VERTEX
  8
C7
  10
105.485300
  20
483.495600
  0
VERTEX
  8
C7
  10
106.226500
  20
484.305900
  0
VERTEX
  8
C7
  10
106.943200
  20
485.115200
  0
VERTEX
  8
C7
  10
107.633100
  20
485.922300
  0
VERTEX
  8
C7
  10
108.294000
  20
486.726000
  0
VERTEX
  8
C7
  10
108.923500
  20
487.525100
  0
VERTEX
  8
C7
  10
109.519500
  20
488.318400
  0
VERTEX
  8
C7
  10
110.079700
  20
489.104700
  0
VERTEX
  8
C7
  10
110.601700
  20
489.882900
  0
VERTEX
  8
C7
  10
111.083400
  20
490.651600
  0
VERTEX
  8
C7
  10
111.522600
  20
491.409800
  0
VERTEX
  8
C7
  10
111.916800
  20
492.156200
  0
VERTEX
  8
C7
  10
112.263900
  20
492.889600
  0
VERTEX
  8
C7
  10
112.561700
  20
493.608800
  0
VERTEX
  8
C7
  10
112.807800
  20
494.312700
  0
VERTEX
  8
C7
  10
113.000000
  20
495.000000
  0
SEQEND
  8
C7
  0
POLYLINE
  8
C7
  66
1
  10
684.000000
  20
495.000000
  0
VERTEX
  8
C7
  10
684.000000
  20
495.000000
  0
VERTEX
  8
C7
  10
683.417500
  20
494.408700
  0
VERTEX
  8
C7
  10
682.825800
  20
493.791600
  0
VERTEX
  8
C7
  10
682.225000
  20
493.150300
  0
VERTEX
  8
C7
  10
681.615500
  20
492.486600
  0
VERTEX
  8
C7
  10
680.997400
  20
491.802200
  0
VERTEX
  8
C7
  10
680.371100
  20
491.098600
  0
VERTEX
  8
C7
  10
679.736600
  20
490.377700
  0
VERTEX
  8
C7
  10
679.094300
  20
489.641100
  0
VERTEX
  8
C7
  10
678.444300
  20
488.890500
  0
VERTEX
  8
C7
  10
677.786900
  20
488.127600
  0
VERTEX
  8
C7
  10
677.122400
  20
487.354100
  0
VERTEX
  8
C7
  10
676.451000
  20
486.571600
  0
VERTEX
  8
C7
  10
675.772800
  20
485.781900
  0
VERTEX
  8
C7
  10
675.088200
  20
484.986700
  0
VERTEX
  8
C7
  10
674.397300
  20
484.187700
  0
VERTEX
  8
C7
  10
673.700400
  20
483.386400
  0
VERTEX
  8
C7
  10
672.997800
  20
482.584800
  0
VERTEX
  8
C7
  10
672.289500
  20
481.784300
  0
VERTEX
  8
C7
  10
671.576000
  20
480.986800
  0
VERTEX
  8
C7
  10
670.857400
  20
480.193800
  0
VERTEX
  8
C7
  10
670.133900
  20
479.407200
  0
VERTEX
  8
C7
  10
669.405800
  20
478.628600
  0
VERTEX
  8
C7
  10
668.673300
  20
477.859600
  0
VERTEX
  8
C7
  10
667.936700
  20
477.102100
  0
VERTEX
  8
C7
  10
667.196100
  20
476.357600
  0
VERTEX
  8
C7
  10
666.451800
  20
475.627800
  0
VERTEX
  8
C7
  10
665.704000
  20
474.914500
  0
VERTEX
  8
C7
  10
664.953000
  20
474.219400
  0
VERTEX
  8
C7
  10
664.199000
  20
473.544100
  0
VERTEX
  8
C7
  10
663.442200
  20
472.890300
  0
VERTEX
  8
C7
  10
662.682800
  20
472.259800
  0
VERTEX
  8
C7
  10
661.921100
  20
471.654100
  0
VERTEX
  8
C7
  10
661.157400
  20
471.075100
  0
VERTEX
  8
C7
  10
660.391800
  20
470.524300
  0
VERTEX
  8
C7
  10
659.624500
  20
470.003500
  0
VERTEX
  8
C7
  10
658.855900
  20
469.514400
  0
VERTEX
  8
C7
  10
658.086100
  20
469.058700
  0
VERTEX
  8
C7
  10
657.315400
  20
468.638100
  0
VERTEX
  8
C7
  10
656.544000
  20
468.254100
  0
VERTEX
  8
C7
  10
655.772100
  20
467.908700
  0
VERTEX
  8
C7
  10
655.000000
  20
467.603400
  0
SEQEND
  8
C7
  0
POLYLINE
  8
C7
  66
1
  10
655.000000
  20
467.603300
  0
VERTEX
  8
C7
  10
655.000000
  20
467.603300
  0
VERTEX
  8
C7
  10
654.097600
  20
467.314300
  0
VERTEX
  8
C7
  10
653.156800
  20
467.092500
  0
VERTEX
  8
C7
  10
652.183500
  20
466.930300
  0
VERTEX
  8
C7
  10
651.183400
  20
466.820600
  0
VERTEX
  8
C7
  10
650.162500
  20
466.756100
  0
VERTEX
  8
C7
  10
649.126600
  20
466.729300
  0
VERTEX
  8
C7
  10
648.081400
  20
466.733100
  0
VERTEX
  8
C7
  10
647.033000
  20
466.760000
  0
VERTEX
  8
C7
  10
645.987100
  20
466.802900
  0
VERTEX
  8
C7
  10
644.949500
  20
466.854300
  0
VERTEX
  8
C7
  10
643.926200
  20
466.907100
  0
VERTEX
  8
C7
  10
642.922900
  20
466.953800
  0
VERTEX
  8
C7
  10
641.945600
  20
466.987200
  0
VERTEX
  8
C7
  10
641.000000
  20
467.000000
  0
VERTEX
  8
C7
  10
641.000000
  20
466.000000
  0
VERTEX
  8
C7
  10
677.000000
  20
466.000000
  0
VERTEX
  8
C7
  10
677.000000
  20
448.000000
  0
VERTEX
  8
C7
  10
678.000000
  20
448.000000
  0
VERTEX
  8
C7
  10
679.000000
  20
466.000000
  0
VERTEX
  8
C7
  10
683.000000
  20
466.000000
  0
VERTEX
  8
C7
  10
683.000000
  20
467.000000
  0
VERTEX
  8
C7
  10
658.000000
  20
467.000000
  0
VERTEX
  8
C7
  10
658.560600
  20
467.550400
  0
VERTEX
  8
C7
  10
659.156600
  20
468.117000
  0
VERTEX
  8
C7
  10
659.785500
  20
468.699100
  0
VERTEX
  8
C7
  10
660.444800
  20
469.296100
  0
VERTEX
  8
C7
  10
661.132200
  20
469.907500
  0
VERTEX
  8
C7
  10
661.845200
  20
470.532600
  0
VERTEX
  8
C7
  10
662.581500
  20
471.170800
  0
VERTEX
  8
C7
  10
663.338700
  20
471.821600
  0
VERTEX
  8
C7
  10
664.114300
  20
472.484400
  0
VERTEX
  8
C7
  10
664.905900
  20
473.158500
  0
VERTEX
  8
C7
  10
665.711100
  20
473.843500
  0
VERTEX
  8
C7
  10
666.527500
  20
474.538600
  0
VERTEX
  8
C7
  10
667.352700
  20
475.243300
  0
VERTEX
  8
C7
  10
668.184200
  20
475.957000
  0
VERTEX
  8
C7
  10
669.019800
  20
476.679200
  0
VERTEX
  8
C7
  10
669.856900
  20
477.409200
  0
VERTEX
  8
C7
  10
670.693200
  20
478.146400
  0
VERTEX
  8
C7
  10
671.526200
  20
478.890300
  0
VERTEX
  8
C7
  10
672.353500
  20
479.640200
  0
VERTEX
  8
C7
  10
673.172800
  20
480.395600
  0
VERTEX
  8
C7
  10
673.981600
  20
481.155800
  0
VERTEX
  8
C7
  10
674.777500
  20
481.920400
  0
VERTEX
  8
C7
  10
675.558100
  20
482.688600
  0
VERTEX
  8
C7
  10
676.320900
  20
483.459900
  0
VERTEX
  8
C7
  10
677.063700
  20
484.233800
  0
VERTEX
  8
C7
  10
677.783900
  20
485.009500
  0
VERTEX
  8
C7
  10
678.479200
  20
485.786600
  0
VERTEX
  8
C7
  10
679.147100
  20
486.564400
  0
VERTEX
  8
C7
  10
679.785300
  20
487.342400
  0
VERTEX
  8
C7
  10
680.391300
  20
488.119900
  0
VERTEX
  8
C7
  10
680.962700
  20
488.896400
  0
VERTEX
  8
C7
  10
681.497100
  20
489.671300
  0
VERTEX
  8
C7
  10
681.992100
  20
490.443900
  0
VERTEX
  8
C7
  10
682.445300
  20
491.213700
  0
VERTEX
  8
C7
  10
682.854300
  20
491.980100
  0
VERTEX
  8
C7
  10
683.216700
  20
492.742600
  0
VERTEX
  8
C7
  10
683.530000
  20
493.500400
  0
VERTEX
  8
C7
  10
683.791900
  20
494.253100
  0
VERTEX
  8
C7
  10
684.000000
  20
495.000000
  0
SEQEND
  8
C7
  0
POLYLINE
  8
C7
  66
1
  10
359.000000
  20
477.000000
  0
VERTEX
  8
C7
  10
359.000000
  20
477.000000
  0
VERTEX
  8
C7
  10
350.000000
  20
467.000000
  0
VERTEX
  8
C7
  10
360.000000
  20
467.000000
  0
VERTEX
  8
C7
  10
359.000000
  20
477.000000
  0
SEQEND
  8
C7
  0
POLYLINE
  8
C7
  66
1
  10
252.000000
  20
178.000000
  0
VERTEX
  8
C7
  10
252.000000
  20
178.000000
  0
VERTEX
  8
C7
  10
252.000000
  20
208.000000
  0
VERTEX
  8
C7
  10
253.000000
  20
208.000000
  0
VERTEX
  8
C7
  10
253.000000
  20
178.000000
  0
VERTEX
  8
C7
  10
531.000000
  20
178.000000
  0
VERTEX
  8
C7
  10
531.000000
  20
208.000000
  0
VERTEX
  8
C7
  10
532.000000
  20
208.000000
  0
VERTEX
  8
C7
  10
532.000000
  20
178.000000
  0
VERTEX
  8
C7
  10
567.000000
  20
178.000000
  0
VERTEX
  8
C7
  10
567.846100
  20
177.984100
  0
VERTEX
  8
C7
  10
568.767900
  20
177.945200
  0
VERTEX
  8
C7
  10
569.749700
  20
177.896300
  0
VERTEX
  8
C7
  10
570.775500
  20
177.850400
  0
VERTEX
  8
C7
  10
571.829500
  20
177.820700
  0
VERTEX
  8
C7
  10
572.895900
  20
177.820200
  0
VERTEX
  8
C7
  10
573.958800
  20
177.861900
  0
VERTEX
  8
C7
  10
575.002400
  20
177.959000
  0
VERTEX
  8
C7
  10
576.010900
  20
178.124400
  0
VERTEX
  8
C7
  10
576.968500
  20
178.371100
  0
VERTEX
  8
C7
  10
577.859200
  20
178.712400
  0
VERTEX
  8
C7
  10
578.667300
  20
179.161200
  0
VERTEX
  8
C7
  10
579.376900
  20
179.730500
  0
VERTEX
  8
C7
  10
579.972200
  20
180.433600
  0
VERTEX
  8
C7
  10
580.345200
  20
181.036400
  0
VERTEX
  8
C7
  10
580.677900
  20
181.698600
  0
VERTEX
  8
C7
  10
580.972300
  20
182.416400
  0
VERTEX
  8
C7
  10
581.230000
  20
183.186400
  0
VERTEX
  8
C7
  10
581.453100
  20
184.004700
  0
VERTEX
  8
C7
  10
581.643100
  20
184.868000
  0
VERTEX
  8
C7
  10
581.802100
  20
185.772600
  0
VERTEX
  8
C7
  10
581.931800
  20
186.714900
  0
VERTEX
  8
C7
  10
582.034100
  20
187.691200
  0
VERTEX
  8
C7
  10
582.110700
  20
188.698100
  0
VERTEX
  8
C7
  10
582.163500
  20
189.731800
  0
VERTEX
  8
C7
  10
582.194300
  20
190.788900
  0
VERTEX
  8
C7
  10
582.205000
  20
191.865600
  0
VERTEX
  8
C7
  10
582.197400
  20
192.958500
  0
VERTEX
  8
C7
  10
582.173300
  20
194.063900
  0
VERTEX
  8
C7
  10
582.134500
  20
195.178200
  0
VERTEX
  8
C7
  10
582.082900
  20
196.297800
  0
VERTEX
  8
C7
  10
582.020200
  20
197.419100
  0
VERTEX
  8
C7
  10
581.948400
  20
198.538600
  0
VERTEX
  8
C7
  10
581.869100
  20
199.652600
  0
VERTEX
  8
C7
  10
581.784400
  20
200.757500
  0
VERTEX
  8
C7
  10
581.695900
  20
201.849800
  0
VERTEX
  8
C7
  10
581.605600
  20
202.925800
  0
VERTEX
  8
C7
  10
581.515200
  20
203.981900
  0
VERTEX
  8
C7
  10
581.426500
  20
205.014600
  0
VERTEX
  8
C7
  10
581.341400
  20
206.020200
  0
VERTEX
  8
C7
  10
581.261800
  20
206.995200
  0
VERTEX
  8
C7
  10
581.189400
  20
207.935900
  0
VERTEX
  8
C7
  10
581.126100
  20
208.838800
  0
VERTEX
  8
C7
  10
581.073600
  20
209.700200
  0
VERTEX
  8
C7
  10
581.033900
  20
210.516600
  0
VERTEX
  8
C7
  10
581.008700
  20
211.284400
  0
VERTEX
  8
C7
  10
581.000000
  20
212.000000
  0
VERTEX
  8
C7
  10
536.000000
  20
212.000000
  0
VERTEX
  8
C7
  10
536.000000
  20
213.000000
  0
VERTEX
  8
C7
  10
581.000000
  20
213.000000
  0
VERTEX
  8
C7
  10
581.000000
  20
404.000000
  0
VERTEX
  8
C7
  10
536.000000
  20
404.000000
  0
VERTEX
  8
C7
  10
536.000000
  20
405.000000
  0
VERTEX
  8
C7
  10
581.000000
  20
405.000000
  0
VERTEX
  8
C7
  10
581.000000
  20
448.000000
  0
VERTEX
  8
C7
  10
579.972229
  20
464.396606
  0
VERTEX
  8
C7
  10
570.000000
  20
466.000000
  0
VERTEX
  8
C7
  10
541.000000
  20
466.000000
  0
VERTEX
  8
C7
  10
424.000000
  20
466.000000
  0
VERTEX
  8
C7
  10
424.000000
  20
443.000000
  0
VERTEX
  8
C7
  10
428.000000
  20
443.000000
  0
VERTEX
  8
C7
  10
428.000000
  20
442.000000
  0
VERTEX
  8
C7
  10
424.000000
  20
442.000000
  0
VERTEX
  8
C7
  10
424.000000
  20
435.000000
  0
VERTEX
  8
C7
  10
423.000000
  20
435.000000
  0
VERTEX
  8
C7
  10
423.000000
  20
442.000000
  0
VERTEX
  8
C7
  10
419.000000
  20
442.000000
  0
VERTEX
  8
C7
  10
419.000000
  20
443.000000
  0
VERTEX
  8
C7
  10
423.000000
  20
443.000000
  0
VERTEX
  8
C7
  10
423.000000
  20
466.000000
  0
VERTEX
  8
C7
  10
361.000000
  20
466.000000
  0
VERTEX
  8
C7
  10
361.000000
  20
443.000000
  0
VERTEX
  8
C7
  10
365.000000
  20
443.000000
  0
VERTEX
  8
C7
  10
365.000000
  20
442.000000
  0
VERTEX
  8
C7
  10
361.000000
  20
442.000000
  0
VERTEX
  8
C7
  10
361.000000
  20
435.000000
  0
VERTEX
  8
C7
  10
360.000000
  20
435.000000
  0
VERTEX
  8
C7
  10
360.000000
  20
442.000000
  0
VERTEX
  8
C7
  10
356.000000
  20
442.000000
  0
VERTEX
  8
C7
  10
356.000000
  20
443.000000
  0
VERTEX
  8
C7
  10
360.000000
  20
443.000000
  0
VERTEX
  8
C7
  10
360.000000
  20
466.000000
  0
VERTEX
  8
C7
  10
243.000000
  20
466.000000
  0
VERTEX
  8
C7
  10
214.000000
  20
466.000000
  0
VERTEX
  8
C7
  10
204.179016
  20
464.396606
  0
VERTEX
  8
C7
  10
203.000000
  20
447.000000
  0
VERTEX
  8
C7
  10
203.000000
  20
400.000000
  0
VERTEX
  8
C7
  10
203.000000
  20
239.000000
  0
VERTEX
  8
C7
  10
203.000000
  20
197.000000
  0
VERTEX
  8
C7
  10
204.027786
  20
180.433640
  0
VERTEX
  8
C7
  10
217.000000
  20
178.000000
  0
VERTEX
  8
C7
  10
252.000000
  20
178.000000
  0
SEQEND
  8
C7
  0
POLYLINE
  8
C7
  66
1
  10
608.000000
  20
440.000000
  0
VERTEX
  8
C7
  10
608.000000
  20
440.000000
  0
VERTEX
  8
C7
  10
614.000000
  20
442.000000
  0
VERTEX
  8
C7
  10
611.000000
  20
439.000000
  0
VERTEX
  8
C7
  10
611.000000
  20
437.000000
  0
VERTEX
  8
C7
  10
615.000000
  20
434.000000
  0
VERTEX
  8
C7
  10
608.000000
  20
435.000000
  0
VERTEX
  8
C7
  10
608.285100
  20
434.262800
  0
VERTEX
  8
C7
  10
608.655100
  20
433.570100
  0
VERTEX
  8
C7
  10
609.099100
  20
432.929900
  0
VERTEX
  8
C7
  10
609.606200
  20
432.350400
  0
VERTEX
  8
C7
  10
610.165300
  20
431.839800
  0
VERTEX
  8
C7
  10
610.765500
  20
431.406100
  0
VERTEX
  8
C7
  10
611.395900
  20
431.057500
  0
VERTEX
  8
C7
  10
612.045400
  20
430.802200
  0
VERTEX
  8
C7
  10
612.703200
  20
430.648200
  0
VERTEX
  8
C7
  10
613.358300
  20
430.603800
  0
VERTEX
  8
C7
  10
613.999700
  20
430.677100
  0
VERTEX
  8
C7
  10
614.616500
  20
430.876200
  0
VERTEX
  8
C7
  10
615.197700
  20
431.209300
  0
VERTEX
  8
C7
  10
615.732300
  20
431.684400
  0
VERTEX
  8
C7
  10
616.209500
  20
432.309900
  0
VERTEX
  8
C7
  10
616.618200
  20
433.093600
  0
VERTEX
  8
C7
  10
616.947500
  20
434.044000
  0
SEQEND
  8
C7
  0
POLYLINE
  8
C7
  66
1
  10
616.947500
  20
434.043900
  0
VERTEX
  8
C7
  10
616.947500
  20
434.043900
  0
VERTEX
  8
C7
  10
617.122800
  20
434.818200
  0
VERTEX
  8
C7
  10
617.225800
  20
435.595500
  0
VERTEX
  8
C7
  10
617.260700
  20
436.370200
  0
VERTEX
  8
C7
  10
617.231300
  20
437.136800
  0
VERTEX
  8
C7
  10
617.141700
  20
437.889900
  0
VERTEX
  8
C7
  10
616.995800
  20
438.624100
  0
VERTEX
  8
C7
  10
616.797700
  20
439.333900
  0
VERTEX
  8
C7
  10
616.551200
  20
440.013800
  0
VERTEX
  8
C7
  10
616.260500
  20
440.658400
  0
VERTEX
  8
C7
  10
615.929400
  20
441.262300
  0
VERTEX
  8
C7
  10
615.562100
  20
441.819800
  0
VERTEX
  8
C7
  10
615.162400
  20
442.325700
  0
VERTEX
  8
C7
  10
614.734400
  20
442.774500
  0
VERTEX
  8
C7
  10
614.282000
  20
443.160600
  0
VERTEX
  8
C7
  10
613.809200
  20
443.478700
  0
VERTEX
  8
C7
  10
613.320100
  20
443.723200
  0
VERTEX
  8
C7
  10
612.818600
  20
443.888800
  0
VERTEX
  8
C7
  10
612.308700
  20
443.969900
  0
VERTEX
  8
C7
  10
611.794400
  20
443.961100
  0
VERTEX
  8
C7
  10
611.279700
  20
443.857000
  0
VERTEX
  8
C7
  10
610.768500
  20
443.652100
  0
VERTEX
  8
C7
  10
610.264900
  20
443.340900
  0
VERTEX
  8
C7
  10
609.772900
  20
442.918000
  0
VERTEX
  8
C7
  10
609.296400
  20
442.377900
  0
VERTEX
  8
C7
  10
608.839400
  20
441.715100
  0
VERTEX
  8
C7
  10
608.405900
  20
440.924300
  0
VERTEX
  8
C7
  10
608.000000
  20
440.000000
  0
SEQEND
  8
C7
  0
POLYLINE
  8
C7
  66
1
  10
666.000000
  20
439.000000
  0
VERTEX
  8
C7
  10
666.000000
  20
439.000000
  0
VERTEX
  8
C7
  10
666.416700
  20
439.813100
  0
VERTEX
  8
C7
  10
666.662100
  20
440.624100
  0
VERTEX
  8
C7
  10
666.742200
  20
441.407600
  0
VERTEX
  8
C7
  10
666.662900
  20
442.138000
  0
VERTEX
  8
C7
  10
666.430000
  20
442.789900
  0
VERTEX
  8
C7
  10
666.049700
  20
443.338100
  0
VERTEX
  8
C7
  10
665.527800
  20
443.757000
  0
VERTEX
  8
C7
  10
664.870300
  20
444.021200
  0
VERTEX
  8
C7
  10
664.083100
  20
444.105400
  0
VERTEX
  8
C7
  10
663.172200
  20
443.984100
  0
VERTEX
  8
C7
  10
662.143500
  20
443.631900
  0
SEQEND
  8
C7
  0
POLYLINE
  8
C7
  66
1
  10
662.143400
  20
443.631900
  0
VERTEX
  8
C7
  10
662.143400
  20
443.631900
  0
VERTEX
  8
C7
  10
661.470900
  20
443.321400
  0
VERTEX
  8
C7
  10
660.854500
  20
443.005400
  0
VERTEX
  8
C7
  10
660.292600
  20
442.684400
  0
VERTEX
  8
C7
  10
659.783700
  20
442.358900
  0
VERTEX
  8
C7
  10
659.326300
  20
442.029400
  0
VERTEX
  8
C7
  10
658.918700
  20
441.696500
  0
VERTEX
  8
C7
  10
658.559600
  20
441.360800
  0
VERTEX
  8
C7
  10
658.247300
  20
441.022800
  0
VERTEX
  8
C7
  10
657.980300
  20
440.683100
  0
VERTEX
  8
C7
  10
657.757000
  20
440.342100
  0
VERTEX
  8
C7
  10
657.576000
  20
440.000500
  0
VERTEX
  8
C7
  10
657.435800
  20
439.658800
  0
VERTEX
  8
C7
  10
657.334700
  20
439.317500
  0
VERTEX
  8
C7
  10
657.271200
  20
438.977200
  0
VERTEX
  8
C7
  10
657.243800
  20
438.638400
  0
VERTEX
  8
C7
  10
657.251100
  20
438.301700
  0
VERTEX
  8
C7
  10
657.291300
  20
437.967700
  0
VERTEX
  8
C7
  10
657.363100
  20
437.636800
  0
VERTEX
  8
C7
  10
657.464800
  20
437.309600
  0
VERTEX
  8
C7
  10
657.595000
  20
436.986700
  0
VERTEX
  8
C7
  10
657.752000
  20
436.668600
  0
VERTEX
  8
C7
  10
657.934400
  20
436.355900
  0
VERTEX
  8
C7
  10
658.140700
  20
436.049100
  0
VERTEX
  8
C7
  10
658.369300
  20
435.748800
  0
VERTEX
  8
C7
  10
658.618600
  20
435.455400
  0
VERTEX
  8
C7
  10
658.887100
  20
435.169600
  0
VERTEX
  8
C7
  10
659.173400
  20
434.892000
  0
VERTEX
  8
C7
  10
659.475800
  20
434.622900
  0
VERTEX
  8
C7
  10
659.792900
  20
434.363100
  0
VERTEX
  8
C7
  10
660.123000
  20
434.113000
  0
VERTEX
  8
C7
  10
660.464700
  20
433.873100
  0
VERTEX
  8
C7
  10
660.816400
  20
433.644200
  0
VERTEX
  8
C7
  10
661.176600
  20
433.426600
  0
VERTEX
  8
C7
  10
661.543800
  20
433.220900
  0
VERTEX
  8
C7
  10
661.916400
  20
433.027700
  0
VERTEX
  8
C7
  10
662.292900
  20
432.847500
  0
VERTEX
  8
C7
  10
662.671700
  20
432.681000
  0
VERTEX
  8
C7
  10
663.051400
  20
432.528500
  0
VERTEX
  8
C7
  10
663.430300
  20
432.390700
  0
VERTEX
  8
C7
  10
663.807000
  20
432.268100
  0
VERTEX
  8
C7
  10
664.180000
  20
432.161300
  0
VERTEX
  8
C7
  10
664.547600
  20
432.070700
  0
VERTEX
  8
C7
  10
664.908300
  20
431.997100
  0
VERTEX
  8
C7
  10
665.260700
  20
431.940800
  0
VERTEX
  8
C7
  10
665.603100
  20
431.902500
  0
VERTEX
  8
C7
  10
665.934100
  20
431.882700
  0
VERTEX
  8
C7
  10
666.252100
  20
431.881900
  0
VERTEX
  8
C7
  10
666.555600
  20
431.900700
  0
VERTEX
  8
C7
  10
666.843100
  20
431.939700
  0
VERTEX
  8
C7
  10
667.112900
  20
431.999400
  0
VERTEX
  8
C7
  10
667.363700
  20
432.080200
  0
VERTEX
  8
C7
  10
667.593700
  20
432.182900
  0
VERTEX
  8
C7
  10
667.801600
  20
432.307900
  0
VERTEX
  8
C7
  10
667.985800
  20
432.455800
  0
VERTEX
  8
C7
  10
668.144700
  20
432.627100
  0
VERTEX
  8
C7
  10
668.276800
  20
432.822300
  0
VERTEX
  8
C7
  10
668.380600
  20
433.042100
  0
VERTEX
  8
C7
  10
668.454500
  20
433.287000
  0
VERTEX
  8
C7
  10
668.497000
  20
433.557400
  0
VERTEX
  8
C7
  10
668.506600
  20
433.854100
  0
VERTEX
  8
C7
  10
668.481700
  20
434.177400
  0
VERTEX
  8
C7
  10
668.420800
  20
434.528000
  0
VERTEX
  8
C7
  10
668.322400
  20
434.906400
  0
VERTEX
  8
C7
  10
668.185000
  20
435.313100
  0
VERTEX
  8
C7
  10
668.006900
  20
435.748700
  0
VERTEX
  8
C7
  10
667.786700
  20
436.213800
  0
VERTEX
  8
C7
  10
667.522800
  20
436.708900
  0
VERTEX
  8
C7
  10
667.213700
  20
437.234500
  0
VERTEX
  8
C7
  10
666.857900
  20
437.791100
  0
VERTEX
  8
C7
  10
666.453800
  20
438.379500
  0
VERTEX
  8
C7
  10
666.000000
  20
439.000000
  0
SEQEND
  8
C7
  0
POLYLINE
  8
C7
  66
1
  10
681.000000
  20
427.000000
  0
VERTEX
  8
C7
  10
681.000000
  20
427.000000
  0
VERTEX
  8
C7
  10
680.654800
  20
428.130200
  0
VERTEX
  8
C7
  10
680.356400
  20
429.214400
  0
VERTEX
  8
C7
  10
680.103600
  20
430.258200
  0
VERTEX
  8
C7
  10
679.895200
  20
431.267400
  0
VERTEX
  8
C7
  10
679.730100
  20
432.247800
  0
VERTEX
  8
C7
  10
679.607100
  20
433.205200
  0
VERTEX
  8
C7
  10
679.525100
  20
434.145400
  0
VERTEX
  8
C7
  10
679.483000
  20
435.074000
  0
VERTEX
  8
C7
  10
679.479500
  20
435.997000
  0
VERTEX
  8
C7
  10
679.513600
  20
436.920000
  0
VERTEX
  8
C7
  10
679.584100
  20
437.848900
  0
VERTEX
  8
C7
  10
679.689800
  20
438.789400
  0
VERTEX
  8
C7
  10
679.829600
  20
439.747300
  0
VERTEX
  8
C7
  10
680.002400
  20
440.728400
  0
VERTEX
  8
C7
  10
680.207000
  20
441.738400
  0
VERTEX
  8
C7
  10
680.442200
  20
442.783200
  0
VERTEX
  8
C7
  10
680.706900
  20
443.868400
  0
VERTEX
  8
C7
  10
681.000000
  20
445.000000
  0
VERTEX
  8
C7
  10
680.348200
  20
444.597500
  0
VERTEX
  8
C7
  10
679.735900
  20
444.127100
  0
VERTEX
  8
C7
  10
679.164500
  20
443.594400
  0
VERTEX
  8
C7
  10
678.635200
  20
443.005100
  0
VERTEX
  8
C7
  10
678.149200
  20
442.364900
  0
VERTEX
  8
C7
  10
677.707800
  20
441.679600
  0
VERTEX
  8
C7
  10
677.312300
  20
440.954900
  0
VERTEX
  8
C7
  10
676.964000
  20
440.196500
  0
VERTEX
  8
C7
  10
676.664200
  20
439.410100
  0
VERTEX
  8
C7
  10
676.414100
  20
438.601500
  0
VERTEX
  8
C7
  10
676.214900
  20
437.776400
  0
VERTEX
  8
C7
  10
676.068000
  20
436.940500
  0
VERTEX
  8
C7
  10
675.974600
  20
436.099500
  0
VERTEX
  8
C7
  10
675.936000
  20
435.259200
  0
VERTEX
  8
C7
  10
675.953500
  20
434.425300
  0
VERTEX
  8
C7
  10
676.028400
  20
433.603500
  0
VERTEX
  8
C7
  10
676.161800
  20
432.799500
  0
VERTEX
  8
C7
  10
676.355200
  20
432.019100
  0
VERTEX
  8
C7
  10
676.609700
  20
431.268000
  0
VERTEX
  8
C7
  10
676.926600
  20
430.551900
  0
VERTEX
  8
C7
  10
677.307200
  20
429.876500
  0
VERTEX
  8
C7
  10
677.752800
  20
429.247500
  0
VERTEX
  8
C7
  10
678.264700
  20
428.670800
  0
VERTEX
  8
C7
  10
678.844000
  20
428.151900
  0
VERTEX
  8
C7
  10
679.492200
  20
427.696600
  0
VERTEX
  8
C7
  10
680.210400
  20
427.310800
  0
VERTEX
  8
C7
  10
681.000000
  20
427.000000
  0
SEQEND
  8
C7
  0
POLYLINE
  8
C7
  66
1
  10
742.000000
  20
445.000000
  0
VERTEX
  8
C7
  10
742.000000
  20
445.000000
  0
VERTEX
  8
C7
  10
742.298400
  20
443.867000
  0
VERTEX
  8
C7
  10
742.573400
  20
442.780100
  0
VERTEX
  8
C7
  10
742.822900
  20
441.733600
  0
VERTEX
  8
C7
  10
743.044500
  20
440.721700
  0
VERTEX
  8
C7
  10
743.236200
  20
439.738900
  0
VERTEX
  8
C7
  10
743.395700
  20
438.779200
  0
VERTEX
  8
C7
  10
743.520800
  20
437.837200
  0
VERTEX
  8
C7
  10
743.609300
  20
436.906900
  0
VERTEX
  8
C7
  10
743.659100
  20
435.982900
  0
VERTEX
  8
C7
  10
743.667900
  20
435.059200
  0
VERTEX
  8
C7
  10
743.633500
  20
434.130200
  0
VERTEX
  8
C7
  10
743.553800
  20
433.190300
  0
VERTEX
  8
C7
  10
743.426500
  20
432.233600
  0
VERTEX
  8
C7
  10
743.249500
  20
431.254500
  0
VERTEX
  8
C7
  10
743.020500
  20
430.247300
  0
VERTEX
  8
C7
  10
742.737400
  20
429.206300
  0
VERTEX
  8
C7
  10
742.397900
  20
428.125800
  0
VERTEX
  8
C7
  10
742.000000
  20
427.000000
  0
VERTEX
  8
C7
  10
742.927200
  20
427.354000
  0
VERTEX
  8
C7
  10
743.746700
  20
427.776400
  0
VERTEX
  8
C7
  10
744.463600
  20
428.262400
  0
VERTEX
  8
C7
  10
745.083200
  20
428.807500
  0
VERTEX
  8
C7
  10
745.610700
  20
429.407000
  0
VERTEX
  8
C7
  10
746.051100
  20
430.056400
  0
VERTEX
  8
C7
  10
746.409700
  20
430.751000
  0
VERTEX
  8
C7
  10
746.691600
  20
431.486100
  0
VERTEX
  8
C7
  10
746.902100
  20
432.257300
  0
VERTEX
  8
C7
  10
747.046200
  20
433.059700
  0
VERTEX
  8
C7
  10
747.129200
  20
433.888900
  0
VERTEX
  8
C7
  10
747.156300
  20
434.740300
  0
VERTEX
  8
C7
  10
747.132500
  20
435.609100
  0
VERTEX
  8
C7
  10
747.063200
  20
436.490800
  0
VERTEX
  8
C7
  10
746.953400
  20
437.380700
  0
VERTEX
  8
C7
  10
746.808400
  20
438.274300
  0
VERTEX
  8
C7
  10
746.633300
  20
439.166900
  0
VERTEX
  8
C7
  10
746.433300
  20
440.053900
  0
VERTEX
  8
C7
  10
746.213500
  20
440.930800
  0
VERTEX
  8
C7
  10
745.979200
  20
441.792700
  0
VERTEX
  8
C7
  10
745.735600
  20
442.635300
  0
VERTEX
  8
C7
  10
745.487700
  20
443.453700
  0
VERTEX
  8
C7
  10
745.240700
  20
444.243500
  0
VERTEX
  8
C7
  10
745.000000
  20
445.000000
  0
VERTEX
  8
C7
  10
742.000000
  20
445.000000
  0
SEQEND
  8
C7
  0
POLYLINE
  8
C7
  66
1
  10
625.000000
  20
439.000000
  0
VERTEX
  8
C7
  10
625.000000
  20
439.000000
  0
VERTEX
  8
C7
  10
628.000000
  20
440.000000
  0
VERTEX
  8
C7
  10
628.000000
  20
430.000000
  0
VERTEX
  8
C7
  10
630.000000
  20
430.000000
  0
VERTEX
  8
C7
  10
630.000000
  20
444.000000
  0
VERTEX
  8
C7
  10
625.000000
  20
439.000000
  0
SEQEND
  8
C7
  0
POLYLINE
  8
C7
  66
1
  10
635.000000
  20
436.000000
  0
VERTEX
  8
C7
  10
635.000000
  20
436.000000
  0
VERTEX
  8
C7
  10
640.000000
  20
437.000000
  0
VERTEX
  8
C7
  10
640.000000
  20
433.000000
  0
VERTEX
  8
C7
  10
633.000000
  20
435.000000
  0
VERTEX
  8
C7
  10
633.398000
  20
434.097100
  0
VERTEX
  8
C7
  10
633.866100
  20
433.277600
  0
VERTEX
  8
C7
  10
634.396300
  20
432.549800
  0
VERTEX
  8
C7
  10
634.980400
  20
431.922000
  0
VERTEX
  8
C7
  10
635.610300
  20
431.402800
  0
VERTEX
  8
C7
  10
636.277800
  20
431.000400
  0
VERTEX
  8
C7
  10
636.974900
  20
430.723400
  0
VERTEX
  8
C7
  10
637.693400
  20
430.580200
  0
VERTEX
  8
C7
  10
638.425300
  20
430.579000
  0
VERTEX
  8
C7
  10
639.162300
  20
430.728500
  0
VERTEX
  8
C7
  10
639.896400
  20
431.036900
  0
VERTEX
  8
C7
  10
640.619400
  20
431.512600
  0
VERTEX
  8
C7
  10
641.323300
  20
432.164200
  0
VERTEX
  8
C7
  10
642.000000
  20
433.000000
  0
VERTEX
  8
C7
  10
643.000000
  20
433.000000
  0
VERTEX
  8
C7
  10
644.000000
  20
430.000000
  0
VERTEX
  8
C7
  10
649.000000
  20
444.000000
  0
VERTEX
  8
C7
  10
648.084400
  20
443.651500
  0
VERTEX
  8
C7
  10
647.300100
  20
443.190000
  0
VERTEX
  8
C7
  10
646.635400
  20
442.627400
  0
VERTEX
  8
C7
  10
646.078500
  20
441.975100
  0
VERTEX
  8
C7
  10
645.618000
  20
441.244900
  0
VERTEX
  8
C7
  10
645.242000
  20
440.448600
  0
VERTEX
  8
C7
  10
644.939000
  20
439.597600
  0
VERTEX
  8
C7
  10
644.697300
  20
438.703800
  0
VERTEX
  8
C7
  10
644.505200
  20
437.778700
  0
VERTEX
  8
C7
  10
644.351000
  20
436.834200
  0
VERTEX
  8
C7
  10
644.223200
  20
435.881700
  0
VERTEX
  8
C7
  10
644.110100
  20
434.933100
  0
VERTEX
  8
C7
  10
644.000000
  20
434.000000
  0
VERTEX
  8
C7
  10
643.000000
  20
434.000000
  0
VERTEX
  8
C7
  10
642.785200
  20
435.121100
  0
VERTEX
  8
C7
  10
642.515100
  20
436.096300
  0
VERTEX
  8
C7
  10
642.178200
  20
436.936700
  0
VERTEX
  8
C7
  10
641.763200
  20
437.653800
  0
VERTEX
  8
C7
  10
641.258900
  20
438.258900
  0
VERTEX
  8
C7
  10
640.653800
  20
438.763200
  0
VERTEX
  8
C7
  10
639.936700
  20
439.178200
  0
VERTEX
  8
C7
  10
639.096300
  20
439.515100
  0
VERTEX
  8
C7
  10
638.121100
  20
439.785200
  0
VERTEX
  8
C7
  10
637.000000
  20
440.000000
  0
VERTEX
  8
C7
  10
637.000000
  20
442.000000
  0
VERTEX
  8
C7
  10
642.000000
  20
442.000000
  0
VERTEX
  8
C7
  10
642.000000
  20
444.000000
  0
VERTEX
  8
C7
  10
640.866400
  20
443.963300
  0
VERTEX
  8
C7
  10
639.816800
  20
443.878000
  0
VERTEX
  8
C7
  10
638.853800
  20
443.738800
  0
VERTEX
  8
C7
  10
637.979900
  20
443.540600
  0
VERTEX
  8
C7
  10
637.197900
  20
443.278400
  0
VERTEX
  8
C7
  10
636.510200
  20
442.946900
  0
VERTEX
  8
C7
  10
635.919600
  20
442.541000
  0
VERTEX
  8
C7
  10
635.428600
  20
442.055600
  0
VERTEX
  8
C7
  10
635.039800
  20
441.485500
  0
VERTEX
  8
C7
  10
634.755800
  20
440.825700
  0
VERTEX
  8
C7
  10
634.579300
  20
440.070900
  0
VERTEX
  8
C7
  10
634.512900
  20
439.216100
  0
VERTEX
  8
C7
  10
634.559100
  20
438.256100
  0
VERTEX
  8
C7
  10
634.720600
  20
437.185700
  0
VERTEX
  8
C7
  10
635.000000
  20
436.000000
  0
SEQEND
  8
C7
  0
POLYLINE
  8
C7
  66
1
  10
650.000000
  20
439.000000
  0
VERTEX
  8
C7
  10
650.000000
  20
439.000000
  0
VERTEX
  8
C7
  10
653.000000
  20
430.000000
  0
VERTEX
  8
C7
  10
656.000000
  20
430.000000
  0
VERTEX
  8
C7
  10
656.000000
  20
444.000000
  0
VERTEX
  8
C7
  10
650.000000
  20
439.000000
  0
SEQEND
  8
C7
  0
POLYLINE
  8
C7
  66
1
  10
669.000000
  20
444.000000
  0
VERTEX
  8
C7
  10
669.000000
  20
444.000000
  0
VERTEX
  8
C7
  10
669.000000
  20
439.000000
  0
VERTEX
  8
C7
  10
671.000000
  20
441.000000
  0
VERTEX
  8
C7
  10
672.000000
  20
441.000000
  0
VERTEX
  8
C7
  10
674.000000
  20
439.000000
  0
VERTEX
  8
C7
  10
675.000000
  20
444.000000
  0
VERTEX
  8
C7
  10
669.000000
  20
444.000000
  0
SEQEND
  8
C7
  0
POLYLINE
  8
C7
  66
1
  10
683.000000
  20
439.000000
  0
VERTEX
  8
C7
  10
683.000000
  20
439.000000
  0
VERTEX
  8
C7
  10
686.000000
  20
440.000000
  0
VERTEX
  8
C7
  10
686.000000
  20
430.000000
  0
VERTEX
  8
C7
  10
688.000000
  20
430.000000
  0
VERTEX
  8
C7
  10
688.000000
  20
444.000000
  0
VERTEX
  8
C7
  10
683.000000
  20
439.000000
  0
SEQEND
  8
C7
  0
POLYLINE
  8
C7
  66
1
  10
693.563293
  20
442.967590
  0
VERTEX
  8
C7
  10
693.563293
  20
442.967590
  0
VERTEX
  8
C7
  10
693.055300
  20
442.534800
  0
VERTEX
  8
C7
  10
692.621000
  20
442.028700
  0
VERTEX
  8
C7
  10
692.258200
  20
441.458100
  0
VERTEX
  8
C7
  10
691.964700
  20
440.832300
  0
VERTEX
  8
C7
  10
691.738300
  20
440.160400
  0
VERTEX
  8
C7
  10
691.576900
  20
439.451600
  0
VERTEX
  8
C7
  10
691.478400
  20
438.715000
  0
VERTEX
  8
C7
  10
691.440500
  20
437.959800
  0
VERTEX
  8
C7
  10
691.461200
  20
437.195100
  0
VERTEX
  8
C7
  10
691.538200
  20
436.430200
  0
VERTEX
  8
C7
  10
691.669500
  20
435.674100
  0
VERTEX
  8
C7
  10
691.852900
  20
434.936000
  0
VERTEX
  8
C7
  10
692.086100
  20
434.225100
  0
VERTEX
  8
C7
  10
692.367200
  20
433.550500
  0
VERTEX
  8
C7
  10
692.693900
  20
432.921400
  0
VERTEX
  8
C7
  10
693.064000
  20
432.346900
  0
VERTEX
  8
C7
  10
693.475500
  20
431.836300
  0
VERTEX
  8
C7
  10
693.926100
  20
431.398600
  0
VERTEX
  8
C7
  10
694.413700
  20
431.043100
  0
VERTEX
  8
C7
  10
694.936200
  20
430.778800
  0
VERTEX
  8
C7
  10
695.491400
  20
430.614900
  0
VERTEX
  8
C7
  10
696.077200
  20
430.560600
  0
VERTEX
  8
C7
  10
696.691400
  20
430.625100
  0
VERTEX
  8
C7
  10
697.331800
  20
430.817500
  0
VERTEX
  8
C7
  10
697.996300
  20
431.147000
  0
VERTEX
  8
C7
  10
698.682800
  20
431.622700
  0
SEQEND
  8
C7
  0
POLYLINE
  8
C7
  66
1
  10
698.682800
  20
431.622600
  0
VERTEX
  8
C7
  10
698.682800
  20
431.622600
  0
VERTEX
  8
C7
  10
699.182100
  20
432.082700
  0
VERTEX
  8
C7
  10
699.611200
  20
432.609900
  0
VERTEX
  8
C7
  10
699.971800
  20
433.195400
  0
VERTEX
  8
C7
  10
700.265900
  20
433.830700
  0
VERTEX
  8
C7
  10
700.495100
  20
434.507200
  0
VERTEX
  8
C7
  10
700.661400
  20
435.216200
  0
VERTEX
  8
C7
  10
700.766600
  20
435.949100
  0
VERTEX
  8
C7
  10
700.812400
  20
436.697400
  0
VERTEX
  8
C7
  10
700.800700
  20
437.452300
  0
VERTEX
  8
C7
  10
700.733300
  20
438.205400
  0
VERTEX
  8
C7
  10
700.612000
  20
438.948000
  0
VERTEX
  8
C7
  10
700.438700
  20
439.671400
  0
VERTEX
  8
C7
  10
700.215100
  20
440.367100
  0
VERTEX
  8
C7
  10
699.943100
  20
441.026400
  0
VERTEX
  8
C7
  10
699.624500
  20
441.640700
  0
VERTEX
  8
C7
  10
699.261100
  20
442.201500
  0
VERTEX
  8
C7
  10
698.854700
  20
442.700100
  0
VERTEX
  8
C7
  10
698.407100
  20
443.127900
  0
VERTEX
  8
C7
  10
697.920200
  20
443.476200
  0
VERTEX
  8
C7
  10
697.395800
  20
443.736500
  0
VERTEX
  8
C7
  10
696.835700
  20
443.900200
  0
VERTEX
  8
C7
  10
696.241700
  20
443.958700
  0
VERTEX
  8
C7
  10
695.615700
  20
443.903200
  0
VERTEX
  8
C7
  10
694.959400
  20
443.725300
  0
VERTEX
  8
C7
  10
694.274600
  20
443.416300
  0
VERTEX
  8
C7
  10
693.563300
  20
442.967600
  0
SEQEND
  8
C7
  0
POLYLINE
  8
C7
  66
1
  10
703.602661
  20
442.967590
  0
VERTEX
  8
C7
  10
703.602661
  20
442.967590
  0
VERTEX
  8
C7
  10
703.164500
  20
442.561800
  0
VERTEX
  8
C7
  10
702.787500
  20
442.072600
  0
VERTEX
  8
C7
  10
702.470500
  20
441.510000
  0
VERTEX
  8
C7
  10
702.212400
  20
440.884200
  0
VERTEX
  8
C7
  10
702.012300
  20
440.205400
  0
VERTEX
  8
C7
  10
701.868900
  20
439.483700
  0
VERTEX
  8
C7
  10
701.781500
  20
438.729500
  0
VERTEX
  8
C7
  10
701.748800
  20
437.952800
  0
VERTEX
  8
C7
  10
701.769800
  20
437.163900
  0
VERTEX
  8
C7
  10
701.843500
  20
436.372900
  0
VERTEX
  8
C7
  10
701.968900
  20
435.590200
  0
VERTEX
  8
C7
  10
702.145000
  20
434.825800
  0
VERTEX
  8
C7
  10
702.370600
  20
434.089900
  0
VERTEX
  8
C7
  10
702.644700
  20
433.392800
  0
VERTEX
  8
C7
  10
702.966400
  20
432.744600
  0
VERTEX
  8
C7
  10
703.334500
  20
432.155600
  0
VERTEX
  8
C7
  10
703.748100
  20
431.635900
  0
VERTEX
  8
C7
  10
704.206000
  20
431.195800
  0
VERTEX
  8
C7
  10
704.707300
  20
430.845400
  0
VERTEX
  8
C7
  10
705.250900
  20
430.594900
  0
VERTEX
  8
C7
  10
705.835700
  20
430.454500
  0
VERTEX
  8
C7
  10
706.460800
  20
430.434500
  0
VERTEX
  8
C7
  10
707.125100
  20
430.545000
  0
VERTEX
  8
C7
  10
707.827500
  20
430.796200
  0
VERTEX
  8
C7
  10
708.567100
  20
431.198300
  0
VERTEX
  8
C7
  10
709.110600
  20
431.606400
  0
VERTEX
  8
C7
  10
709.579600
  20
432.086900
  0
VERTEX
  8
C7
  10
709.976400
  20
432.631400
  0
VERTEX
  8
C7
  10
710.303100
  20
433.231500
  0
VERTEX
  8
C7
  10
710.562000
  20
433.878600
  0
VERTEX
  8
C7
  10
710.755300
  20
434.564500
  0
VERTEX
  8
C7
  10
710.885300
  20
435.280600
  0
VERTEX
  8
C7
  10
710.954100
  20
436.018500
  0
VERTEX
  8
C7
  10
710.964000
  20
436.769800
  0
VERTEX
  8
C7
  10
710.917100
  20
437.526000
  0
VERTEX
  8
C7
  10
710.815800
  20
438.278700
  0
VERTEX
  8
C7
  10
710.662300
  20
439.019600
  0
VERTEX
  8
C7
  10
710.458800
  20
439.740100
  0
VERTEX
  8
C7
  10
710.207400
  20
440.431700
  0
VERTEX
  8
C7
  10
709.910500
  20
441.086200
  0
VERTEX
  8
C7
  10
709.570200
  20
441.695100
  0
VERTEX
  8
C7
  10
709.188800
  20
442.249800
  0
VERTEX
  8
C7
  10
708.768500
  20
442.742100
  0
VERTEX
  8
C7
  10
708.311500
  20
443.163300
  0
VERTEX
  8
C7
  10
707.820100
  20
443.505200
  0
VERTEX
  8
C7
  10
707.296500
  20
443.759300
  0
VERTEX
  8
C7
  10
706.742900
  20
443.917200
  0
VERTEX
  8
C7
  10
706.161400
  20
443.970300
  0
VERTEX
  8
C7
  10
705.554500
  20
443.910400
  0
VERTEX
  8
C7
  10
704.924200
  20
443.728900
  0
VERTEX
  8
C7
  10
704.272800
  20
443.417400
  0
VERTEX
  8
C7
  10
703.602600
  20
442.967600
  0
SEQEND
  8
C7
  0
POLYLINE
  8
C7
  66
1
  10
392.000000
  20
419.000000
  0
VERTEX
  8
C7
  10
392.000000
  20
419.000000
  0
VERTEX
  8
C7
  10
392.000000
  20
394.000000
  0
VERTEX
  8
C7
  10
402.000000
  20
394.000000
  0
VERTEX
  8
C7
  10
402.000000
  20
395.000000
  0
VERTEX
  8
C7
  10
393.000000
  20
395.000000
  0
VERTEX
  8
C7
  10
393.000000
  20
419.000000
  0
VERTEX
  8
C7
  10
393.824400
  20
419.191200
  0
VERTEX
  8
C7
  10
394.616300
  20
419.424400
  0
VERTEX
  8
C7
  10
395.375400
  20
419.697600
  0
VERTEX
  8
C7
  10
396.101700
  20
420.009000
  0
VERTEX
  8
C7
  10
396.795000
  20
420.356600
  0
VERTEX
  8
C7
  10
397.455300
  20
420.738600
  0
VERTEX
  8
C7
  10
398.082400
  20
421.153100
  0
VERTEX
  8
C7
  10
398.676200
  20
421.598200
  0
VERTEX
  8
C7
  10
399.236600
  20
422.072100
  0
VERTEX
  8
C7
  10
399.763400
  20
422.572700
  0
VERTEX
  8
C7
  10
400.256600
  20
423.098300
  0
VERTEX
  8
C7
  10
400.716000
  20
423.646900
  0
VERTEX
  8
C7
  10
401.141500
  20
424.216700
  0
VERTEX
  8
C7
  10
401.533000
  20
424.805800
  0
VERTEX
  8
C7
  10
401.890500
  20
425.412200
  0
VERTEX
  8
C7
  10
402.213600
  20
426.034100
  0
VERTEX
  8
C7
  10
402.502500
  20
426.669700
  0
VERTEX
  8
C7
  10
402.756800
  20
427.316900
  0
VERTEX
  8
C7
  10
402.976600
  20
427.974000
  0
VERTEX
  8
C7
  10
403.161600
  20
428.639000
  0
VERTEX
  8
C7
  10
403.311900
  20
429.310000
  0
VERTEX
  8
C7
  10
403.427200
  20
429.985300
  0
VERTEX
  8
C7
  10
403.507500
  20
430.662800
  0
VERTEX
  8
C7
  10
403.552600
  20
431.340600
  0
VERTEX
  8
C7
  10
403.562400
  20
432.017000
  0
VERTEX
  8
C7
  10
403.536800
  20
432.690000
  0
VERTEX
  8
C7
  10
403.475700
  20
433.357700
  0
VERTEX
  8
C7
  10
403.379000
  20
434.018200
  0
VERTEX
  8
C7
  10
403.246500
  20
434.669700
  0
VERTEX
  8
C7
  10
403.078200
  20
435.310200
  0
VERTEX
  8
C7
  10
402.873900
  20
435.937900
  0
VERTEX
  8
C7
  10
402.633400
  20
436.550900
  0
VERTEX
  8
C7
  10
402.356800
  20
437.147200
  0
VERTEX
  8
C7
  10
402.043800
  20
437.725100
  0
VERTEX
  8
C7
  10
401.694400
  20
438.282500
  0
VERTEX
  8
C7
  10
401.308400
  20
438.817700
  0
VERTEX
  8
C7
  10
400.885700
  20
439.328700
  0
VERTEX
  8
C7
  10
400.426300
  20
439.813700
  0
VERTEX
  8
C7
  10
399.929900
  20
440.270700
  0
VERTEX
  8
C7
  10
399.396500
  20
440.697900
  0
VERTEX
  8
C7
  10
398.825900
  20
441.093300
  0
VERTEX
  8
C7
  10
398.218100
  20
441.455200
  0
VERTEX
  8
C7
  10
397.572900
  20
441.781600
  0
VERTEX
  8
C7
  10
396.890200
  20
442.070500
  0
VERTEX
  8
C7
  10
396.169800
  20
442.320200
  0
VERTEX
  8
C7
  10
395.411800
  20
442.528700
  0
VERTEX
  8
C7
  10
394.615900
  20
442.694200
  0
VERTEX
  8
C7
  10
393.782000
  20
442.814800
  0
VERTEX
  8
C7
  10
392.910100
  20
442.888500
  0
VERTEX
  8
C7
  10
392.000000
  20
442.913500
  0
VERTEX
  8
C7
  10
391.092900
  20
442.889800
  0
VERTEX
  8
C7
  10
390.224600
  20
442.819900
  0
VERTEX
  8
C7
  10
389.394900
  20
442.705600
  0
VERTEX
  8
C7
  10
388.603400
  20
442.548700
  0
VERTEX
  8
C7
  10
387.850200
  20
442.350700
  0
VERTEX
  8
C7
  10
387.134900
  20
442.113600
  0
VERTEX
  8
C7
  10
386.457300
  20
441.839000
  0
VERTEX
  8
C7
  10
385.817400
  20
441.528700
  0
VERTEX
  8
C7
  10
385.214800
  20
441.184500
  0
VERTEX
  8
C7
  10
384.649500
  20
440.808000
  0
VERTEX
  8
C7
  10
384.121200
  20
440.401000
  0
VERTEX
  8
C7
  10
383.629700
  20
439.965300
  0
VERTEX
  8
C7
  10
383.174900
  20
439.502600
  0
VERTEX
  8
C7
  10
382.756500
  20
439.014700
  0
VERTEX
  8
C7
  10
382.374300
  20
438.503300
  0
VERTEX
  8
C7
  10
382.028300
  20
437.970100
  0
VERTEX
  8
C7
  10
381.718100
  20
437.416800
  0
VERTEX
  8
C7
  10
381.443600
  20
436.845400
  0
VERTEX
  8
C7
  10
381.204700
  20
436.257400
  0
VERTEX
  8
C7
  10
381.001000
  20
435.654600
  0
VERTEX
  8
C7
  10
380.832500
  20
435.038800
  0
VERTEX
  8
C7
  10
380.698900
  20
434.411600
  0
VERTEX
  8
C7
  10
380.600100
  20
433.775000
  0
VERTEX
  8
C7
  10
380.535800
  20
433.130500
  0
VERTEX
  8
C7
  10
380.505900
  20
432.480000
  0
VERTEX
  8
C7
  10
380.510200
  20
431.825200
  0
VERTEX
  8
C7
  10
380.548400
  20
431.167800
  0
VERTEX
  8
C7
  10
380.620500
  20
430.509500
  0
VERTEX
  8
C7
  10
380.726200
  20
429.852200
  0
VERTEX
  8
C7
  10
380.865300
  20
429.197600
  0
VERTEX
  8
C7
  10
381.037700
  20
428.547300
  0
VERTEX
  8
C7
  10
381.243100
  20
427.903300
  0
VERTEX
  8
C7
  10
381.481400
  20
427.267100
  0
VERTEX
  8
C7
  10
381.752300
  20
426.640500
  0
VERTEX
  8
C7
  10
382.055700
  20
426.025400
  0
VERTEX
  8
C7
  10
382.391400
  20
425.423300
  0
VERTEX
  8
C7
  10
382.759200
  20
424.836200
  0
VERTEX
  8
C7
  10
383.158900
  20
424.265600
  0
VERTEX
  8
C7
  10
383.590400
  20
423.713500
  0
VERTEX
  8
C7
  10
384.053400
  20
423.181400
  0
VERTEX
  8
C7
  10
384.547700
  20
422.671200
  0
VERTEX
  8
C7
  10
385.073200
  20
422.184600
  0
VERTEX
  8
C7
  10
385.629600
  20
421.723300
  0
VERTEX
  8
C7
  10
386.216800
  20
421.289100
  0
VERTEX
  8
C7
  10
386.834600
  20
420.883700
  0
VERTEX
  8
C7
  10
387.482900
  20
420.508900
  0
VERTEX
  8
C7
  10
388.161300
  20
420.166500
  0
VERTEX
  8
C7
  10
388.869700
  20
419.858100
  0
VERTEX
  8
C7
  10
389.608000
  20
419.585500
  0
VERTEX
  8
C7
  10
390.375900
  20
419.350400
  0
VERTEX
  8
C7
  10
391.173300
  20
419.154700
  0
VERTEX
  8
C7
  10
392.000000
  20
419.000000
  0
SEQEND
  8
C7
  0
POLYLINE
  8
C7
  66
1
  10
365.000000
  20
442.000000
  0
VERTEX
  8
C7
  10
365.000000
  20
442.000000
  0
VERTEX
  8
C7
  10
365.000000
  20
441.000000
  0
VERTEX
  8
C7
  10
365.629200
  20
440.500900
  0
VERTEX
  8
C7
  10
366.223900
  20
439.966100
  0
VERTEX
  8
C7
  10
366.783500
  20
439.398300
  0
VERTEX
  8
C7
  10
367.307600
  20
438.800200
  0
VERTEX
  8
C7
  10
367.795400
  20
438.174700
  0
VERTEX
  8
C7
  10
368.246600
  20
437.524500
  0
VERTEX
  8
C7
  10
368.660500
  20
436.852400
  0
VERTEX
  8
C7
  10
369.036600
  20
436.161200
  0
VERTEX
  8
C7
  10
369.374300
  20
435.453700
  0
VERTEX
  8
C7
  10
369.673100
  20
434.732600
  0
VERTEX
  8
C7
  10
369.932400
  20
434.000800
  0
VERTEX
  8
C7
  10
370.151700
  20
433.260900
  0
VERTEX
  8
C7
  10
370.330400
  20
432.515800
  0
VERTEX
  8
C7
  10
370.468100
  20
431.768300
  0
VERTEX
  8
C7
  10
370.564000
  20
431.021100
  0
VERTEX
  8
C7
  10
370.617700
  20
430.277000
  0
VERTEX
  8
C7
  10
370.628600
  20
429.538800
  0
VERTEX
  8
C7
  10
370.596200
  20
428.809300
  0
VERTEX
  8
C7
  10
370.519900
  20
428.091300
  0
VERTEX
  8
C7
  10
370.399200
  20
427.387400
  0
VERTEX
  8
C7
  10
370.233500
  20
426.700600
  0
VERTEX
  8
C7
  10
370.022300
  20
426.033500
  0
VERTEX
  8
C7
  10
369.765000
  20
425.389000
  0
VERTEX
  8
C7
  10
369.461000
  20
424.769900
  0
VERTEX
  8
C7
  10
369.109900
  20
424.178900
  0
VERTEX
  8
C7
  10
368.711000
  20
423.618700
  0
VERTEX
  8
C7
  10
368.263800
  20
423.092300
  0
VERTEX
  8
C7
  10
367.767800
  20
422.602300
  0
VERTEX
  8
C7
  10
367.222400
  20
422.151500
  0
VERTEX
  8
C7
  10
366.627000
  20
421.742700
  0
VERTEX
  8
C7
  10
365.981100
  20
421.378800
  0
VERTEX
  8
C7
  10
365.284200
  20
421.062400
  0
VERTEX
  8
C7
  10
364.535700
  20
420.796300
  0
VERTEX
  8
C7
  10
363.735100
  20
420.583400
  0
VERTEX
  8
C7
  10
362.881700
  20
420.426400
  0
VERTEX
  8
C7
  10
361.975100
  20
420.328100
  0
VERTEX
  8
C7
  10
361.014700
  20
420.291200
  0
VERTEX
  8
C7
  10
360.000000
  20
420.318600
  0
VERTEX
  8
C7
  10
358.984200
  20
420.409600
  0
VERTEX
  8
C7
  10
358.028900
  20
420.559800
  0
VERTEX
  8
C7
  10
357.133100
  20
420.766200
  0
VERTEX
  8
C7
  10
356.296100
  20
421.026000
  0
VERTEX
  8
C7
  10
355.517200
  20
421.336600
  0
VERTEX
  8
C7
  10
354.795500
  20
421.695200
  0
VERTEX
  8
C7
  10
354.130400
  20
422.098900
  0
VERTEX
  8
C7
  10
353.521100
  20
422.545000
  0
VERTEX
  8
C7
  10
352.966800
  20
423.030800
  0
VERTEX
  8
C7
  10
352.466700
  20
423.553400
  0
VERTEX
  8
C7
  10
352.020100
  20
424.110100
  0
VERTEX
  8
C7
  10
351.626200
  20
424.698100
  0
VERTEX
  8
C7
  10
351.284200
  20
425.314700
  0
VERTEX
  8
C7
  10
350.993400
  20
425.957000
  0
VERTEX
  8
C7
  10
350.753100
  20
426.622400
  0
VERTEX
  8
C7
  10
350.562300
  20
427.308000
  0
VERTEX
  8
C7
  10
350.420500
  20
428.011000
  0
VERTEX
  8
C7
  10
350.326900
  20
428.728800
  0
VERTEX
  8
C7
  10
350.280500
  20
429.458400
  0
VERTEX
  8
C7
  10
350.280800
  20
430.197200
  0
VERTEX
  8
C7
  10
350.326900
  20
430.942400
  0
VERTEX
  8
C7
  10
350.418100
  20
431.691100
  0
VERTEX
  8
C7
  10
350.553600
  20
432.440700
  0
VERTEX
  8
C7
  10
350.732700
  20
433.188400
  0
VERTEX
  8
C7
  10
350.954500
  20
433.931300
  0
VERTEX
  8
C7
  10
351.218400
  20
434.666800
  0
VERTEX
  8
C7
  10
351.523500
  20
435.392000
  0
VERTEX
  8
C7
  10
351.869100
  20
436.104100
  0
VERTEX
  8
C7
  10
352.254400
  20
436.800500
  0
VERTEX
  8
C7
  10
352.678700
  20
437.478300
  0
VERTEX
  8
C7
  10
353.141200
  20
438.134800
  0
VERTEX
  8
C7
  10
353.641100
  20
438.767100
  0
VERTEX
  8
C7
  10
354.177700
  20
439.372600
  0
VERTEX
  8
C7
  10
354.750200
  20
439.948400
  0
VERTEX
  8
C7
  10
355.357900
  20
440.491800
  0
VERTEX
  8
C7
  10
356.000000
  20
441.000000
  0
VERTEX
  8
C7
  10
355.138100
  20
440.983800
  0
VERTEX
  8
C7
  10
354.334500
  20
440.899500
  0
VERTEX
  8
C7
  10
353.588300
  20
440.750300
  0
VERTEX
  8
C7
  10
352.898400
  20
440.539500
  0
VERTEX
  8
C7
  10
352.263800
  20
440.270300
  0
VERTEX
  8
C7
  10
351.683500
  20
439.946100
  0
VERTEX
  8
C7
  10
351.156500
  20
439.570200
  0
VERTEX
  8
C7
  10
350.681700
  20
439.145700
  0
VERTEX
  8
C7
  10
350.258200
  20
438.676100
  0
VERTEX
  8
C7
  10
349.884900
  20
438.164600
  0
VERTEX
  8
C7
  10
349.560800
  20
437.614500
  0
VERTEX
  8
C7
  10
349.284800
  20
437.029100
  0
VERTEX
  8
C7
  10
349.056100
  20
436.411700
  0
VERTEX
  8
C7
  10
348.873500
  20
435.765500
  0
VERTEX
  8
C7
  10
348.736100
  20
435.093900
  0
VERTEX
  8
C7
  10
348.642800
  20
434.400200
  0
VERTEX
  8
C7
  10
348.592600
  20
433.687500
  0
VERTEX
  8
C7
  10
348.584600
  20
432.959300
  0
VERTEX
  8
C7
  10
348.617600
  20
432.218800
  0
VERTEX
  8
C7
  10
348.690700
  20
431.469300
  0
VERTEX
  8
C7
  10
348.802800
  20
430.714100
  0
VERTEX
  8
C7
  10
348.953000
  20
429.956400
  0
VERTEX
  8
C7
  10
349.140200
  20
429.199600
  0
VERTEX
  8
C7
  10
349.363400
  20
428.447000
  0
VERTEX
  8
C7
  10
349.621600
  20
427.701800
  0
VERTEX
  8
C7
  10
349.913800
  20
426.967400
  0
VERTEX
  8
C7
  10
350.239000
  20
426.246900
  0
VERTEX
  8
C7
  10
350.596100
  20
425.543800
  0
VERTEX
  8
C7
  10
350.984100
  20
424.861300
  0
VERTEX
  8
C7
  10
351.402100
  20
424.202600
  0
VERTEX
  8
C7
  10
351.848900
  20
423.571200
  0
VERTEX
  8
C7
  10
352.323700
  20
422.970200
  0
VERTEX
  8
C7
  10
352.825300
  20
422.402900
  0
VERTEX
  8
C7
  10
353.352800
  20
421.872700
  0
VERTEX
  8
C7
  10
353.905100
  20
421.382800
  0
VERTEX
  8
C7
  10
354.481200
  20
420.936600
  0
VERTEX
  8
C7
  10
355.080200
  20
420.537200
  0
VERTEX
  8
C7
  10
355.700900
  20
420.188000
  0
VERTEX
  8
C7
  10
356.342500
  20
419.892400
  0
VERTEX
  8
C7
  10
357.003800
  20
419.653500
  0
VERTEX
  8
C7
  10
357.841400
  20
419.417800
  0
VERTEX
  8
C7
  10
358.661200
  20
419.237900
  0
VERTEX
  8
C7
  10
359.462700
  20
419.112100
  0
VERTEX
  8
C7
  10
360.245300
  20
419.038500
  0
VERTEX
  8
C7
  10
361.008400
  20
419.015500
  0
VERTEX
  8
C7
  10
361.751400
  20
419.041200
  0
VERTEX
  8
C7
  10
362.473800
  20
419.113900
  0
VERTEX
  8
C7
  10
363.174900
  20
419.231800
  0
VERTEX
  8
C7
  10
363.854300
  20
419.393200
  0
VERTEX
  8
C7
  10
364.511200
  20
419.596200
  0
VERTEX
  8
C7
  10
365.145100
  20
419.839200
  0
VERTEX
  8
C7
  10
365.755500
  20
420.120300
  0
VERTEX
  8
C7
  10
366.341700
  20
420.437700
  0
VERTEX
  8
C7
  10
366.903200
  20
420.789800
  0
VERTEX
  8
C7
  10
367.439400
  20
421.174700
  0
VERTEX
  8
C7
  10
367.949800
  20
421.590800
  0
VERTEX
  8
C7
  10
368.433700
  20
422.036100
  0
VERTEX
  8
C7
  10
368.890500
  20
422.508900
  0
VERTEX
  8
C7
  10
369.319700
  20
423.007600
  0
VERTEX
  8
C7
  10
369.720700
  20
423.530200
  0
VERTEX
  8
C7
  10
370.093000
  20
424.075100
  0
VERTEX
  8
C7
  10
370.435900
  20
424.640500
  0
VERTEX
  8
C7
  10
370.748800
  20
425.224600
  0
VERTEX
  8
C7
  10
371.031200
  20
425.825600
  0
VERTEX
  8
C7
  10
371.282500
  20
426.441800
  0
VERTEX
  8
C7
  10
371.502200
  20
427.071400
  0
VERTEX
  8
C7
  10
371.689600
  20
427.712600
  0
VERTEX
  8
C7
  10
371.844100
  20
428.363700
  0
VERTEX
  8
C7
  10
371.965200
  20
429.022900
  0
VERTEX
  8
C7
  10
372.052300
  20
429.688500
  0
VERTEX
  8
C7
  10
372.104900
  20
430.358600
  0
VERTEX
  8
C7
  10
372.122200
  20
431.031500
  0
VERTEX
  8
C7
  10
372.103900
  20
431.705500
  0
VERTEX
  8
C7
  10
372.049200
  20
432.378700
  0
VERTEX
  8
C7
  10
371.957600
  20
433.049500
  0
VERTEX
  8
C7
  10
371.828500
  20
433.715900
  0
VERTEX
  8
C7
  10
371.661400
  20
434.376400
  0
VERTEX
  8
C7
  10
371.455600
  20
435.029000
  0
VERTEX
  8
C7
  10
371.210600
  20
435.672100
  0
VERTEX
  8
C7
  10
370.925800
  20
436.303900
  0
VERTEX
  8
C7
  10
370.600600
  20
436.922500
  0
VERTEX
  8
C7
  10
370.234400
  20
437.526300
  0
VERTEX
  8
C7
  10
369.826700
  20
438.113500
  0
VERTEX
  8
C7
  10
369.376900
  20
438.682300
  0
VERTEX
  8
C7
  10
368.884400
  20
439.230800
  0
VERTEX
  8
C7
  10
368.348600
  20
439.757500
  0
VERTEX
  8
C7
  10
367.768900
  20
440.260500
  0
VERTEX
  8
C7
  10
367.144800
  20
440.738000
  0
VERTEX
  8
C7
  10
366.475600
  20
441.188200
  0
VERTEX
  8
C7
  10
365.760900
  20
441.609500
  0
VERTEX
  8
C7
  10
365.000000
  20
442.000000
  0
SEQEND
  8
C7
  0
POLYLINE
  8
C7
  66
1
  10
388.040131
  20
441.347229
  0
VERTEX
  8
C7
  10
388.040131
  20
441.347229
  0
VERTEX
  8
C7
  10
387.275100
  20
441.069000
  0
VERTEX
  8
C7
  10
386.559100
  20
440.754000
  0
VERTEX
  8
C7
  10
385.891200
  20
440.403900
  0
VERTEX
  8
C7
  10
385.270800
  20
440.020700
  0
VERTEX
  8
C7
  10
384.697100
  20
439.606400
  0
VERTEX
  8
C7
  10
384.169400
  20
439.163000
  0
VERTEX
  8
C7
  10
383.686800
  20
438.692300
  0
VERTEX
  8
C7
  10
383.248800
  20
438.196500
  0
VERTEX
  8
C7
  10
382.854500
  20
437.677300
  0
VERTEX
  8
C7
  10
382.503200
  20
437.136800
  0
VERTEX
  8
C7
  10
382.194100
  20
436.576900
  0
VERTEX
  8
C7
  10
381.926600
  20
435.999600
  0
VERTEX
  8
C7
  10
381.699900
  20
435.406900
  0
VERTEX
  8
C7
  10
381.513200
  20
434.800600
  0
VERTEX
  8
C7
  10
381.365800
  20
434.182800
  0
VERTEX
  8
C7
  10
381.257000
  20
433.555300
  0
VERTEX
  8
C7
  10
381.186000
  20
432.920300
  0
VERTEX
  8
C7
  10
381.152000
  20
432.279500
  0
VERTEX
  8
C7
  10
381.154500
  20
431.635000
  0
VERTEX
  8
C7
  10
381.192500
  20
430.988800
  0
VERTEX
  8
C7
  10
381.265400
  20
430.342700
  0
VERTEX
  8
C7
  10
381.372400
  20
429.698700
  0
VERTEX
  8
C7
  10
381.512800
  20
429.058900
  0
VERTEX
  8
C7
  10
381.685900
  20
428.425000
  0
VERTEX
  8
C7
  10
381.890800
  20
427.799200
  0
VERTEX
  8
C7
  10
382.127000
  20
427.183400
  0
VERTEX
  8
C7
  10
382.393500
  20
426.579400
  0
VERTEX
  8
C7
  10
382.689800
  20
425.989400
  0
VERTEX
  8
C7
  10
383.015000
  20
425.415100
  0
VERTEX
  8
C7
  10
383.368400
  20
424.858600
  0
VERTEX
  8
C7
  10
383.749200
  20
424.321900
  0
VERTEX
  8
C7
  10
384.156800
  20
423.806800
  0
VERTEX
  8
C7
  10
384.590400
  20
423.315400
  0
VERTEX
  8
C7
  10
385.049300
  20
422.849600
  0
VERTEX
  8
C7
  10
385.532600
  20
422.411400
  0
VERTEX
  8
C7
  10
386.039700
  20
422.002600
  0
VERTEX
  8
C7
  10
386.569900
  20
421.625400
  0
VERTEX
  8
C7
  10
387.122300
  20
421.281500
  0
VERTEX
  8
C7
  10
387.696300
  20
420.973100
  0
VERTEX
  8
C7
  10
388.291100
  20
420.701900
  0
VERTEX
  8
C7
  10
388.906000
  20
420.470100
  0
VERTEX
  8
C7
  10
389.540200
  20
420.279500
  0
VERTEX
  8
C7
  10
390.193000
  20
420.132100
  0
VERTEX
  8
C7
  10
390.863700
  20
420.029900
  0
VERTEX
  8
C7
  10
391.551500
  20
419.974800
  0
VERTEX
  8
C7
  10
392.255600
  20
419.968700
  0
VERTEX
  8
C7
  10
392.975400
  20
420.013700
  0
VERTEX
  8
C7
  10
393.710100
  20
420.111700
  0
VERTEX
  8
C7
  10
394.458900
  20
420.264500
  0
VERTEX
  8
C7
  10
395.221100
  20
420.474300
  0
VERTEX
  8
C7
  10
395.996100
  20
420.743000
  0
VERTEX
  8
C7
  10
396.783300
  20
421.072300
  0
VERTEX
  8
C7
  10
397.519000
  20
421.436800
  0
VERTEX
  8
C7
  10
398.204100
  20
421.834700
  0
VERTEX
  8
C7
  10
398.839200
  20
422.263700
  0
VERTEX
  8
C7
  10
399.425100
  20
422.722000
  0
VERTEX
  8
C7
  10
399.962600
  20
423.207500
  0
VERTEX
  8
C7
  10
400.452500
  20
423.718300
  0
VERTEX
  8
C7
  10
400.895400
  20
424.252200
  0
VERTEX
  8
C7
  10
401.292200
  20
424.807400
  0
VERTEX
  8
C7
  10
401.643600
  20
425.381700
  0
VERTEX
  8
C7
  10
401.950400
  20
425.973200
  0
VERTEX
  8
C7
  10
402.213300
  20
426.580000
  0
VERTEX
  8
C7
  10
402.433100
  20
427.199800
  0
VERTEX
  8
C7
  10
402.610600
  20
427.830900
  0
VERTEX
  8
C7
  10
402.746400
  20
428.471100
  0
VERTEX
  8
C7
  10
402.841500
  20
429.118400
  0
VERTEX
  8
C7
  10
402.896500
  20
429.770900
  0
VERTEX
  8
C7
  10
402.912100
  20
430.426500
  0
VERTEX
  8
C7
  10
402.889200
  20
431.083200
  0
VERTEX
  8
C7
  10
402.828500
  20
431.739100
  0
VERTEX
  8
C7
  10
402.730800
  20
432.392000
  0
VERTEX
  8
C7
  10
402.596800
  20
433.040100
  0
VERTEX
  8
C7
  10
402.427300
  20
433.681200
  0
VERTEX
  8
C7
  10
402.223000
  20
434.313400
  0
VERTEX
  8
C7
  10
401.984700
  20
434.934700
  0
VERTEX
  8
C7
  10
401.713200
  20
435.543100
  0
VERTEX
  8
C7
  10
401.409200
  20
436.136500
  0
VERTEX
  8
C7
  10
401.073500
  20
436.712900
  0
VERTEX
  8
C7
  10
400.706800
  20
437.270500
  0
VERTEX
  8
C7
  10
400.309900
  20
437.807000
  0
VERTEX
  8
C7
  10
399.883600
  20
438.320600
  0
VERTEX
  8
C7
  10
399.428600
  20
438.809200
  0
VERTEX
  8
C7
  10
398.945600
  20
439.270800
  0
VERTEX
  8
C7
  10
398.435500
  20
439.703400
  0
VERTEX
  8
C7
  10
397.899000
  20
440.104900
  0
VERTEX
  8
C7
  10
397.336800
  20
440.473500
  0
VERTEX
  8
C7
  10
396.749800
  20
440.807100
  0
VERTEX
  8
C7
  10
396.138600
  20
441.103600
  0
VERTEX
  8
C7
  10
395.504100
  20
441.361100
  0
VERTEX
  8
C7
  10
394.846900
  20
441.577500
  0
VERTEX
  8
C7
  10
394.167900
  20
441.750900
  0
VERTEX
  8
C7
  10
393.467700
  20
441.879300
  0
VERTEX
  8
C7
  10
392.747300
  20
441.960500
  0
VERTEX
  8
C7
  10
392.007300
  20
441.992700
  0
VERTEX
  8
C7
  10
391.248400
  20
441.973800
  0
VERTEX
  8
C7
  10
390.471500
  20
441.901800
  0
VERTEX
  8
C7
  10
389.677300
  20
441.774700
  0
VERTEX
  8
C7
  10
388.866600
  20
441.590500
  0
VERTEX
  8
C7
  10
388.040100
  20
441.347200
  0
SEQEND
  8
C7
  0
POLYLINE
  8
C7
  66
1
  10
428.000000
  20
442.000000
  0
VERTEX
  8
C7
  10
428.000000
  20
442.000000
  0
VERTEX
  8
C7
  10
428.000000
  20
441.000000
  0
VERTEX
  8
C7
  10
428.634800
  20
440.496900
  0
VERTEX
  8
C7
  10
429.234900
  20
439.958500
  0
VERTEX
  8
C7
  10
429.799800
  20
439.387500
  0
VERTEX
  8
C7
  10
430.329000
  20
438.786600
  0
VERTEX
  8
C7
  10
430.821800
  20
438.158600
  0
VERTEX
  8
C7
  10
431.277700
  20
437.506200
  0
VERTEX
  8
C7
  10
431.696100
  20
436.832300
  0
VERTEX
  8
C7
  10
432.076500
  20
436.139600
  0
VERTEX
  8
C7
  10
432.418300
  20
435.430900
  0
VERTEX
  8
C7
  10
432.720900
  20
434.708800
  0
VERTEX
  8
C7
  10
432.983800
  20
433.976300
  0
VERTEX
  8
C7
  10
433.206400
  20
433.236000
  0
VERTEX
  8
C7
  10
433.388100
  20
432.490700
  0
VERTEX
  8
C7
  10
433.528400
  20
431.743200
  0
VERTEX
  8
C7
  10
433.626700
  20
430.996200
  0
VERTEX
  8
C7
  10
433.682400
  20
430.252500
  0
VERTEX
  8
C7
  10
433.695100
  20
429.514900
  0
VERTEX
  8
C7
  10
433.664000
  20
428.786100
  0
VERTEX
  8
C7
  10
433.588700
  20
428.068900
  0
VERTEX
  8
C7
  10
433.468600
  20
427.366000
  0
VERTEX
  8
C7
  10
433.303100
  20
426.680300
  0
VERTEX
  8
C7
  10
433.091700
  20
426.014400
  0
VERTEX
  8
C7
  10
432.833700
  20
425.371200
  0
VERTEX
  8
C7
  10
432.528700
  20
424.753300
  0
VERTEX
  8
C7
  10
432.176100
  20
424.163700
  0
VERTEX
  8
C7
  10
431.775200
  20
423.604900
  0
VERTEX
  8
C7
  10
431.325600
  20
423.079900
  0
VERTEX
  8
C7
  10
430.826700
  20
422.591300
  0
VERTEX
  8
C7
  10
430.277800
  20
422.142000
  0
VERTEX
  8
C7
  10
429.678500
  20
421.734600
  0
VERTEX
  8
C7
  10
429.028200
  20
421.372000
  0
VERTEX
  8
C7
  10
428.326300
  20
421.056900
  0
VERTEX
  8
C7
  10
427.572300
  20
420.792000
  0
VERTEX
  8
C7
  10
426.765500
  20
420.580200
  0
VERTEX
  8
C7
  10
425.905400
  20
420.424200
  0
VERTEX
  8
C7
  10
424.991500
  20
420.326700
  0
VERTEX
  8
C7
  10
424.023200
  20
420.290600
  0
VERTEX
  8
C7
  10
423.000000
  20
420.318600
  0
VERTEX
  8
C7
  10
421.992400
  20
420.409200
  0
VERTEX
  8
C7
  10
421.044500
  20
420.559100
  0
VERTEX
  8
C7
  10
420.155500
  20
420.765300
  0
VERTEX
  8
C7
  10
419.324700
  20
421.025200
  0
VERTEX
  8
C7
  10
418.551300
  20
421.335900
  0
VERTEX
  8
C7
  10
417.834600
  20
421.694700
  0
VERTEX
  8
C7
  10
417.173700
  20
422.098800
  0
VERTEX
  8
C7
  10
416.568100
  20
422.545300
  0
VERTEX
  8
C7
  10
416.016900
  20
423.031500
  0
VERTEX
  8
C7
  10
415.519400
  20
423.554700
  0
VERTEX
  8
C7
  10
415.074900
  20
424.112000
  0
VERTEX
  8
C7
  10
414.682600
  20
424.700600
  0
VERTEX
  8
C7
  10
414.341800
  20
425.317900
  0
VERTEX
  8
C7
  10
414.051600
  20
425.960900
  0
VERTEX
  8
C7
  10
413.811500
  20
426.626900
  0
VERTEX
  8
C7
  10
413.620600
  20
427.313200
  0
VERTEX
  8
C7
  10
413.478300
  20
428.016900
  0
VERTEX
  8
C7
  10
413.383600
  20
428.735200
  0
VERTEX
  8
C7
  10
413.336000
  20
429.465500
  0
VERTEX
  8
C7
  10
413.334700
  20
430.204800
  0
VERTEX
  8
C7
  10
413.378900
  20
430.950400
  0
VERTEX
  8
C7
  10
413.467800
  20
431.699600
  0
VERTEX
  8
C7
  10
413.600800
  20
432.449500
  0
VERTEX
  8
C7
  10
413.777200
  20
433.197400
  0
VERTEX
  8
C7
  10
413.996000
  20
433.940400
  0
VERTEX
  8
C7
  10
414.256700
  20
434.675900
  0
VERTEX
  8
C7
  10
414.558500
  20
435.401000
  0
VERTEX
  8
C7
  10
414.900600
  20
436.112900
  0
VERTEX
  8
C7
  10
415.282200
  20
436.808800
  0
VERTEX
  8
C7
  10
415.702800
  20
437.486000
  0
VERTEX
  8
C7
  10
416.161400
  20
438.141700
  0
VERTEX
  8
C7
  10
416.657300
  20
438.773100
  0
VERTEX
  8
C7
  10
417.189900
  20
439.377400
  0
VERTEX
  8
C7
  10
417.758400
  20
439.951800
  0
VERTEX
  8
C7
  10
418.362000
  20
440.493600
  0
VERTEX
  8
C7
  10
419.000000
  20
441.000000
  0
VERTEX
  8
C7
  10
418.149300
  20
440.983600
  0
VERTEX
  8
C7
  10
417.356000
  20
440.899000
  0
VERTEX
  8
C7
  10
416.619000
  20
440.749600
  0
VERTEX
  8
C7
  10
415.937400
  20
440.538500
  0
VERTEX
  8
C7
  10
415.310100
  20
440.269100
  0
VERTEX
  8
C7
  10
414.736200
  20
439.944600
  0
VERTEX
  8
C7
  10
414.214700
  20
439.568400
  0
VERTEX
  8
C7
  10
413.744700
  20
439.143700
  0
VERTEX
  8
C7
  10
413.325100
  20
438.673800
  0
VERTEX
  8
C7
  10
412.955000
  20
438.162100
  0
VERTEX
  8
C7
  10
412.633400
  20
437.611700
  0
VERTEX
  8
C7
  10
412.359200
  20
437.026100
  0
VERTEX
  8
C7
  10
412.131700
  20
436.408500
  0
VERTEX
  8
C7
  10
411.949700
  20
435.762100
  0
VERTEX
  8
C7
  10
411.812200
  20
435.090300
  0
VERTEX
  8
C7
  10
411.718400
  20
434.396300
  0
VERTEX
  8
C7
  10
411.667200
  20
433.683500
  0
VERTEX
  8
C7
  10
411.657700
  20
432.955200
  0
VERTEX
  8
C7
  10
411.688800
  20
432.214500
  0
VERTEX
  8
C7
  10
411.759600
  20
431.464900
  0
VERTEX
  8
C7
  10
411.869100
  20
430.709600
  0
VERTEX
  8
C7
  10
412.016400
  20
429.951900
  0
VERTEX
  8
C7
  10
412.200400
  20
429.195100
  0
VERTEX
  8
C7
  10
412.420200
  20
428.442500
  0
VERTEX
  8
C7
  10
412.674700
  20
427.697300
  0
VERTEX
  8
C7
  10
412.963100
  20
426.962900
  0
VERTEX
  8
C7
  10
413.284400
  20
426.242600
  0
VERTEX
  8
C7
  10
413.637500
  20
425.539500
  0
VERTEX
  8
C7
  10
414.021500
  20
424.857100
  0
VERTEX
  8
C7
  10
414.435300
  20
424.198700
  0
VERTEX
  8
C7
  10
414.878200
  20
423.567400
  0
VERTEX
  8
C7
  10
415.348900
  20
422.966700
  0
VERTEX
  8
C7
  10
415.846700
  20
422.399700
  0
VERTEX
  8
C7
  10
416.370400
  20
421.869800
  0
VERTEX
  8
C7
  10
416.919100
  20
421.380300
  0
VERTEX
  8
C7
  10
417.491900
  20
420.934400
  0
VERTEX
  8
C7
  10
418.087700
  20
420.535500
  0
VERTEX
  8
C7
  10
418.705600
  20
420.186900
  0
VERTEX
  8
C7
  10
419.344600
  20
419.891800
  0
VERTEX
  8
C7
  10
420.003800
  20
419.653500
  0
VERTEX
  8
C7
  10
420.844800
  20
419.416700
  0
VERTEX
  8
C7
  10
421.668000
  20
419.235700
  0
VERTEX
  8
C7
  10
422.472800
  20
419.108800
  0
VERTEX
  8
C7
  10
423.258600
  20
419.034100
  0
VERTEX
  8
C7
  10
424.024800
  20
419.010000
  0
VERTEX
  8
C7
  10
424.770900
  20
419.034600
  0
VERTEX
  8
C7
  10
425.496200
  20
419.106200
  0
VERTEX
  8
C7
  10
426.200100
  20
419.223000
  0
VERTEX
  8
C7
  10
426.882200
  20
419.383300
  0
VERTEX
  8
C7
  10
427.541700
  20
419.585300
  0
VERTEX
  8
C7
  10
428.178200
  20
419.827200
  0
VERTEX
  8
C7
  10
428.791000
  20
420.107300
  0
VERTEX
  8
C7
  10
429.379500
  20
420.423800
  0
VERTEX
  8
C7
  10
429.943200
  20
420.775000
  0
VERTEX
  8
C7
  10
430.481500
  20
421.159000
  0
VERTEX
  8
C7
  10
430.993700
  20
421.574100
  0
VERTEX
  8
C7
  10
431.479400
  20
422.018600
  0
VERTEX
  8
C7
  10
431.937900
  20
422.490600
  0
VERTEX
  8
C7
  10
432.368600
  20
422.988500
  0
VERTEX
  8
C7
  10
432.771000
  20
423.510400
  0
VERTEX
  8
C7
  10
433.144500
  20
424.054700
  0
VERTEX
  8
C7
  10
433.488400
  20
424.619400
  0
VERTEX
  8
C7
  10
433.802300
  20
425.203000
  0
VERTEX
  8
C7
  10
434.085500
  20
425.803500
  0
VERTEX
  8
C7
  10
434.337400
  20
426.419300
  0
VERTEX
  8
C7
  10
434.557500
  20
427.048500
  0
VERTEX
  8
C7
  10
434.745100
  20
427.689500
  0
VERTEX
  8
C7
  10
434.899700
  20
428.340400
  0
VERTEX
  8
C7
  10
435.020700
  20
428.999500
  0
VERTEX
  8
C7
  10
435.107600
  20
429.665000
  0
VERTEX
  8
C7
  10
435.159600
  20
430.335200
  0
VERTEX
  8
C7
  10
435.176300
  20
431.008200
  0
VERTEX
  8
C7
  10
435.157100
  20
431.682400
  0
VERTEX
  8
C7
  10
435.101400
  20
432.356000
  0
VERTEX
  8
C7
  10
435.008500
  20
433.027100
  0
VERTEX
  8
C7
  10
434.878000
  20
433.694100
  0
VERTEX
  8
C7
  10
434.709200
  20
434.355200
  0
VERTEX
  8
C7
  10
434.501500
  20
435.008500
  0
VERTEX
  8
C7
  10
434.254400
  20
435.652500
  0
VERTEX
  8
C7
  10
433.967200
  20
436.285200
  0
VERTEX
  8
C7
  10
433.639500
  20
436.904900
  0
VERTEX
  8
C7
  10
433.270500
  20
437.509800
  0
VERTEX
  8
C7
  10
432.859800
  20
438.098300
  0
VERTEX
  8
C7
  10
432.406700
  20
438.668500
  0
VERTEX
  8
C7
  10
431.910700
  20
439.218600
  0
VERTEX
  8
C7
  10
431.371200
  20
439.747000
  0
VERTEX
  8
C7
  10
430.787500
  20
440.251800
  0
VERTEX
  8
C7
  10
430.159100
  20
440.731200
  0
VERTEX
  8
C7
  10
429.485400
  20
441.183600
  0
VERTEX
  8
C7
  10
428.765900
  20
441.607100
  0
VERTEX
  8
C7
  10
428.000000
  20
442.000000
  0
SEQEND
  8
C7
  0
POLYLINE
  8
C7
  66
1
  10
662.000000
  20
440.000000
  0
VERTEX
  8
C7
  10
662.000000
  20
440.000000
  0
VERTEX
  8
C7
  10
665.000000
  20
442.000000
  0
VERTEX
  8
C7
  10
662.000000
  20
440.000000
  0
SEQEND
  8
C7
  0
POLYLINE
  8
C7
  66
1
  10
695.000000
  20
442.000000
  0
VERTEX
  8
C7
  10
695.000000
  20
442.000000
  0
VERTEX
  8
C7
  10
695.000000
  20
433.000000
  0
VERTEX
  8
C7
  10
697.000000
  20
433.000000
  0
VERTEX
  8
C7
  10
697.000000
  20
442.000000
  0
VERTEX
  8
C7
  10
695.000000
  20
442.000000
  0
SEQEND
  8
C7
  0
POLYLINE
  8
C7
  66
1
  10
705.000000
  20
442.000000
  0
VERTEX
  8
C7
  10
705.000000
  20
442.000000
  0
VERTEX
  8
C7
  10
705.000000
  20
433.000000
  0
VERTEX
  8
C7
  10
707.000000
  20
433.000000
  0
VERTEX
  8
C7
  10
707.000000
  20
442.000000
  0
VERTEX
  8
C7
  10
705.000000
  20
442.000000
  0
SEQEND
  8
C7
  0
POLYLINE
  8
C7
  66
1
  10
712.000000
  20
441.000000
  0
VERTEX
  8
C7
  10
712.000000
  20
441.000000
  0
VERTEX
  8
C7
  10
712.000000
  20
430.000000
  0
VERTEX
  8
C7
  10
715.000000
  20
430.000000
  0
VERTEX
  8
C7
  10
716.000000
  20
439.000000
  0
VERTEX
  8
C7
  10
717.000000
  20
439.000000
  0
VERTEX
  8
C7
  10
718.000000
  20
430.000000
  0
VERTEX
  8
C7
  10
720.000000
  20
430.000000
  0
VERTEX
  8
C7
  10
723.000000
  20
438.000000
  0
VERTEX
  8
C7
  10
723.000000
  20
430.000000
  0
VERTEX
  8
C7
  10
726.000000
  20
430.000000
  0
VERTEX
  8
C7
  10
725.981400
  20
431.289800
  0
VERTEX
  8
C7
  10
725.925600
  20
432.474100
  0
VERTEX
  8
C7
  10
725.831300
  20
433.557600
  0
VERTEX
  8
C7
  10
725.697600
  20
434.544500
  0
VERTEX
  8
C7
  10
725.523600
  20
435.439600
  0
VERTEX
  8
C7
  10
725.308100
  20
436.247200
  0
VERTEX
  8
C7
  10
725.050200
  20
436.972000
  0
VERTEX
  8
C7
  10
724.748800
  20
437.618400
  0
VERTEX
  8
C7
  10
724.403000
  20
438.191000
  0
VERTEX
  8
C7
  10
724.011800
  20
438.694300
  0
VERTEX
  8
C7
  10
723.574000
  20
439.132800
  0
VERTEX
  8
C7
  10
723.088800
  20
439.511000
  0
VERTEX
  8
C7
  10
722.555100
  20
439.833500
  0
VERTEX
  8
C7
  10
721.971900
  20
440.104700
  0
VERTEX
  8
C7
  10
721.338100
  20
440.329200
  0
VERTEX
  8
C7
  10
720.652900
  20
440.511500
  0
VERTEX
  8
C7
  10
719.915100
  20
440.656200
  0
VERTEX
  8
C7
  10
719.123700
  20
440.767700
  0
VERTEX
  8
C7
  10
718.277800
  20
440.850600
  0
VERTEX
  8
C7
  10
717.376300
  20
440.909400
  0
VERTEX
  8
C7
  10
716.418200
  20
440.948600
  0
VERTEX
  8
C7
  10
715.402600
  20
440.972700
  0
VERTEX
  8
C7
  10
714.328300
  20
440.986300
  0
VERTEX
  8
C7
  10
713.194500
  20
440.993900
  0
VERTEX
  8
C7
  10
712.000000
  20
441.000000
  0
SEQEND
  8
C7
  0
POLYLINE
  8
C7
  66
1
  10
727.000000
  20
441.000000
  0
VERTEX
  8
C7
  10
727.000000
  20
441.000000
  0
VERTEX
  8
C7
  10
727.000000
  20
430.000000
  0
VERTEX
  8
C7
  10
730.000000
  20
430.000000
  0
VERTEX
  8
C7
  10
731.000000
  20
439.000000
  0
VERTEX
  8
C7
  10
732.000000
  20
439.000000
  0
VERTEX
  8
C7
  10
733.000000
  20
430.000000
  0
VERTEX
  8
C7
  10
735.000000
  20
430.000000
  0
VERTEX
  8
C7
  10
738.000000
  20
438.000000
  0
VERTEX
  8
C7
  10
738.000000
  20
430.000000
  0
VERTEX
  8
C7
  10
741.000000
  20
430.000000
  0
VERTEX
  8
C7
  10
740.981400
  20
431.289800
  0
VERTEX
  8
C7
  10
740.925600
  20
432.474100
  0
VERTEX
  8
C7
  10
740.831300
  20
433.557600
  0
VERTEX
  8
C7
  10
740.697600
  20
434.544500
  0
VERTEX
  8
C7
  10
740.523600
  20
435.439600
  0
VERTEX
  8
C7
  10
740.308100
  20
436.247200
  0
VERTEX
  8
C7
  10
740.050200
  20
436.972000
  0
VERTEX
  8
C7
  10
739.748800
  20
437.618400
  0
VERTEX
  8
C7
  10
739.403000
  20
438.191000
  0
VERTEX
  8
C7
  10
739.011800
  20
438.694300
  0
VERTEX
  8
C7
  10
738.574000
  20
439.132800
  0
VERTEX
  8
C7
  10
738.088800
  20
439.511000
  0
VERTEX
  8
C7
  10
737.555100
  20
439.833500
  0
VERTEX
  8
C7
  10
736.971900
  20
440.104700
  0
VERTEX
  8
C7
  10
736.338100
  20
440.329200
  0
VERTEX
  8
C7
  10
735.652900
  20
440.511500
  0
VERTEX
  8
C7
  10
734.915100
  20
440.656200
  0
VERTEX
  8
C7
  10
734.123700
  20
440.767700
  0
VERTEX
  8
C7
  10
733.277800
  20
440.850600
  0
VERTEX
  8
C7
  10
732.376300
  20
440.909400
  0
VERTEX
  8
C7
  10
731.418200
  20
440.948600
  0
VERTEX
  8
C7
  10
730.402600
  20
440.972700
  0
VERTEX
  8
C7
  10
729.328300
  20
440.986300
  0
VERTEX
  8
C7
  10
728.194500
  20
440.993900
  0
VERTEX
  8
C7
  10
727.000000
  20
441.000000
  0
SEQEND
  8
C7
  0
POLYLINE
  8
C7
  66
1
  10
662.000000
  20
437.000000
  0
VERTEX
  8
C7
  10
662.000000
  20
437.000000
  0
VERTEX
  8
C7
  10
662.000000
  20
433.000000
  0
VERTEX
  8
C7
  10
665.000000
  20
433.000000
  0
VERTEX
  8
C7
  10
665.000000
  20
437.000000
  0
VERTEX
  8
C7
  10
662.000000
  20
437.000000
  0
SEQEND
  8
C7
  0
POLYLINE
  8
C7
  66
1
  10
246.000000
  20
432.000000
  0
VERTEX
  8
C7
  10
246.000000
  20
432.000000
  0
VERTEX
  8
C7
  10
246.000000
  20
431.000000
  0
VERTEX
  8
C7
  10
250.000000
  20
431.000000
  0
VERTEX
  8
C7
  10
248.000000
  20
418.000000
  0
VERTEX
  8
C7
  10
248.625800
  20
417.519500
  0
VERTEX
  8
C7
  10
249.181000
  20
416.942700
  0
VERTEX
  8
C7
  10
249.669900
  20
416.278200
  0
VERTEX
  8
C7
  10
250.096800
  20
415.534500
  0
VERTEX
  8
C7
  10
250.465900
  20
414.720000
  0
VERTEX
  8
C7
  10
250.781500
  20
413.843200
  0
VERTEX
  8
C7
  10
251.047800
  20
412.912700
  0
VERTEX
  8
C7
  10
251.269200
  20
411.937000
  0
VERTEX
  8
C7
  10
251.449900
  20
410.924400
  0
VERTEX
  8
C7
  10
251.594200
  20
409.883700
  0
VERTEX
  8
C7
  10
251.706300
  20
408.823100
  0
VERTEX
  8
C7
  10
251.790600
  20
407.751300
  0
VERTEX
  8
C7
  10
251.851300
  20
406.676700
  0
VERTEX
  8
C7
  10
251.892600
  20
405.607800
  0
VERTEX
  8
C7
  10
251.918900
  20
404.553200
  0
VERTEX
  8
C7
  10
251.934500
  20
403.521300
  0
VERTEX
  8
C7
  10
251.943500
  20
402.520600
  0
VERTEX
  8
C7
  10
251.950300
  20
401.559600
  0
VERTEX
  8
C7
  10
251.959100
  20
400.646800
  0
VERTEX
  8
C7
  10
251.974200
  20
399.790800
  0
VERTEX
  8
C7
  10
252.000000
  20
399.000000
  0
VERTEX
  8
C7
  10
253.000000
  20
399.000000
  0
VERTEX
  8
C7
  10
253.000000
  20
404.000000
  0
VERTEX
  8
C7
  10
257.000000
  20
404.000000
  0
VERTEX
  8
C7
  10
257.000000
  20
405.000000
  0
VERTEX
  8
C7
  10
252.000000
  20
405.000000
  0
VERTEX
  8
C7
  10
254.000000
  20
418.000000
  0
VERTEX
  8
C7
  10
252.000000
  20
431.000000
  0
VERTEX
  8
C7
  10
345.000000
  20
431.000000
  0
VERTEX
  8
C7
  10
315.000000
  20
432.000000
  0
VERTEX
  8
C7
  10
246.000000
  20
432.000000
  0
SEQEND
  8
C7
  0
POLYLINE
  8
C7
  66
1
  10
367.000000
  20
417.000000
  0
VERTEX
  8
C7
  10
367.000000
  20
417.000000
  0
VERTEX
  8
C7
  10
367.000000
  20
412.000000
  0
VERTEX
  8
C7
  10
368.000000
  20
412.000000
  0
VERTEX
  8
C7
  10
368.000000
  20
416.000000
  0
VERTEX
  8
C7
  10
372.000000
  20
416.000000
  0
VERTEX
  8
C7
  10
367.000000
  20
417.000000
  0
SEQEND
  8
C7
  0
POLYLINE
  8
C7
  66
1
  10
375.000000
  20
417.000000
  0
VERTEX
  8
C7
  10
375.000000
  20
417.000000
  0
VERTEX
  8
C7
  10
375.000000
  20
416.000000
  0
VERTEX
  8
C7
  10
381.000000
  20
416.000000
  0
VERTEX
  8
C7
  10
375.000000
  20
417.000000
  0
SEQEND
  8
C7
  0
POLYLINE
  8
C7
  66
1
  10
385.000000
  20
417.000000
  0
VERTEX
  8
C7
  10
385.000000
  20
417.000000
  0
VERTEX
  8
C7
  10
385.000000
  20
416.000000
  0
VERTEX
  8
C7
  10
390.000000
  20
416.000000
  0
VERTEX
  8
C7
  10
385.000000
  20
417.000000
  0
SEQEND
  8
C7
  0
POLYLINE
  8
C7
  66
1
  10
394.000000
  20
417.000000
  0
VERTEX
  8
C7
  10
394.000000
  20
417.000000
  0
VERTEX
  8
C7
  10
394.000000
  20
416.000000
  0
VERTEX
  8
C7
  10
400.000000
  20
416.000000
  0
VERTEX
  8
C7
  10
394.000000
  20
417.000000
  0
SEQEND
  8
C7
  0
POLYLINE
  8
C7
  66
1
  10
403.000000
  20
417.000000
  0
VERTEX
  8
C7
  10
403.000000
  20
417.000000
  0
VERTEX
  8
C7
  10
403.000000
  20
416.000000
  0
VERTEX
  8
C7
  10
409.000000
  20
416.000000
  0
VERTEX
  8
C7
  10
403.000000
  20
417.000000
  0
SEQEND
  8
C7
  0
POLYLINE
  8
C7
  66
1
  10
412.000000
  20
417.000000
  0
VERTEX
  8
C7
  10
412.000000
  20
417.000000
  0
VERTEX
  8
C7
  10
412.000000
  20
416.000000
  0
VERTEX
  8
C7
  10
416.000000
  20
416.000000
  0
VERTEX
  8
C7
  10
416.000000
  20
412.000000
  0
VERTEX
  8
C7
  10
417.000000
  20
412.000000
  0
VERTEX
  8
C7
  10
417.000000
  20
417.000000
  0
VERTEX
  8
C7
  10
412.000000
  20
417.000000
  0
SEQEND
  8
C7
  0
POLYLINE
  8
C7
  66
1
  10
367.000000
  20
409.000000
  0
VERTEX
  8
C7
  10
367.000000
  20
409.000000
  0
VERTEX
  8
C7
  10
367.000000
  20
405.000000
  0
VERTEX
  8
C7
  10
363.000000
  20
405.000000
  0
VERTEX
  8
C7
  10
363.000000
  20
404.000000
  0
VERTEX
  8
C7
  10
368.000000
  20
404.000000
  0
VERTEX
  8
C7
  10
367.000000
  20
409.000000
  0
SEQEND
  8
C7
  0
POLYLINE
  8
C7
  66
1
  10
416.000000
  20
409.000000
  0
VERTEX
  8
C7
  10
416.000000
  20
409.000000
  0
VERTEX
  8
C7
  10
416.000000
  20
404.000000
  0
VERTEX
  8
C7
  10
421.000000
  20
404.000000
  0
VERTEX
  8
C7
  10
421.000000
  20
405.000000
  0
VERTEX
  8
C7
  10
417.000000
  20
405.000000
  0
VERTEX
  8
C7
  10
416.000000
  20
409.000000
  0
SEQEND
  8
C7
  0
POLYLINE
  8
C7
  66
1
  10
260.000000
  20
405.000000
  0
VERTEX
  8
C7
  10
260.000000
  20
405.000000
  0
VERTEX
  8
C7
  10
260.000000
  20
404.000000
  0
VERTEX
  8
C7
  10
266.000000
  20
404.000000
  0
VERTEX
  8
C7
  10
260.000000
  20
405.000000
  0
SEQEND
  8
C7
  0
POLYLINE
  8
C7
  66
1
  10
270.000000
  20
405.000000
  0
VERTEX
  8
C7
  10
270.000000
  20
405.000000
  0
VERTEX
  8
C7
  10
270.000000
  20
404.000000
  0
VERTEX
  8
C7
  10
275.000000
  20
404.000000
  0
VERTEX
  8
C7
  10
270.000000
  20
405.000000
  0
SEQEND
  8
C7
  0
POLYLINE
  8
C7
  66
1
  10
279.000000
  20
405.000000
  0
VERTEX
  8
C7
  10
279.000000
  20
405.000000
  0
VERTEX
  8
C7
  10
279.000000
  20
404.000000
  0
VERTEX
  8
C7
  10
285.000000
  20
404.000000
  0
VERTEX
  8
C7
  10
279.000000
  20
405.000000
  0
SEQEND
  8
C7
  0
POLYLINE
  8
C7
  66
1
  10
288.000000
  20
405.000000
  0
VERTEX
  8
C7
  10
288.000000
  20
405.000000
  0
VERTEX
  8
C7
  10
288.000000
  20
404.000000
  0
VERTEX
  8
C7
  10
294.000000
  20
404.000000
  0
VERTEX
  8
C7
  10
288.000000
  20
405.000000
  0
SEQEND
  8
C7
  0
POLYLINE
  8
C7
  66
1
  10
298.000000
  20
405.000000
  0
VERTEX
  8
C7
  10
298.000000
  20
405.000000
  0
VERTEX
  8
C7
  10
298.000000
  20
404.000000
  0
VERTEX
  8
C7
  10
303.000000
  20
404.000000
  0
VERTEX
  8
C7
  10
298.000000
  20
405.000000
  0
SEQEND
  8
C7
  0
POLYLINE
  8
C7
  66
1
  10
307.000000
  20
405.000000
  0
VERTEX
  8
C7
  10
307.000000
  20
405.000000
  0
VERTEX
  8
C7
  10
307.000000
  20
404.000000
  0
VERTEX
  8
C7
  10
313.000000
  20
404.000000
  0
VERTEX
  8
C7
  10
307.000000
  20
405.000000
  0
SEQEND
  8
C7
  0
POLYLINE
  8
C7
  66
1
  10
316.000000
  20
405.000000
  0
VERTEX
  8
C7
  10
316.000000
  20
405.000000
  0
VERTEX
  8
C7
  10
316.000000
  20
404.000000
  0
VERTEX
  8
C7
  10
322.000000
  20
404.000000
  0
VERTEX
  8
C7
  10
316.000000
  20
405.000000
  0
SEQEND
  8
C7
  0
POLYLINE
  8
C7
  66
1
  10
326.000000
  20
405.000000
  0
VERTEX
  8
C7
  10
326.000000
  20
405.000000
  0
VERTEX
  8
C7
  10
326.000000
  20
404.000000
  0
VERTEX
  8
C7
  10
331.000000
  20
404.000000
  0
VERTEX
  8
C7
  10
326.000000
  20
405.000000
  0
SEQEND
  8
C7
  0
POLYLINE
  8
C7
  66
1
  10
335.000000
  20
405.000000
  0
VERTEX
  8
C7
  10
335.000000
  20
405.000000
  0
VERTEX
  8
C7
  10
335.000000
  20
404.000000
  0
VERTEX
  8
C7
  10
341.000000
  20
404.000000
  0
VERTEX
  8
C7
  10
335.000000
  20
405.000000
  0
SEQEND
  8
C7
  0
POLYLINE
  8
C7
  66
1
  10
344.000000
  20
405.000000
  0
VERTEX
  8
C7
  10
344.000000
  20
405.000000
  0
VERTEX
  8
C7
  10
344.000000
  20
404.000000
  0
VERTEX
  8
C7
  10
350.000000
  20
404.000000
  0
VERTEX
  8
C7
  10
344.000000
  20
405.000000
  0
SEQEND
  8
C7
  0
POLYLINE
  8
C7
  66
1
  10
354.000000
  20
405.000000
  0
VERTEX
  8
C7
  10
354.000000
  20
405.000000
  0
VERTEX
  8
C7
  10
354.000000
  20
404.000000
  0
VERTEX
  8
C7
  10
359.000000
  20
404.000000
  0
VERTEX
  8
C7
  10
354.000000
  20
405.000000
  0
SEQEND
  8
C7
  0
POLYLINE
  8
C7
  66
1
  10
425.000000
  20
405.000000
  0
VERTEX
  8
C7
  10
425.000000
  20
405.000000
  0
VERTEX
  8
C7
  10
425.000000
  20
404.000000
  0
VERTEX
  8
C7
  10
431.000000
  20
404.000000
  0
VERTEX
  8
C7
  10
425.000000
  20
405.000000
  0
SEQEND
  8
C7
  0
POLYLINE
  8
C7
  66
1
  10
434.000000
  20
405.000000
  0
VERTEX
  8
C7
  10
434.000000
  20
405.000000
  0
VERTEX
  8
C7
  10
434.000000
  20
404.000000
  0
VERTEX
  8
C7
  10
440.000000
  20
404.000000
  0
VERTEX
  8
C7
  10
434.000000
  20
405.000000
  0
SEQEND
  8
C7
  0
POLYLINE
  8
C7
  66
1
  10
444.000000
  20
405.000000
  0
VERTEX
  8
C7
  10
444.000000
  20
405.000000
  0
VERTEX
  8
C7
  10
444.000000
  20
404.000000
  0
VERTEX
  8
C7
  10
449.000000
  20
404.000000
  0
VERTEX
  8
C7
  10
444.000000
  20
405.000000
  0
SEQEND
  8
C7
  0
POLYLINE
  8
C7
  66
1
  10
453.000000
  20
405.000000
  0
VERTEX
  8
C7
  10
453.000000
  20
405.000000
  0
VERTEX
  8
C7
  10
453.000000
  20
404.000000
  0
VERTEX
  8
C7
  10
458.000000
  20
404.000000
  0
VERTEX
  8
C7
  10
453.000000
  20
405.000000
  0
SEQEND
  8
C7
  0
POLYLINE
  8
C7
  66
1
  10
462.000000
  20
405.000000
  0
VERTEX
  8
C7
  10
462.000000
  20
405.000000
  0
VERTEX
  8
C7
  10
462.000000
  20
404.000000
  0
VERTEX
  8
C7
  10
468.000000
  20
404.000000
  0
VERTEX
  8
C7
  10
462.000000
  20
405.000000
  0
SEQEND
  8
C7
  0
POLYLINE
  8
C7
  66
1
  10
471.000000
  20
405.000000
  0
VERTEX
  8
C7
  10
471.000000
  20
405.000000
  0
VERTEX
  8
C7
  10
471.000000
  20
404.000000
  0
VERTEX
  8
C7
  10
477.000000
  20
404.000000
  0
VERTEX
  8
C7
  10
471.000000
  20
405.000000
  0
SEQEND
  8
C7
  0
POLYLINE
  8
C7
  66
1
  10
481.000000
  20
405.000000
  0
VERTEX
  8
C7
  10
481.000000
  20
405.000000
  0
VERTEX
  8
C7
  10
481.000000
  20
404.000000
  0
VERTEX
  8
C7
  10
486.000000
  20
404.000000
  0
VERTEX
  8
C7
  10
481.000000
  20
405.000000
  0
SEQEND
  8
C7
  0
POLYLINE
  8
C7
  66
1
  10
490.000000
  20
405.000000
  0
VERTEX
  8
C7
  10
490.000000
  20
405.000000
  0
VERTEX
  8
C7
  10
490.000000
  20
404.000000
  0
VERTEX
  8
C7
  10
496.000000
  20
404.000000
  0
VERTEX
  8
C7
  10
490.000000
  20
405.000000
  0
SEQEND
  8
C7
  0
POLYLINE
  8
C7
  66
1
  10
499.000000
  20
405.000000
  0
VERTEX
  8
C7
  10
499.000000
  20
405.000000
  0
VERTEX
  8
C7
  10
499.000000
  20
404.000000
  0
VERTEX
  8
C7
  10
505.000000
  20
404.000000
  0
VERTEX
  8
C7
  10
499.000000
  20
405.000000
  0
SEQEND
  8
C7
  0
POLYLINE
  8
C7
  66
1
  10
509.000000
  20
405.000000
  0
VERTEX
  8
C7
  10
509.000000
  20
405.000000
  0
VERTEX
  8
C7
  10
509.000000
  20
404.000000
  0
VERTEX
  8
C7
  10
514.000000
  20
404.000000
  0
VERTEX
  8
C7
  10
509.000000
  20
405.000000
  0
SEQEND
  8
C7
  0
POLYLINE
  8
C7
  66
1
  10
518.000000
  20
405.000000
  0
VERTEX
  8
C7
  10
518.000000
  20
405.000000
  0
VERTEX
  8
C7
  10
518.000000
  20
404.000000
  0
VERTEX
  8
C7
  10
524.000000
  20
404.000000
  0
VERTEX
  8
C7
  10
518.000000
  20
405.000000
  0
SEQEND
  8
C7
  0
POLYLINE
  8
C7
  66
1
  10
527.000000
  20
405.000000
  0
VERTEX
  8
C7
  10
527.000000
  20
405.000000
  0
VERTEX
  8
C7
  10
527.000000
  20
404.000000
  0
VERTEX
  8
C7
  10
531.000000
  20
404.000000
  0
VERTEX
  8
C7
  10
531.000000
  20
399.000000
  0
VERTEX
  8
C7
  10
529.841300
  20
399.206700
  0
VERTEX
  8
C7
  10
528.841200
  20
399.265700
  0
VERTEX
  8
C7
  10
527.988100
  20
399.182700
  0
VERTEX
  8
C7
  10
527.270200
  20
398.963400
  0
VERTEX
  8
C7
  10
526.675900
  20
398.613700
  0
VERTEX
  8
C7
  10
526.193600
  20
398.139400
  0
VERTEX
  8
C7
  10
525.811700
  20
397.546200
  0
VERTEX
  8
C7
  10
525.518500
  20
396.839900
  0
VERTEX
  8
C7
  10
525.302300
  20
396.026400
  0
VERTEX
  8
C7
  10
525.151600
  20
395.111300
  0
VERTEX
  8
C7
  10
525.054700
  20
394.100600
  0
VERTEX
  8
C7
  10
525.000000
  20
393.000000
  0
VERTEX
  8
C7
  10
524.000000
  20
393.000000
  0
VERTEX
  8
C7
  10
523.882400
  20
393.828800
  0
VERTEX
  8
C7
  10
523.664200
  20
394.612200
  0
VERTEX
  8
C7
  10
523.352500
  20
395.348800
  0
VERTEX
  8
C7
  10
522.954300
  20
396.037000
  0
VERTEX
  8
C7
  10
522.476800
  20
396.675400
  0
VERTEX
  8
C7
  10
521.927000
  20
397.262600
  0
VERTEX
  8
C7
  10
521.312100
  20
397.797100
  0
VERTEX
  8
C7
  10
520.639000
  20
398.277400
  0
VERTEX
  8
C7
  10
519.914900
  20
398.702000
  0
VERTEX
  8
C7
  10
519.146800
  20
399.069500
  0
VERTEX
  8
C7
  10
518.341900
  20
399.378400
  0
VERTEX
  8
C7
  10
517.507200
  20
399.627300
  0
VERTEX
  8
C7
  10
516.649800
  20
399.814700
  0
VERTEX
  8
C7
  10
515.776700
  20
399.939100
  0
VERTEX
  8
C7
  10
514.895200
  20
399.999100
  0
VERTEX
  8
C7
  10
514.012100
  20
399.993100
  0
VERTEX
  8
C7
  10
513.134700
  20
399.919800
  0
VERTEX
  8
C7
  10
512.270000
  20
399.777700
  0
VERTEX
  8
C7
  10
511.425100
  20
399.565200
  0
VERTEX
  8
C7
  10
510.607100
  20
399.281000
  0
VERTEX
  8
C7
  10
509.823000
  20
398.923600
  0
VERTEX
  8
C7
  10
509.079900
  20
398.491500
  0
VERTEX
  8
C7
  10
508.385000
  20
397.983200
  0
VERTEX
  8
C7
  10
507.745300
  20
397.397400
  0
SEQEND
  8
C7
  0
POLYLINE
  8
C7
  66
1
  10
507.745300
  20
397.397300
  0
VERTEX
  8
C7
  10
507.745300
  20
397.397300
  0
VERTEX
  8
C7
  10
507.154600
  20
396.646400
  0
VERTEX
  8
C7
  10
506.725500
  20
395.802400
  0
VERTEX
  8
C7
  10
506.431100
  20
394.885700
  0
VERTEX
  8
C7
  10
506.244900
  20
393.916700
  0
VERTEX
  8
C7
  10
506.140000
  20
392.915600
  0
VERTEX
  8
C7
  10
506.089700
  20
391.903100
  0
VERTEX
  8
C7
  10
506.067500
  20
390.899300
  0
VERTEX
  8
C7
  10
506.046400
  20
389.924800
  0
VERTEX
  8
C7
  10
506.000000
  20
389.000000
  0
VERTEX
  8
C7
  10
507.218700
  20
389.020600
  0
VERTEX
  8
C7
  10
508.348000
  20
389.077300
  0
VERTEX
  8
C7
  10
509.389800
  20
389.175500
  0
VERTEX
  8
C7
  10
510.346400
  20
389.320700
  0
VERTEX
  8
C7
  10
511.219800
  20
389.518600
  0
VERTEX
  8
C7
  10
512.012300
  20
389.774500
  0
VERTEX
  8
C7
  10
512.726000
  20
390.094000
  0
VERTEX
  8
C7
  10
513.363000
  20
390.482600
  0
VERTEX
  8
C7
  10
513.925400
  20
390.945800
  0
VERTEX
  8
C7
  10
514.415500
  20
391.489200
  0
VERTEX
  8
C7
  10
514.835400
  20
392.118300
  0
VERTEX
  8
C7
  10
515.187100
  20
392.838500
  0
VERTEX
  8
C7
  10
515.473000
  20
393.655300
  0
VERTEX
  8
C7
  10
515.695000
  20
394.574400
  0
VERTEX
  8
C7
  10
515.855500
  20
395.601200
  0
VERTEX
  8
C7
  10
515.956400
  20
396.741200
  0
VERTEX
  8
C7
  10
516.000000
  20
398.000000
  0
VERTEX
  8
C7
  10
517.000000
  20
398.000000
  0
VERTEX
  8
C7
  10
522.000000
  20
392.000000
  0
VERTEX
  8
C7
  10
521.000000
  20
391.000000
  0
VERTEX
  8
C7
  10
517.000000
  20
393.000000
  0
VERTEX
  8
C7
  10
517.412800
  20
391.980900
  0
VERTEX
  8
C7
  10
517.908800
  20
391.136800
  0
VERTEX
  8
C7
  10
518.475100
  20
390.471200
  0
VERTEX
  8
C7
  10
519.098900
  20
389.987600
  0
VERTEX
  8
C7
  10
519.767400
  20
389.689700
  0
VERTEX
  8
C7
  10
520.467800
  20
389.580900
  0
VERTEX
  8
C7
  10
521.187200
  20
389.665000
  0
VERTEX
  8
C7
  10
521.913000
  20
389.945300
  0
VERTEX
  8
C7
  10
522.632200
  20
390.425600
  0
VERTEX
  8
C7
  10
523.332200
  20
391.109200
  0
VERTEX
  8
C7
  10
524.000000
  20
392.000000
  0
VERTEX
  8
C7
  10
525.000000
  20
392.000000
  0
VERTEX
  8
C7
  10
525.000000
  20
389.000000
  0
VERTEX
  8
C7
  10
534.000000
  20
389.000000
  0
VERTEX
  8
C7
  10
536.000000
  20
395.000000
  0
VERTEX
  8
C7
  10
537.000000
  20
389.000000
  0
VERTEX
  8
C7
  10
539.000000
  20
389.000000
  0
VERTEX
  8
C7
  10
539.000000
  20
395.000000
  0
VERTEX
  8
C7
  10
541.000000
  20
395.000000
  0
VERTEX
  8
C7
  10
541.000000
  20
389.000000
  0
VERTEX
  8
C7
  10
543.000000
  20
389.000000
  0
VERTEX
  8
C7
  10
542.956500
  20
389.818200
  0
VERTEX
  8
C7
  10
542.847800
  20
390.630700
  0
VERTEX
  8
C7
  10
542.677000
  20
391.430300
  0
VERTEX
  8
C7
  10
542.447500
  20
392.210300
  0
VERTEX
  8
C7
  10
542.162500
  20
392.963600
  0
VERTEX
  8
C7
  10
541.825300
  20
393.683500
  0
VERTEX
  8
C7
  10
541.439200
  20
394.362900
  0
VERTEX
  8
C7
  10
541.007400
  20
394.994900
  0
VERTEX
  8
C7
  10
540.533200
  20
395.572700
  0
VERTEX
  8
C7
  10
540.019900
  20
396.089300
  0
VERTEX
  8
C7
  10
539.470700
  20
396.537800
  0
VERTEX
  8
C7
  10
538.889000
  20
396.911300
  0
VERTEX
  8
C7
  10
538.278000
  20
397.202900
  0
VERTEX
  8
C7
  10
537.640900
  20
397.405700
  0
VERTEX
  8
C7
  10
536.981100
  20
397.512700
  0
VERTEX
  8
C7
  10
536.301800
  20
397.517000
  0
VERTEX
  8
C7
  10
535.606300
  20
397.411800
  0
VERTEX
  8
C7
  10
534.897800
  20
397.190100
  0
VERTEX
  8
C7
  10
534.179700
  20
396.844900
  0
VERTEX
  8
C7
  10
533.455100
  20
396.369500
  0
VERTEX
  8
C7
  10
532.727500
  20
395.756800
  0
VERTEX
  8
C7
  10
532.000000
  20
395.000000
  0
VERTEX
  8
C7
  10
531.000000
  20
395.000000
  0
VERTEX
  8
C7
  10
532.000000
  20
405.000000
  0
VERTEX
  8
C7
  10
527.000000
  20
405.000000
  0
SEQEND
  8
C7
  0
POLYLINE
  8
C7
  66
1
  10
405.000000
  20
400.000000
  0
VERTEX
  8
C7
  10
405.000000
  20
400.000000
  0
VERTEX
  8
C7
  10
405.000000
  20
389.000000
  0
VERTEX
  8
C7
  10
407.000000
  20
389.000000
  0
VERTEX
  8
C7
  10
407.000000
  20
393.000000
  0
VERTEX
  8
C7
  10
411.000000
  20
393.000000
  0
VERTEX
  8
C7
  10
411.000000
  20
396.000000
  0
VERTEX
  8
C7
  10
407.000000
  20
396.000000
  0
VERTEX
  8
C7
  10
407.000000
  20
398.000000
  0
VERTEX
  8
C7
  10
412.000000
  20
398.000000
  0
VERTEX
  8
C7
  10
412.000000
  20
400.000000
  0
VERTEX
  8
C7
  10
405.000000
  20
400.000000
  0
SEQEND
  8
C7
  0
POLYLINE
  8
C7
  66
1
  10
450.000000
  20
400.000000
  0
VERTEX
  8
C7
  10
450.000000
  20
400.000000
  0
VERTEX
  8
C7
  10
450.000000
  20
389.000000
  0
VERTEX
  8
C7
  10
453.000000
  20
389.000000
  0
VERTEX
  8
C7
  10
453.000000
  20
394.000000
  0
VERTEX
  8
C7
  10
457.000000
  20
394.000000
  0
VERTEX
  8
C7
  10
457.000000
  20
389.000000
  0
VERTEX
  8
C7
  10
459.000000
  20
392.000000
  0
VERTEX
  8
C7
  10
460.000000
  20
392.000000
  0
VERTEX
  8
C7
  10
460.425400
  20
391.373700
  0
VERTEX
  8
C7
  10
460.833900
  20
390.827300
  0
VERTEX
  8
C7
  10
461.225400
  20
390.357500
  0
VERTEX
  8
C7
  10
461.599800
  20
389.961000
  0
VERTEX
  8
C7
  10
461.957200
  20
389.634700
  0
VERTEX
  8
C7
  10
462.297600
  20
389.375100
  0
VERTEX
  8
C7
  10
462.621000
  20
389.179100
  0
VERTEX
  8
C7
  10
462.927300
  20
389.043400
  0
VERTEX
  8
C7
  10
463.216700
  20
388.964700
  0
VERTEX
  8
C7
  10
463.489000
  20
388.939800
  0
VERTEX
  8
C7
  10
463.744300
  20
388.965500
  0
VERTEX
  8
C7
  10
463.982500
  20
389.038400
  0
VERTEX
  8
C7
  10
464.203800
  20
389.155200
  0
VERTEX
  8
C7
  10
464.408000
  20
389.312900
  0
VERTEX
  8
C7
  10
464.595200
  20
389.508000
  0
VERTEX
  8
C7
  10
464.765400
  20
389.737400
  0
VERTEX
  8
C7
  10
464.918600
  20
389.997700
  0
VERTEX
  8
C7
  10
465.054800
  20
390.285700
  0
VERTEX
  8
C7
  10
465.173900
  20
390.598100
  0
VERTEX
  8
C7
  10
465.276000
  20
390.931800
  0
VERTEX
  8
C7
  10
465.361100
  20
391.283400
  0
VERTEX
  8
C7
  10
465.429200
  20
391.649600
  0
VERTEX
  8
C7
  10
465.480300
  20
392.027300
  0
VERTEX
  8
C7
  10
465.514300
  20
392.413100
  0
VERTEX
  8
C7
  10
465.531300
  20
392.803800
  0
VERTEX
  8
C7
  10
465.531300
  20
393.196100
  0
VERTEX
  8
C7
  10
465.514300
  20
393.586800
  0
VERTEX
  8
C7
  10
465.480300
  20
393.972600
  0
VERTEX
  8
C7
  10
465.429200
  20
394.350200
  0
VERTEX
  8
C7
  10
465.361100
  20
394.716500
  0
VERTEX
  8
C7
  10
465.276000
  20
395.068000
  0
VERTEX
  8
C7
  10
465.173900
  20
395.401700
  0
VERTEX
  8
C7
  10
465.054800
  20
395.714100
  0
VERTEX
  8
C7
  10
464.918600
  20
396.002200
  0
VERTEX
  8
C7
  10
464.765400
  20
396.262500
  0
VERTEX
  8
C7
  10
464.595200
  20
396.491800
  0
VERTEX
  8
C7
  10
464.408000
  20
396.687000
  0
VERTEX
  8
C7
  10
464.203800
  20
396.844600
  0
VERTEX
  8
C7
  10
463.982500
  20
396.961500
  0
VERTEX
  8
C7
  10
463.744300
  20
397.034400
  0
VERTEX
  8
C7
  10
463.489000
  20
397.060000
  0
VERTEX
  8
C7
  10
463.216700
  20
397.035100
  0
VERTEX
  8
C7
  10
462.927300
  20
396.956500
  0
VERTEX
  8
C7
  10
462.621000
  20
396.820800
  0
VERTEX
  8
C7
  10
462.297600
  20
396.624800
  0
VERTEX
  8
C7
  10
461.957200
  20
396.365200
  0
VERTEX
  8
C7
  10
461.599800
  20
396.038800
  0
VERTEX
  8
C7
  10
461.225400
  20
395.642400
  0
VERTEX
  8
C7
  10
460.833900
  20
395.172600
  0
VERTEX
  8
C7
  10
460.425400
  20
394.626200
  0
VERTEX
  8
C7
  10
460.000000
  20
394.000000
  0
VERTEX
  8
C7
  10
459.000000
  20
394.000000
  0
VERTEX
  8
C7
  10
459.000000
  20
400.000000
  0
VERTEX
  8
C7
  10
457.000000
  20
400.000000
  0
VERTEX
  8
C7
  10
457.000000
  20
396.000000
  0
VERTEX
  8
C7
  10
453.000000
  20
396.000000
  0
VERTEX
  8
C7
  10
453.000000
  20
400.000000
  0
VERTEX
  8
C7
  10
450.000000
  20
400.000000
  0
SEQEND
  8
C7
  0
POLYLINE
  8
C7
  66
1
  10
468.000000
  20
400.000000
  0
VERTEX
  8
C7
  10
468.000000
  20
400.000000
  0
VERTEX
  8
C7
  10
468.000000
  20
389.000000
  0
VERTEX
  8
C7
  10
470.000000
  20
391.000000
  0
VERTEX
  8
C7
  10
471.000000
  20
391.000000
  0
VERTEX
  8
C7
  10
471.505800
  20
390.453800
  0
VERTEX
  8
C7
  10
471.988100
  20
389.996500
  0
VERTEX
  8
C7
  10
472.446900
  20
389.623800
  0
VERTEX
  8
C7
  10
472.882100
  20
389.331600
  0
VERTEX
  8
C7
  10
473.293800
  20
389.115600
  0
VERTEX
  8
C7
  10
473.682000
  20
388.971600
  0
VERTEX
  8
C7
  10
474.046700
  20
388.895300
  0
VERTEX
  8
C7
  10
474.387800
  20
388.882500
  0
VERTEX
  8
C7
  10
474.705500
  20
388.929000
  0
VERTEX
  8
C7
  10
474.999600
  20
389.030400
  0
VERTEX
  8
C7
  10
475.270100
  20
389.182700
  0
VERTEX
  8
C7
  10
475.517100
  20
389.381600
  0
VERTEX
  8
C7
  10
475.740700
  20
389.622800
  0
VERTEX
  8
C7
  10
475.940600
  20
389.902100
  0
VERTEX
  8
C7
  10
476.117100
  20
390.215200
  0
VERTEX
  8
C7
  10
476.270000
  20
390.558000
  0
VERTEX
  8
C7
  10
476.399400
  20
390.926200
  0
VERTEX
  8
C7
  10
476.505300
  20
391.315500
  0
VERTEX
  8
C7
  10
476.587600
  20
391.721800
  0
VERTEX
  8
C7
  10
476.646400
  20
392.140800
  0
VERTEX
  8
C7
  10
476.681700
  20
392.568200
  0
VERTEX
  8
C7
  10
476.693500
  20
392.999900
  0
VERTEX
  8
C7
  10
476.681700
  20
393.431600
  0
VERTEX
  8
C7
  10
476.646400
  20
393.859000
  0
VERTEX
  8
C7
  10
476.587600
  20
394.278000
  0
VERTEX
  8
C7
  10
476.505300
  20
394.684300
  0
VERTEX
  8
C7
  10
476.399400
  20
395.073700
  0
VERTEX
  8
C7
  10
476.270000
  20
395.441800
  0
VERTEX
  8
C7
  10
476.117100
  20
395.784600
  0
VERTEX
  8
C7
  10
475.940600
  20
396.097800
  0
VERTEX
  8
C7
  10
475.740700
  20
396.377100
  0
VERTEX
  8
C7
  10
475.517100
  20
396.618300
  0
VERTEX
  8
C7
  10
475.270100
  20
396.817100
  0
VERTEX
  8
C7
  10
474.999600
  20
396.969400
  0
VERTEX
  8
C7
  10
474.705500
  20
397.070900
  0
VERTEX
  8
C7
  10
474.387800
  20
397.117400
  0
VERTEX
  8
C7
  10
474.046700
  20
397.104600
  0
VERTEX
  8
C7
  10
473.682000
  20
397.028300
  0
VERTEX
  8
C7
  10
473.293800
  20
396.884200
  0
VERTEX
  8
C7
  10
472.882100
  20
396.668200
  0
VERTEX
  8
C7
  10
472.446900
  20
396.376000
  0
VERTEX
  8
C7
  10
471.988100
  20
396.003400
  0
VERTEX
  8
C7
  10
471.505800
  20
395.546100
  0
VERTEX
  8
C7
  10
471.000000
  20
395.000000
  0
VERTEX
  8
C7
  10
470.000000
  20
395.000000
  0
VERTEX
  8
C7
  10
470.000000
  20
400.000000
  0
VERTEX
  8
C7
  10
468.000000
  20
400.000000
  0
SEQEND
  8
C7
  0
POLYLINE
  8
C7
  66
1
  10
482.000000
  20
400.000000
  0
VERTEX
  8
C7
  10
482.000000
  20
400.000000
  0
VERTEX
  8
C7
  10
482.000000
  20
389.000000
  0
VERTEX
  8
C7
  10
483.008700
  20
389.042700
  0
VERTEX
  8
C7
  10
483.952300
  20
389.143700
  0
VERTEX
  8
C7
  10
484.830800
  20
389.299000
  0
VERTEX
  8
C7
  10
485.644300
  20
389.504900
  0
VERTEX
  8
C7
  10
486.392700
  20
389.757400
  0
VERTEX
  8
C7
  10
487.076000
  20
390.052600
  0
VERTEX
  8
C7
  10
487.694300
  20
390.386600
  0
VERTEX
  8
C7
  10
488.247400
  20
390.755600
  0
VERTEX
  8
C7
  10
488.735500
  20
391.155700
  0
VERTEX
  8
C7
  10
489.158500
  20
391.582900
  0
VERTEX
  8
C7
  10
489.516500
  20
392.033500
  0
VERTEX
  8
C7
  10
489.809300
  20
392.503500
  0
VERTEX
  8
C7
  10
490.037100
  20
392.989000
  0
VERTEX
  8
C7
  10
490.199800
  20
393.486100
  0
VERTEX
  8
C7
  10
490.297400
  20
393.991100
  0
VERTEX
  8
C7
  10
490.329900
  20
394.499900
  0
VERTEX
  8
C7
  10
490.297400
  20
395.008700
  0
VERTEX
  8
C7
  10
490.199800
  20
395.513700
  0
VERTEX
  8
C7
  10
490.037100
  20
396.010900
  0
VERTEX
  8
C7
  10
489.809300
  20
396.496400
  0
VERTEX
  8
C7
  10
489.516500
  20
396.966400
  0
VERTEX
  8
C7
  10
489.158500
  20
397.416900
  0
VERTEX
  8
C7
  10
488.735500
  20
397.844200
  0
VERTEX
  8
C7
  10
488.247500
  20
398.244300
  0
VERTEX
  8
C7
  10
487.694300
  20
398.613300
  0
VERTEX
  8
C7
  10
487.076100
  20
398.947300
  0
VERTEX
  8
C7
  10
486.392700
  20
399.242500
  0
VERTEX
  8
C7
  10
485.644300
  20
399.495000
  0
VERTEX
  8
C7
  10
484.830900
  20
399.700800
  0
VERTEX
  8
C7
  10
483.952300
  20
399.856200
  0
VERTEX
  8
C7
  10
483.008700
  20
399.957200
  0
VERTEX
  8
C7
  10
482.000000
  20
400.000000
  0
SEQEND
  8
C7
  0
POLYLINE
  8
C7
  66
1
  10
492.000000
  20
400.000000
  0
VERTEX
  8
C7
  10
492.000000
  20
400.000000
  0
VERTEX
  8
C7
  10
492.000000
  20
389.000000
  0
VERTEX
  8
C7
  10
502.000000
  20
389.000000
  0
VERTEX
  8
C7
  10
501.950300
  20
390.221800
  0
VERTEX
  8
C7
  10
501.856500
  20
391.330400
  0
VERTEX
  8
C7
  10
501.708400
  20
392.329200
  0
VERTEX
  8
C7
  10
501.495900
  20
393.221400
  0
VERTEX
  8
C7
  10
501.208700
  20
394.010300
  0
VERTEX
  8
C7
  10
500.836600
  20
394.699200
  0
VERTEX
  8
C7
  10
500.369500
  20
395.291400
  0
VERTEX
  8
C7
  10
499.797100
  20
395.790300
  0
VERTEX
  8
C7
  10
499.109300
  20
396.199100
  0
VERTEX
  8
C7
  10
498.295900
  20
396.521200
  0
VERTEX
  8
C7
  10
497.346600
  20
396.759800
  0
VERTEX
  8
C7
  10
496.251400
  20
396.918300
  0
VERTEX
  8
C7
  10
495.000000
  20
397.000000
  0
VERTEX
  8
C7
  10
495.000000
  20
392.000000
  0
VERTEX
  8
C7
  10
494.000000
  20
392.000000
  0
VERTEX
  8
C7
  10
494.000000
  20
400.000000
  0
VERTEX
  8
C7
  10
492.000000
  20
400.000000
  0
SEQEND
  8
C7
  0
POLYLINE
  8
C7
  66
1
  10
443.000000
  20
399.000000
  0
VERTEX
  8
C7
  10
443.000000
  20
399.000000
  0
VERTEX
  8
C7
  10
442.000000
  20
396.000000
  0
VERTEX
  8
C7
  10
440.979100
  20
396.268500
  0
VERTEX
  8
C7
  10
439.998700
  20
396.481800
  0
VERTEX
  8
C7
  10
439.034400
  20
396.643100
  0
VERTEX
  8
C7
  10
438.061900
  20
396.755500
  0
VERTEX
  8
C7
  10
437.057000
  20
396.822200
  0
VERTEX
  8
C7
  10
435.995300
  20
396.846400
  0
VERTEX
  8
C7
  10
435.123800
  20
396.836500
  0
VERTEX
  8
C7
  10
434.316500
  20
396.801500
  0
VERTEX
  8
C7
  10
433.571900
  20
396.742400
  0
VERTEX
  8
C7
  10
432.888300
  20
396.660600
  0
VERTEX
  8
C7
  10
432.264100
  20
396.557200
  0
VERTEX
  8
C7
  10
431.697600
  20
396.433500
  0
VERTEX
  8
C7
  10
431.187300
  20
396.290700
  0
VERTEX
  8
C7
  10
430.731500
  20
396.130100
  0
VERTEX
  8
C7
  10
430.328600
  20
395.952800
  0
VERTEX
  8
C7
  10
429.976900
  20
395.760100
  0
VERTEX
  8
C7
  10
429.674800
  20
395.553300
  0
VERTEX
  8
C7
  10
429.420800
  20
395.333500
  0
VERTEX
  8
C7
  10
429.213100
  20
395.102000
  0
VERTEX
  8
C7
  10
429.050200
  20
394.860000
  0
VERTEX
  8
C7
  10
428.930400
  20
394.608700
  0
VERTEX
  8
C7
  10
428.852100
  20
394.349400
  0
VERTEX
  8
C7
  10
428.813700
  20
394.083400
  0
VERTEX
  8
C7
  10
428.813600
  20
393.811700
  0
VERTEX
  8
C7
  10
428.850000
  20
393.535700
  0
VERTEX
  8
C7
  10
428.921500
  20
393.256600
  0
VERTEX
  8
C7
  10
429.026300
  20
392.975600
  0
VERTEX
  8
C7
  10
429.162900
  20
392.694000
  0
VERTEX
  8
C7
  10
429.329600
  20
392.412900
  0
VERTEX
  8
C7
  10
429.524900
  20
392.133700
  0
VERTEX
  8
C7
  10
429.746900
  20
391.857400
  0
VERTEX
  8
C7
  10
429.994300
  20
391.585500
  0
VERTEX
  8
C7
  10
430.265200
  20
391.319000
  0
VERTEX
  8
C7
  10
430.558200
  20
391.059200
  0
VERTEX
  8
C7
  10
430.871500
  20
390.807400
  0
VERTEX
  8
C7
  10
431.203600
  20
390.564800
  0
VERTEX
  8
C7
  10
431.552800
  20
390.332500
  0
VERTEX
  8
C7
  10
431.917400
  20
390.111900
  0
VERTEX
  8
C7
  10
432.296000
  20
389.904200
  0
VERTEX
  8
C7
  10
432.686800
  20
389.710600
  0
VERTEX
  8
C7
  10
433.088200
  20
389.532300
  0
VERTEX
  8
C7
  10
433.498600
  20
389.370500
  0
VERTEX
  8
C7
  10
433.916400
  20
389.226500
  0
VERTEX
  8
C7
  10
434.339900
  20
389.101500
  0
VERTEX
  8
C7
  10
434.767500
  20
388.996800
  0
VERTEX
  8
C7
  10
435.197600
  20
388.913500
  0
VERTEX
  8
C7
  10
435.628600
  20
388.852900
  0
VERTEX
  8
C7
  10
436.058800
  20
388.816300
  0
VERTEX
  8
C7
  10
436.486600
  20
388.804800
  0
VERTEX
  8
C7
  10
436.910400
  20
388.819700
  0
VERTEX
  8
C7
  10
437.328600
  20
388.862200
  0
VERTEX
  8
C7
  10
437.739500
  20
388.933500
  0
VERTEX
  8
C7
  10
438.141600
  20
389.034900
  0
VERTEX
  8
C7
  10
438.533100
  20
389.167600
  0
VERTEX
  8
C7
  10
438.912500
  20
389.332800
  0
VERTEX
  8
C7
  10
439.278100
  20
389.531800
  0
VERTEX
  8
C7
  10
439.628300
  20
389.765800
  0
VERTEX
  8
C7
  10
439.961500
  20
390.036000
  0
VERTEX
  8
C7
  10
440.276000
  20
390.343600
  0
VERTEX
  8
C7
  10
440.570300
  20
390.689900
  0
VERTEX
  8
C7
  10
440.842700
  20
391.076100
  0
VERTEX
  8
C7
  10
441.091600
  20
391.503400
  0
VERTEX
  8
C7
  10
441.315300
  20
391.973100
  0
VERTEX
  8
C7
  10
441.512300
  20
392.486400
  0
VERTEX
  8
C7
  10
441.680900
  20
393.044500
  0
VERTEX
  8
C7
  10
441.819400
  20
393.648600
  0
VERTEX
  8
C7
  10
441.926300
  20
394.300000
  0
VERTEX
  8
C7
  10
442.000000
  20
395.000000
  0
VERTEX
  8
C7
  10
443.000000
  20
395.000000
  0
VERTEX
  8
C7
  10
442.993200
  20
393.855000
  0
VERTEX
  8
C7
  10
442.995900
  20
392.817400
  0
VERTEX
  8
C7
  10
443.057900
  20
391.890100
  0
VERTEX
  8
C7
  10
443.228900
  20
391.075500
  0
VERTEX
  8
C7
  10
443.558900
  20
390.376600
  0
VERTEX
  8
C7
  10
444.097500
  20
389.795900
  0
VERTEX
  8
C7
  10
444.894600
  20
389.336100
  0
VERTEX
  8
C7
  10
446.000000
  20
389.000000
  0
VERTEX
  8
C7
  10
445.000000
  20
399.000000
  0
VERTEX
  8
C7
  10
443.000000
  20
399.000000
  0
SEQEND
  8
C7
  0
POLYLINE
  8
C7
  66
1
  10
484.000000
  20
398.000000
  0
VERTEX
  8
C7
  10
484.000000
  20
398.000000
  0
VERTEX
  8
C7
  10
484.000000
  20
391.000000
  0
VERTEX
  8
C7
  10
485.010300
  20
391.365800
  0
VERTEX
  8
C7
  10
485.865300
  20
391.793500
  0
VERTEX
  8
C7
  10
486.564800
  20
392.272900
  0
VERTEX
  8
C7
  10
487.108800
  20
392.793500
  0
VERTEX
  8
C7
  10
487.497400
  20
393.345100
  0
VERTEX
  8
C7
  10
487.730600
  20
393.917400
  0
VERTEX
  8
C7
  10
487.808300
  20
394.499900
  0
VERTEX
  8
C7
  10
487.730600
  20
395.082500
  0
VERTEX
  8
C7
  10
487.497400
  20
395.654700
  0
VERTEX
  8
C7
  10
487.108800
  20
396.206300
  0
VERTEX
  8
C7
  10
486.564800
  20
396.727000
  0
VERTEX
  8
C7
  10
485.865300
  20
397.206300
  0
VERTEX
  8
C7
  10
485.010300
  20
397.634100
  0
VERTEX
  8
C7
  10
484.000000
  20
398.000000
  0
SEQEND
  8
C7
  0
POLYLINE
  8
C7
  66
1
  10
520.000000
  20
398.000000
  0
VERTEX
  8
C7
  10
520.000000
  20
398.000000
  0
VERTEX
  8
C7
  10
519.000000
  20
396.000000
  0
VERTEX
  8
C7
  10
521.000000
  20
396.000000
  0
VERTEX
  8
C7
  10
520.000000
  20
398.000000
  0
SEQEND
  8
C7
  0
POLYLINE
  8
C7
  66
1
  10
413.000000
  20
397.000000
  0
VERTEX
  8
C7
  10
413.000000
  20
397.000000
  0
VERTEX
  8
C7
  10
412.000000
  20
390.000000
  0
VERTEX
  8
C7
  10
420.000000
  20
391.000000
  0
VERTEX
  8
C7
  10
421.000000
  20
391.000000
  0
VERTEX
  8
C7
  10
427.000000
  20
389.000000
  0
VERTEX
  8
C7
  10
427.000000
  20
397.000000
  0
VERTEX
  8
C7
  10
425.000000
  20
397.000000
  0
VERTEX
  8
C7
  10
425.000000
  20
391.000000
  0
VERTEX
  8
C7
  10
423.000000
  20
391.000000
  0
VERTEX
  8
C7
  10
423.000000
  20
397.000000
  0
VERTEX
  8
C7
  10
413.000000
  20
397.000000
  0
SEQEND
  8
C7
  0
POLYLINE
  8
C7
  66
1
  10
508.000000
  20
393.000000
  0
VERTEX
  8
C7
  10
508.000000
  20
393.000000
  0
VERTEX
  8
C7
  10
512.000000
  20
397.000000
  0
VERTEX
  8
C7
  10
508.000000
  20
393.000000
  0
SEQEND
  8
C7
  0
POLYLINE
  8
C7
  66
1
  10
527.666687
  20
396.666656
  0
VERTEX
  8
C7
  10
527.666687
  20
396.666656
  0
VERTEX
  8
C7
  10
528.333313
  20
396.333344
  0
VERTEX
  8
C7
  10
527.666687
  20
396.666656
  0
SEQEND
  8
C7
  0
POLYLINE
  8
C7
  66
1
  10
544.000000
  20
397.000000
  0
VERTEX
  8
C7
  10
544.000000
  20
397.000000
  0
VERTEX
  8
C7
  10
544.000000
  20
389.000000
  0
VERTEX
  8
C7
  10
546.000000
  20
389.000000
  0
VERTEX
  8
C7
  10
546.000000
  20
395.000000
  0
VERTEX
  8
C7
  10
548.000000
  20
395.000000
  0
VERTEX
  8
C7
  10
548.000000
  20
389.000000
  0
VERTEX
  8
C7
  10
550.000000
  20
389.000000
  0
VERTEX
  8
C7
  10
550.000000
  20
395.000000
  0
VERTEX
  8
C7
  10
552.000000
  20
395.000000
  0
VERTEX
  8
C7
  10
552.000000
  20
389.000000
  0
VERTEX
  8
C7
  10
554.000000
  20
389.000000
  0
VERTEX
  8
C7
  10
554.000000
  20
397.000000
  0
VERTEX
  8
C7
  10
544.000000
  20
397.000000
  0
SEQEND
  8
C7
  0
POLYLINE
  8
C7
  66
1
  10
252.000000
  20
395.000000
  0
VERTEX
  8
C7
  10
252.000000
  20
395.000000
  0
VERTEX
  8
C7
  10
252.000000
  20
389.000000
  0
VERTEX
  8
C7
  10
253.000000
  20
389.000000
  0
VERTEX
  8
C7
  10
252.000000
  20
395.000000
  0
SEQEND
  8
C7
  0
POLYLINE
  8
C7
  66
1
  10
415.666656
  20
394.666656
  0
VERTEX
  8
C7
  10
415.666656
  20
394.666656
  0
VERTEX
  8
C7
  10
416.333344
  20
394.333344
  0
VERTEX
  8
C7
  10
415.666656
  20
394.666656
  0
SEQEND
  8
C7
  0
POLYLINE
  8
C7
  66
1
  10
430.000000
  20
395.000000
  0
VERTEX
  8
C7
  10
430.000000
  20
395.000000
  0
VERTEX
  8
C7
  10
430.000000
  20
391.000000
  0
VERTEX
  8
C7
  10
434.000000
  20
394.000000
  0
VERTEX
  8
C7
  10
430.000000
  20
395.000000
  0
SEQEND
  8
C7
  0
POLYLINE
  8
C7
  66
1
  10
437.666656
  20
394.666656
  0
VERTEX
  8
C7
  10
437.666656
  20
394.666656
  0
VERTEX
  8
C7
  10
438.333344
  20
394.333344
  0
VERTEX
  8
C7
  10
437.666656
  20
394.666656
  0
SEQEND
  8
C7
  0
POLYLINE
  8
C7
  66
1
  10
462.000000
  20
395.000000
  0
VERTEX
  8
C7
  10
462.000000
  20
395.000000
  0
VERTEX
  8
C7
  10
462.000000
  20
391.000000
  0
VERTEX
  8
C7
  10
465.000000
  20
392.000000
  0
VERTEX
  8
C7
  10
465.000000
  20
394.000000
  0
VERTEX
  8
C7
  10
464.000000
  20
395.000000
  0
VERTEX
  8
C7
  10
462.000000
  20
395.000000
  0
SEQEND
  8
C7
  0
POLYLINE
  8
C7
  66
1
  10
473.666656
  20
394.666656
  0
VERTEX
  8
C7
  10
473.666656
  20
394.666656
  0
VERTEX
  8
C7
  10
474.333344
  20
394.333344
  0
VERTEX
  8
C7
  10
473.666656
  20
394.666656
  0
SEQEND
  8
C7
  0
POLYLINE
  8
C7
  66
1
  10
497.666656
  20
394.666656
  0
VERTEX
  8
C7
  10
497.666656
  20
394.666656
  0
VERTEX
  8
C7
  10
498.333344
  20
394.333344
  0
VERTEX
  8
C7
  10
497.666656
  20
394.666656
  0
SEQEND
  8
C7
  0
POLYLINE
  8
C7
  66
1
  10
510.000000
  20
391.000000
  0
VERTEX
  8
C7
  10
510.000000
  20
391.000000
  0
VERTEX
  8
C7
  10
515.000000
  20
395.000000
  0
VERTEX
  8
C7
  10
510.000000
  20
391.000000
  0
SEQEND
  8
C7
  0
POLYLINE
  8
C7
  66
1
  10
527.000000
  20
393.000000
  0
VERTEX
  8
C7
  10
527.000000
  20
393.000000
  0
VERTEX
  8
C7
  10
527.000000
  20
391.000000
  0
VERTEX
  8
C7
  10
529.000000
  20
391.000000
  0
VERTEX
  8
C7
  10
529.000000
  20
393.000000
  0
VERTEX
  8
C7
  10
527.000000
  20
393.000000
  0
SEQEND
  8
C7
  0
POLYLINE
  8
C7
  66
1
  10
415.666656
  20
391.666656
  0
VERTEX
  8
C7
  10
415.666656
  20
391.666656
  0
VERTEX
  8
C7
  10
416.333344
  20
391.333344
  0
VERTEX
  8
C7
  10
415.666656
  20
391.666656
  0
SEQEND
  8
C7
  0
POLYLINE
  8
C7
  66
1
  10
437.666656
  20
391.666656
  0
VERTEX
  8
C7
  10
437.666656
  20
391.666656
  0
VERTEX
  8
C7
  10
438.333344
  20
391.333344
  0
VERTEX
  8
C7
  10
437.666656
  20
391.666656
  0
SEQEND
  8
C7
  0
POLYLINE
  8
C7
  66
1
  10
473.666656
  20
391.666656
  0
VERTEX
  8
C7
  10
473.666656
  20
391.666656
  0
VERTEX
  8
C7
  10
474.333344
  20
391.333344
  0
VERTEX
  8
C7
  10
473.666656
  20
391.666656
  0
SEQEND
  8
C7
  0
POLYLINE
  8
C7
  66
1
  10
497.666656
  20
391.666656
  0
VERTEX
  8
C7
  10
497.666656
  20
391.666656
  0
VERTEX
  8
C7
  10
498.333344
  20
391.333344
  0
VERTEX
  8
C7
  10
497.666656
  20
391.666656
  0
SEQEND
  8
C7
  0
POLYLINE
  8
C7
  66
1
  10
503.000000
  20
391.000000
  0
VERTEX
  8
C7
  10
503.000000
  20
391.000000
  0
VERTEX
  8
C7
  10
503.000000
  20
389.000000
  0
VERTEX
  8
C7
  10
505.000000
  20
389.000000
  0
VERTEX
  8
C7
  10
505.000000
  20
391.000000
  0
VERTEX
  8
C7
  10
503.000000
  20
391.000000
  0
SEQEND
  8
C7
  0
POLYLINE
  8
C7
  66
1
  10
252.000000
  20
386.000000
  0
VERTEX
  8
C7
  10
252.000000
  20
386.000000
  0
VERTEX
  8
C7
  10
252.000000
  20
380.000000
  0
VERTEX
  8
C7
  10
253.000000
  20
380.000000
  0
VERTEX
  8
C7
  10
252.000000
  20
386.000000
  0
SEQEND
  8
C7
  0
POLYLINE
  8
C7
  66
1
  10
531.000000
  20
386.000000
  0
VERTEX
  8
C7
  10
531.000000
  20
386.000000
  0
VERTEX
  8
C7
  10
531.000000
  20
380.000000
  0
VERTEX
  8
C7
  10
532.000000
  20
380.000000
  0
VERTEX
  8
C7
  10
531.000000
  20
386.000000
  0
SEQEND
  8
C7
  0
POLYLINE
  8
C7
  66
1
  10
252.000000
  20
376.000000
  0
VERTEX
  8
C7
  10
252.000000
  20
376.000000
  0
VERTEX
  8
C7
  10
252.000000
  20
371.000000
  0
VERTEX
  8
C7
  10
253.000000
  20
371.000000
  0
VERTEX
  8
C7
  10
252.000000
  20
376.000000
  0
SEQEND
  8
C7
  0
POLYLINE
  8
C7
  66
1
  10
531.000000
  20
376.000000
  0
VERTEX
  8
C7
  10
531.000000
  20
376.000000
  0
VERTEX
  8
C7
  10
531.000000
  20
371.000000
  0
VERTEX
  8
C7
  10
532.000000
  20
371.000000
  0
VERTEX
  8
C7
  10
531.000000
  20
376.000000
  0
SEQEND
  8
C7
  0
POLYLINE
  8
C7
  66
1
  10
321.000000
  20
372.000000
  0
VERTEX
  8
C7
  10
321.000000
  20
372.000000
  0
VERTEX
  8
C7
  10
321.000000
  20
357.000000
  0
VERTEX
  8
C7
  10
331.000000
  20
357.000000
  0
VERTEX
  8
C7
  10
331.000000
  20
360.000000
  0
VERTEX
  8
C7
  10
324.000000
  20
360.000000
  0
VERTEX
  8
C7
  10
324.000000
  20
372.000000
  0
VERTEX
  8
C7
  10
321.000000
  20
372.000000
  0
SEQEND
  8
C7
  0
POLYLINE
  8
C7
  66
1
  10
332.000000
  20
372.000000
  0
VERTEX
  8
C7
  10
332.000000
  20
372.000000
  0
VERTEX
  8
C7
  10
332.000000
  20
357.000000
  0
VERTEX
  8
C7
  10
332.894500
  20
356.984400
  0
VERTEX
  8
C7
  10
333.848900
  20
356.949100
  0
VERTEX
  8
C7
  10
334.845200
  20
356.912400
  0
VERTEX
  8
C7
  10
335.865100
  20
356.893100
  0
VERTEX
  8
C7
  10
336.890800
  20
356.909500
  0
VERTEX
  8
C7
  10
337.904000
  20
356.980400
  0
VERTEX
  8
C7
  10
338.886800
  20
357.124200
  0
VERTEX
  8
C7
  10
339.821000
  20
357.359600
  0
VERTEX
  8
C7
  10
340.688500
  20
357.704900
  0
VERTEX
  8
C7
  10
341.471400
  20
358.179000
  0
VERTEX
  8
C7
  10
342.271200
  20
358.822400
  0
VERTEX
  8
C7
  10
342.942500
  20
359.467800
  0
VERTEX
  8
C7
  10
343.490800
  20
360.113500
  0
VERTEX
  8
C7
  10
343.921900
  20
360.757900
  0
VERTEX
  8
C7
  10
344.241400
  20
361.399500
  0
VERTEX
  8
C7
  10
344.455000
  20
362.036700
  0
VERTEX
  8
C7
  10
344.568400
  20
362.668000
  0
VERTEX
  8
C7
  10
344.587300
  20
363.291900
  0
VERTEX
  8
C7
  10
344.517400
  20
363.906700
  0
VERTEX
  8
C7
  10
344.364300
  20
364.511000
  0
VERTEX
  8
C7
  10
344.133700
  20
365.103100
  0
VERTEX
  8
C7
  10
343.831300
  20
365.681500
  0
VERTEX
  8
C7
  10
343.462800
  20
366.244700
  0
VERTEX
  8
C7
  10
343.033900
  20
366.791000
  0
VERTEX
  8
C7
  10
342.550200
  20
367.319000
  0
VERTEX
  8
C7
  10
342.017400
  20
367.827100
  0
VERTEX
  8
C7
  10
341.441200
  20
368.313700
  0
VERTEX
  8
C7
  10
340.827300
  20
368.777200
  0
VERTEX
  8
C7
  10
340.181400
  20
369.216200
  0
VERTEX
  8
C7
  10
339.509200
  20
369.629100
  0
VERTEX
  8
C7
  10
338.816200
  20
370.014200
  0
VERTEX
  8
C7
  10
338.108300
  20
370.370100
  0
VERTEX
  8
C7
  10
337.391100
  20
370.695200
  0
VERTEX
  8
C7
  10
336.670200
  20
370.987900
  0
VERTEX
  8
C7
  10
335.951400
  20
371.246700
  0
VERTEX
  8
C7
  10
335.240400
  20
371.470000
  0
VERTEX
  8
C7
  10
334.542700
  20
371.656300
  0
VERTEX
  8
C7
  10
333.864200
  20
371.804000
  0
VERTEX
  8
C7
  10
333.210400
  20
371.911500
  0
VERTEX
  8
C7
  10
332.587100
  20
371.977400
  0
VERTEX
  8
C7
  10
332.000000
  20
372.000000
  0
SEQEND
  8
C7
  0
POLYLINE
  8
C7
  66
1
  10
344.000000
  20
372.000000
  0
VERTEX
  8
C7
  10
344.000000
  20
372.000000
  0
VERTEX
  8
C7
  10
344.000000
  20
369.000000
  0
VERTEX
  8
C7
  10
349.000000
  20
369.000000
  0
VERTEX
  8
C7
  10
349.000000
  20
357.000000
  0
VERTEX
  8
C7
  10
351.000000
  20
357.000000
  0
VERTEX
  8
C7
  10
351.000000
  20
369.000000
  0
VERTEX
  8
C7
  10
362.000000
  20
370.000000
  0
VERTEX
  8
C7
  10
356.000000
  20
357.000000
  0
VERTEX
  8
C7
  10
366.000000
  20
357.000000
  0
VERTEX
  8
C7
  10
366.000000
  20
360.000000
  0
VERTEX
  8
C7
  10
361.000000
  20
360.000000
  0
VERTEX
  8
C7
  10
361.617500
  20
360.654700
  0
VERTEX
  8
C7
  10
362.265400
  20
361.335300
  0
VERTEX
  8
C7
  10
362.918600
  20
362.043700
  0
VERTEX
  8
C7
  10
363.552000
  20
362.781700
  0
VERTEX
  8
C7
  10
364.140700
  20
363.551300
  0
VERTEX
  8
C7
  10
364.659400
  20
364.354500
  0
VERTEX
  8
C7
  10
365.083100
  20
365.193100
  0
VERTEX
  8
C7
  10
365.386800
  20
366.069200
  0
VERTEX
  8
C7
  10
365.545400
  20
366.984600
  0
VERTEX
  8
C7
  10
365.533900
  20
367.941300
  0
VERTEX
  8
C7
  10
365.337000
  20
368.949400
  0
VERTEX
  8
C7
  10
364.995900
  20
369.781300
  0
VERTEX
  8
C7
  10
364.530700
  20
370.445200
  0
VERTEX
  8
C7
  10
363.961600
  20
370.949300
  0
VERTEX
  8
C7
  10
363.308800
  20
371.301700
  0
VERTEX
  8
C7
  10
362.592500
  20
371.510600
  0
VERTEX
  8
C7
  10
361.833000
  20
371.584300
  0
VERTEX
  8
C7
  10
361.050300
  20
371.530800
  0
VERTEX
  8
C7
  10
360.264700
  20
371.358500
  0
VERTEX
  8
C7
  10
359.496400
  20
371.075400
  0
VERTEX
  8
C7
  10
358.765600
  20
370.689900
  0
VERTEX
  8
C7
  10
358.092400
  20
370.210000
  0
VERTEX
  8
C7
  10
357.497200
  20
369.643900
  0
VERTEX
  8
C7
  10
357.000000
  20
369.000000
  0
VERTEX
  8
C7
  10
356.000000
  20
369.000000
  0
VERTEX
  8
C7
  10
356.000000
  20
372.000000
  0
VERTEX
  8
C7
  10
344.000000
  20
372.000000
  0
SEQEND
  8
C7
  0
POLYLINE
  8
C7
  66
1
  10
367.000000
  20
360.000000
  0
VERTEX
  8
C7
  10
367.000000
  20
360.000000
  0
VERTEX
  8
C7
  10
374.000000
  20
357.000000
  0
VERTEX
  8
C7
  10
375.000000
  20
372.000000
  0
VERTEX
  8
C7
  10
374.036800
  20
371.490500
  0
VERTEX
  8
C7
  10
373.140800
  20
370.937100
  0
VERTEX
  8
C7
  10
372.310500
  20
370.340300
  0
VERTEX
  8
C7
  10
371.544600
  20
369.700700
  0
VERTEX
  8
C7
  10
370.841900
  20
369.018800
  0
VERTEX
  8
C7
  10
370.201000
  20
368.295300
  0
VERTEX
  8
C7
  10
369.620600
  20
367.530600
  0
VERTEX
  8
C7
  10
369.099500
  20
366.725300
  0
VERTEX
  8
C7
  10
368.636200
  20
365.880000
  0
VERTEX
  8
C7
  10
368.229600
  20
364.995300
  0
VERTEX
  8
C7
  10
367.878300
  20
364.071700
  0
VERTEX
  8
C7
  10
367.581000
  20
363.109900
  0
VERTEX
  8
C7
  10
367.336300
  20
362.110200
  0
VERTEX
  8
C7
  10
367.143100
  20
361.073400
  0
VERTEX
  8
C7
  10
367.000000
  20
360.000000
  0
SEQEND
  8
C7
  0
POLYLINE
  8
C7
  66
1
  10
379.000000
  20
366.000000
  0
VERTEX
  8
C7
  10
379.000000
  20
366.000000
  0
VERTEX
  8
C7
  10
383.000000
  20
367.000000
  0
VERTEX
  8
C7
  10
383.000000
  20
357.000000
  0
VERTEX
  8
C7
  10
386.000000
  20
357.000000
  0
VERTEX
  8
C7
  10
386.000000
  20
372.000000
  0
VERTEX
  8
C7
  10
379.000000
  20
366.000000
  0
SEQEND
  8
C7
  0
POLYLINE
  8
C7
  66
1
  10
391.471466
  20
370.967590
  0
VERTEX
  8
C7
  10
391.471466
  20
370.967590
  0
VERTEX
  8
C7
  10
391.013100
  20
370.587100
  0
VERTEX
  8
C7
  10
390.604800
  20
370.134400
  0
VERTEX
  8
C7
  10
390.246000
  20
369.617100
  0
VERTEX
  8
C7
  10
389.936200
  20
369.042400
  0
VERTEX
  8
C7
  10
389.674900
  20
368.418100
  0
VERTEX
  8
C7
  10
389.461600
  20
367.751600
  0
VERTEX
  8
C7
  10
389.295700
  20
367.050300
  0
VERTEX
  8
C7
  10
389.177000
  20
366.321800
  0
VERTEX
  8
C7
  10
389.104700
  20
365.573600
  0
VERTEX
  8
C7
  10
389.078600
  20
364.813200
  0
VERTEX
  8
C7
  10
389.097900
  20
364.048200
  0
VERTEX
  8
C7
  10
389.162400
  20
363.285900
  0
VERTEX
  8
C7
  10
389.271400
  20
362.534000
  0
VERTEX
  8
C7
  10
389.424600
  20
361.799900
  0
VERTEX
  8
C7
  10
389.621300
  20
361.091100
  0
VERTEX
  8
C7
  10
389.861200
  20
360.415200
  0
VERTEX
  8
C7
  10
390.143700
  20
359.779700
  0
VERTEX
  8
C7
  10
390.468400
  20
359.191900
  0
VERTEX
  8
C7
  10
390.834700
  20
358.659600
  0
VERTEX
  8
C7
  10
391.242100
  20
358.190100
  0
VERTEX
  8
C7
  10
391.690300
  20
357.791000
  0
VERTEX
  8
C7
  10
392.178600
  20
357.469800
  0
VERTEX
  8
C7
  10
392.706700
  20
357.233900
  0
VERTEX
  8
C7
  10
393.273900
  20
357.091000
  0
VERTEX
  8
C7
  10
393.879900
  20
357.048400
  0
VERTEX
  8
C7
  10
394.524100
  20
357.113800
  0
VERTEX
  8
C7
  10
395.206000
  20
357.294500
  0
VERTEX
  8
C7
  10
395.925300
  20
357.598200
  0
VERTEX
  8
C7
  10
396.681300
  20
358.032400
  0
VERTEX
  8
C7
  10
397.139200
  20
358.391500
  0
VERTEX
  8
C7
  10
397.538700
  20
358.831400
  0
VERTEX
  8
C7
  10
397.881200
  20
359.343600
  0
VERTEX
  8
C7
  10
398.167700
  20
359.919600
  0
VERTEX
  8
C7
  10
398.399600
  20
360.551100
  0
VERTEX
  8
C7
  10
398.578100
  20
361.229500
  0
VERTEX
  8
C7
  10
398.704400
  20
361.946500
  0
VERTEX
  8
C7
  10
398.779700
  20
362.693600
  0
VERTEX
  8
C7
  10
398.805300
  20
363.462400
  0
VERTEX
  8
C7
  10
398.782300
  20
364.244400
  0
VERTEX
  8
C7
  10
398.712000
  20
365.031200
  0
VERTEX
  8
C7
  10
398.595700
  20
365.814400
  0
VERTEX
  8
C7
  10
398.434600
  20
366.585600
  0
VERTEX
  8
C7
  10
398.229800
  20
367.336200
  0
VERTEX
  8
C7
  10
397.982700
  20
368.057900
  0
VERTEX
  8
C7
  10
397.694300
  20
368.742200
  0
VERTEX
  8
C7
  10
397.366100
  20
369.380700
  0
VERTEX
  8
C7
  10
396.999200
  20
369.964900
  0
VERTEX
  8
C7
  10
396.594800
  20
370.486500
  0
VERTEX
  8
C7
  10
396.154100
  20
370.936900
  0
VERTEX
  8
C7
  10
395.678500
  20
371.307800
  0
VERTEX
  8
C7
  10
395.169000
  20
371.590600
  0
VERTEX
  8
C7
  10
394.627000
  20
371.777100
  0
VERTEX
  8
C7
  10
394.053600
  20
371.858700
  0
VERTEX
  8
C7
  10
393.450100
  20
371.826900
  0
VERTEX
  8
C7
  10
392.817800
  20
371.673500
  0
VERTEX
  8
C7
  10
392.157800
  20
371.389800
  0
VERTEX
  8
C7
  10
391.471400
  20
370.967600
  0
SEQEND
  8
C7
  0
POLYLINE
  8
C7
  66
1
  10
400.000000
  20
372.000000
  0
VERTEX
  8
C7
  10
400.000000
  20
372.000000
  0
VERTEX
  8
C7
  10
400.000000
  20
369.000000
  0
VERTEX
  8
C7
  10
405.000000
  20
369.000000
  0
VERTEX
  8
C7
  10
402.000000
  20
357.000000
  0
VERTEX
  8
C7
  10
405.000000
  20
357.000000
  0
VERTEX
  8
C7
  10
411.000000
  20
369.000000
  0
VERTEX
  8
C7
  10
411.124900
  20
368.044600
  0
VERTEX
  8
C7
  10
411.251100
  20
367.073800
  0
VERTEX
  8
C7
  10
411.387300
  20
366.096100
  0
VERTEX
  8
C7
  10
411.542400
  20
365.120400
  0
VERTEX
  8
C7
  10
411.725100
  20
364.155300
  0
VERTEX
  8
C7
  10
411.944100
  20
363.209500
  0
VERTEX
  8
C7
  10
412.208300
  20
362.291700
  0
VERTEX
  8
C7
  10
412.526500
  20
361.410500
  0
VERTEX
  8
C7
  10
412.907300
  20
360.574800
  0
VERTEX
  8
C7
  10
413.359600
  20
359.793100
  0
VERTEX
  8
C7
  10
413.892100
  20
359.074100
  0
VERTEX
  8
C7
  10
414.513600
  20
358.426700
  0
VERTEX
  8
C7
  10
415.232900
  20
357.859300
  0
VERTEX
  8
C7
  10
416.058800
  20
357.380900
  0
VERTEX
  8
C7
  10
417.000000
  20
357.000000
  0
VERTEX
  8
C7
  10
419.000000
  20
367.000000
  0
VERTEX
  8
C7
  10
420.000000
  20
367.000000
  0
VERTEX
  8
C7
  10
422.000000
  20
357.000000
  0
VERTEX
  8
C7
  10
422.941100
  20
357.380900
  0
VERTEX
  8
C7
  10
423.767000
  20
357.859300
  0
VERTEX
  8
C7
  10
424.486300
  20
358.426700
  0
VERTEX
  8
C7
  10
425.107800
  20
359.074100
  0
VERTEX
  8
C7
  10
425.640300
  20
359.793100
  0
VERTEX
  8
C7
  10
426.092600
  20
360.574800
  0
VERTEX
  8
C7
  10
426.473400
  20
361.410500
  0
VERTEX
  8
C7
  10
426.791500
  20
362.291700
  0
VERTEX
  8
C7
  10
427.055700
  20
363.209500
  0
VERTEX
  8
C7
  10
427.274800
  20
364.155300
  0
VERTEX
  8
C7
  10
427.457400
  20
365.120400
  0
VERTEX
  8
C7
  10
427.612500
  20
366.096100
  0
VERTEX
  8
C7
  10
427.748800
  20
367.073800
  0
VERTEX
  8
C7
  10
427.875000
  20
368.044600
  0
VERTEX
  8
C7
  10
428.000000
  20
369.000000
  0
VERTEX
  8
C7
  10
429.000000
  20
369.000000
  0
VERTEX
  8
C7
  10
435.000000
  20
369.000000
  0
VERTEX
  8
C7
  10
432.000000
  20
364.000000
  0
VERTEX
  8
C7
  10
436.000000
  20
360.000000
  0
VERTEX
  8
C7
  10
429.000000
  20
362.000000
  0
VERTEX
  8
C7
  10
429.300300
  20
361.126000
  0
VERTEX
  8
C7
  10
429.632100
  20
360.370300
  0
VERTEX
  8
C7
  10
429.993400
  20
359.725700
  0
VERTEX
  8
C7
  10
430.382600
  20
359.185000
  0
VERTEX
  8
C7
  10
430.797500
  20
358.741000
  0
VERTEX
  8
C7
  10
431.236500
  20
358.386500
  0
VERTEX
  8
C7
  10
431.697700
  20
358.114400
  0
VERTEX
  8
C7
  10
432.179200
  20
357.917300
  0
VERTEX
  8
C7
  10
432.679100
  20
357.788100
  0
VERTEX
  8
C7
  10
433.195600
  20
357.719700
  0
VERTEX
  8
C7
  10
433.726900
  20
357.704800
  0
VERTEX
  8
C7
  10
434.271000
  20
357.736100
  0
VERTEX
  8
C7
  10
434.826200
  20
357.806600
  0
VERTEX
  8
C7
  10
435.390500
  20
357.909000
  0
VERTEX
  8
C7
  10
435.962100
  20
358.036000
  0
VERTEX
  8
C7
  10
436.539200
  20
358.180600
  0
VERTEX
  8
C7
  10
437.119900
  20
358.335500
  0
VERTEX
  8
C7
  10
437.702400
  20
358.493500
  0
VERTEX
  8
C7
  10
438.284700
  20
358.647400
  0
VERTEX
  8
C7
  10
438.865000
  20
358.790100
  0
VERTEX
  8
C7
  10
439.441600
  20
358.914200
  0
VERTEX
  8
C7
  10
440.012400
  20
359.012600
  0
VERTEX
  8
C7
  10
440.575700
  20
359.078200
  0
VERTEX
  8
C7
  10
441.129600
  20
359.103600
  0
VERTEX
  8
C7
  10
441.672300
  20
359.081800
  0
VERTEX
  8
C7
  10
442.201900
  20
359.005400
  0
VERTEX
  8
C7
  10
442.716400
  20
358.867400
  0
VERTEX
  8
C7
  10
443.214200
  20
358.660500
  0
VERTEX
  8
C7
  10
443.693300
  20
358.377500
  0
VERTEX
  8
C7
  10
444.151900
  20
358.011200
  0
VERTEX
  8
C7
  10
444.588000
  20
357.554400
  0
VERTEX
  8
C7
  10
445.000000
  20
357.000000
  0
VERTEX
  8
C7
  10
448.000000
  20
357.000000
  0
VERTEX
  8
C7
  10
448.000000
  20
372.000000
  0
VERTEX
  8
C7
  10
439.000000
  20
363.000000
  0
VERTEX
  8
C7
  10
438.812800
  20
363.777900
  0
VERTEX
  8
C7
  10
438.620300
  20
364.569800
  0
VERTEX
  8
C7
  10
438.418500
  20
365.366000
  0
VERTEX
  8
C7
  10
438.203900
  20
366.156500
  0
VERTEX
  8
C7
  10
437.972700
  20
366.931500
  0
VERTEX
  8
C7
  10
437.721300
  20
367.681100
  0
VERTEX
  8
C7
  10
437.445800
  20
368.395600
  0
VERTEX
  8
C7
  10
437.142700
  20
369.065000
  0
VERTEX
  8
C7
  10
436.808200
  20
369.679500
  0
VERTEX
  8
C7
  10
436.438700
  20
370.229300
  0
VERTEX
  8
C7
  10
436.030400
  20
370.704500
  0
VERTEX
  8
C7
  10
435.579600
  20
371.095200
  0
VERTEX
  8
C7
  10
435.082600
  20
371.391700
  0
VERTEX
  8
C7
  10
434.535700
  20
371.584000
  0
VERTEX
  8
C7
  10
433.935300
  20
371.662400
  0
VERTEX
  8
C7
  10
433.277600
  20
371.617000
  0
VERTEX
  8
C7
  10
432.558900
  20
371.437800
  0
VERTEX
  8
C7
  10
431.775500
  20
371.115200
  0
VERTEX
  8
C7
  10
430.923800
  20
370.639200
  0
VERTEX
  8
C7
  10
430.000000
  20
370.000000
  0
VERTEX
  8
C7
  10
426.000000
  20
372.000000
  0
VERTEX
  8
C7
  10
424.000000
  20
364.000000
  0
VERTEX
  8
C7
  10
423.451300
  20
365.223300
  0
VERTEX
  8
C7
  10
422.927600
  20
366.310700
  0
VERTEX
  8
C7
  10
422.426000
  20
367.262100
  0
VERTEX
  8
C7
  10
421.943500
  20
368.077700
  0
VERTEX
  8
C7
  10
421.477200
  20
368.757300
  0
VERTEX
  8
C7
  10
421.024100
  20
369.301000
  0
VERTEX
  8
C7
  10
420.581300
  20
369.708800
  0
VERTEX
  8
C7
  10
420.145800
  20
369.980600
  0
VERTEX
  8
C7
  10
419.714700
  20
370.116500
  0
VERTEX
  8
C7
  10
419.285200
  20
370.116500
  0
VERTEX
  8
C7
  10
418.854100
  20
369.980600
  0
VERTEX
  8
C7
  10
418.418600
  20
369.708800
  0
VERTEX
  8
C7
  10
417.975800
  20
369.301000
  0
VERTEX
  8
C7
  10
417.522700
  20
368.757300
  0
VERTEX
  8
C7
  10
417.056400
  20
368.077700
  0
VERTEX
  8
C7
  10
416.573900
  20
367.262100
  0
VERTEX
  8
C7
  10
416.072300
  20
366.310700
  0
VERTEX
  8
C7
  10
415.548600
  20
365.223300
  0
VERTEX
  8
C7
  10
415.000000
  20
364.000000
  0
VERTEX
  8
C7
  10
413.000000
  20
372.000000
  0
VERTEX
  8
C7
  10
400.000000
  20
372.000000
  0
SEQEND
  8
C7
  0
POLYLINE
  8
C7
  66
1
  10
335.000000
  20
369.000000
  0
VERTEX
  8
C7
  10
335.000000
  20
369.000000
  0
VERTEX
  8
C7
  10
335.000000
  20
366.000000
  0
VERTEX
  8
C7
  10
340.000000
  20
367.000000
  0
VERTEX
  8
C7
  10
335.000000
  20
369.000000
  0
SEQEND
  8
C7
  0
POLYLINE
  8
C7
  66
1
  10
393.000000
  20
369.000000
  0
VERTEX
  8
C7
  10
393.000000
  20
369.000000
  0
VERTEX
  8
C7
  10
393.000000
  20
367.000000
  0
VERTEX
  8
C7
  10
395.000000
  20
367.000000
  0
VERTEX
  8
C7
  10
395.000000
  20
369.000000
  0
VERTEX
  8
C7
  10
393.000000
  20
369.000000
  0
SEQEND
  8
C7
  0
POLYLINE
  8
C7
  66
1
  10
252.000000
  20
367.000000
  0
VERTEX
  8
C7
  10
252.000000
  20
367.000000
  0
VERTEX
  8
C7
  10
252.000000
  20
361.000000
  0
VERTEX
  8
C7
  10
253.000000
  20
361.000000
  0
VERTEX
  8
C7
  10
252.000000
  20
367.000000
  0
SEQEND
  8
C7
  0
POLYLINE
  8
C7
  66
1
  10
372.000000
  20
367.000000
  0
VERTEX
  8
C7
  10
372.000000
  20
367.000000
  0
VERTEX
  8
C7
  10
370.000000
  20
363.000000
  0
VERTEX
  8
C7
  10
371.161900
  20
363.325800
  0
VERTEX
  8
C7
  10
371.996800
  20
363.753200
  0
VERTEX
  8
C7
  10
372.501300
  20
364.308200
  0
VERTEX
  8
C7
  10
372.672200
  20
365.016900
  0
VERTEX
  8
C7
  10
372.506200
  20
365.905500
  0
VERTEX
  8
C7
  10
372.000000
  20
367.000000
  0
SEQEND
  8
C7
  0
POLYLINE
  8
C7
  66
1
  10
531.000000
  20
367.000000
  0
VERTEX
  8
C7
  10
531.000000
  20
367.000000
  0
VERTEX
  8
C7
  10
531.000000
  20
361.000000
  0
VERTEX
  8
C7
  10
532.000000
  20
361.000000
  0
VERTEX
  8
C7
  10
531.000000
  20
367.000000
  0
SEQEND
  8
C7
  0
POLYLINE
  8
C7
  66
1
  10
444.000000
  20
366.000000
  0
VERTEX
  8
C7
  10
444.000000
  20
366.000000
  0
VERTEX
  8
C7
  10
443.000000
  20
363.000000
  0
VERTEX
  8
C7
  10
444.000000
  20
366.000000
  0
SEQEND
  8
C7
  0
POLYLINE
  8
C7
  66
1
  10
335.000000
  20
364.000000
  0
VERTEX
  8
C7
  10
335.000000
  20
364.000000
  0
VERTEX
  8
C7
  10
335.000000
  20
360.000000
  0
VERTEX
  8
C7
  10
340.000000
  20
360.000000
  0
VERTEX
  8
C7
  10
335.000000
  20
364.000000
  0
SEQEND
  8
C7
  0
POLYLINE
  8
C7
  66
1
  10
393.000000
  20
364.000000
  0
VERTEX
  8
C7
  10
393.000000
  20
364.000000
  0
VERTEX
  8
C7
  10
393.000000
  20
359.000000
  0
VERTEX
  8
C7
  10
396.000000
  20
360.000000
  0
VERTEX
  8
C7
  10
395.000000
  20
364.000000
  0
VERTEX
  8
C7
  10
393.000000
  20
364.000000
  0
SEQEND
  8
C7
  0
POLYLINE
  8
C7
  66
1
  10
252.000000
  20
358.000000
  0
VERTEX
  8
C7
  10
252.000000
  20
358.000000
  0
VERTEX
  8
C7
  10
252.000000
  20
353.000000
  0
VERTEX
  8
C7
  10
253.000000
  20
353.000000
  0
VERTEX
  8
C7
  10
252.000000
  20
358.000000
  0
SEQEND
  8
C7
  0
POLYLINE
  8
C7
  66
1
  10
531.000000
  20
358.000000
  0
VERTEX
  8
C7
  10
531.000000
  20
358.000000
  0
VERTEX
  8
C7
  10
531.000000
  20
353.000000
  0
VERTEX
  8
C7
  10
532.000000
  20
353.000000
  0
VERTEX
  8
C7
  10
531.000000
  20
358.000000
  0
SEQEND
  8
C7
  0
POLYLINE
  8
C7
  66
1
  10
252.000000
  20
348.000000
  0
VERTEX
  8
C7
  10
252.000000
  20
348.000000
  0
VERTEX
  8
C7
  10
252.000000
  20
343.000000
  0
VERTEX
  8
C7
  10
253.000000
  20
343.000000
  0
VERTEX
  8
C7
  10
252.000000
  20
348.000000
  0
SEQEND
  8
C7
  0
POLYLINE
  8
C7
  66
1
  10
531.000000
  20
348.000000
  0
VERTEX
  8
C7
  10
531.000000
  20
348.000000
  0
VERTEX
  8
C7
  10
531.000000
  20
343.000000
  0
VERTEX
  8
C7
  10
532.000000
  20
343.000000
  0
VERTEX
  8
C7
  10
531.000000
  20
348.000000
  0
SEQEND
  8
C7
  0
POLYLINE
  8
C7
  66
1
  10
252.000000
  20
339.000000
  0
VERTEX
  8
C7
  10
252.000000
  20
339.000000
  0
VERTEX
  8
C7
  10
252.000000
  20
333.000000
  0
VERTEX
  8
C7
  10
253.000000
  20
333.000000
  0
VERTEX
  8
C7
  10
252.000000
  20
339.000000
  0
SEQEND
  8
C7
  0
POLYLINE
  8
C7
  66
1
  10
531.000000
  20
339.000000
  0
VERTEX
  8
C7
  10
531.000000
  20
339.000000
  0
VERTEX
  8
C7
  10
531.000000
  20
333.000000
  0
VERTEX
  8
C7
  10
532.000000
  20
333.000000
  0
VERTEX
  8
C7
  10
531.000000
  20
339.000000
  0
SEQEND
  8
C7
  0
POLYLINE
  8
C7
  66
1
  10
44.000000
  20
330.000000
  0
VERTEX
  8
C7
  10
44.000000
  20
330.000000
  0
VERTEX
  8
C7
  10
47.000000
  20
331.000000
  0
VERTEX
  8
C7
  10
47.000000
  20
321.000000
  0
VERTEX
  8
C7
  10
50.000000
  20
321.000000
  0
VERTEX
  8
C7
  10
50.000000
  20
336.000000
  0
VERTEX
  8
C7
  10
44.000000
  20
330.000000
  0
SEQEND
  8
C7
  0
POLYLINE
  8
C7
  66
1
  10
56.213734
  20
335.148926
  0
VERTEX
  8
C7
  10
56.213734
  20
335.148926
  0
VERTEX
  8
C7
  10
55.640500
  20
334.890000
  0
VERTEX
  8
C7
  10
55.121700
  20
334.532000
  0
VERTEX
  8
C7
  10
54.657000
  20
334.084500
  0
VERTEX
  8
C7
  10
54.246600
  20
333.557500
  0
VERTEX
  8
C7
  10
53.890400
  20
332.960700
  0
VERTEX
  8
C7
  10
53.588200
  20
332.303900
  0
VERTEX
  8
C7
  10
53.340200
  20
331.596900
  0
VERTEX
  8
C7
  10
53.146200
  20
330.849500
  0
VERTEX
  8
C7
  10
53.006200
  20
330.071500
  0
VERTEX
  8
C7
  10
52.920300
  20
329.272700
  0
VERTEX
  8
C7
  10
52.888200
  20
328.462900
  0
VERTEX
  8
C7
  10
52.910100
  20
327.651900
  0
VERTEX
  8
C7
  10
52.985800
  20
326.849600
  0
VERTEX
  8
C7
  10
53.115400
  20
326.065600
  0
VERTEX
  8
C7
  10
53.298800
  20
325.309900
  0
VERTEX
  8
C7
  10
53.535900
  20
324.592200
  0
VERTEX
  8
C7
  10
53.826800
  20
323.922300
  0
VERTEX
  8
C7
  10
54.171400
  20
323.310000
  0
VERTEX
  8
C7
  10
54.569600
  20
322.765100
  0
VERTEX
  8
C7
  10
55.021400
  20
322.297500
  0
VERTEX
  8
C7
  10
55.526800
  20
321.916800
  0
VERTEX
  8
C7
  10
56.085800
  20
321.633000
  0
VERTEX
  8
C7
  10
56.698300
  20
321.455800
  0
VERTEX
  8
C7
  10
57.364200
  20
321.395000
  0
VERTEX
  8
C7
  10
58.083600
  20
321.460500
  0
VERTEX
  8
C7
  10
58.856400
  20
321.662000
  0
VERTEX
  8
C7
  10
59.430500
  20
321.920100
  0
VERTEX
  8
C7
  10
59.947800
  20
322.276800
  0
VERTEX
  8
C7
  10
60.408600
  20
322.722400
  0
VERTEX
  8
C7
  10
60.813200
  20
323.247200
  0
VERTEX
  8
C7
  10
61.162000
  20
323.841400
  0
VERTEX
  8
C7
  10
61.455400
  20
324.495300
  0
VERTEX
  8
C7
  10
61.693700
  20
325.199200
  0
VERTEX
  8
C7
  10
61.877200
  20
325.943500
  0
VERTEX
  8
C7
  10
62.006300
  20
326.718200
  0
VERTEX
  8
C7
  10
62.081300
  20
327.513900
  0
VERTEX
  8
C7
  10
62.102600
  20
328.320600
  0
VERTEX
  8
C7
  10
62.070500
  20
329.128800
  0
VERTEX
  8
C7
  10
61.985500
  20
329.928600
  0
VERTEX
  8
C7
  10
61.847700
  20
330.710400
  0
VERTEX
  8
C7
  10
61.657700
  20
331.464500
  0
VERTEX
  8
C7
  10
61.415600
  20
332.181100
  0
VERTEX
  8
C7
  10
61.122000
  20
332.850600
  0
VERTEX
  8
C7
  10
60.777100
  20
333.463100
  0
VERTEX
  8
C7
  10
60.381200
  20
334.009000
  0
VERTEX
  8
C7
  10
59.934800
  20
334.478600
  0
VERTEX
  8
C7
  10
59.438100
  20
334.862200
  0
VERTEX
  8
C7
  10
58.891600
  20
335.149900
  0
VERTEX
  8
C7
  10
58.295500
  20
335.332200
  0
VERTEX
  8
C7
  10
57.650300
  20
335.399200
  0
VERTEX
  8
C7
  10
56.956200
  20
335.341400
  0
VERTEX
  8
C7
  10
56.213700
  20
335.148900
  0
SEQEND
  8
C7
  0
POLYLINE
  8
C7
  66
1
  10
84.000000
  20
330.000000
  0
VERTEX
  8
C7
  10
84.000000
  20
330.000000
  0
VERTEX
  8
C7
  10
88.000000
  20
331.000000
  0
VERTEX
  8
C7
  10
88.000000
  20
321.000000
  0
VERTEX
  8
C7
  10
90.000000
  20
321.000000
  0
VERTEX
  8
C7
  10
90.000000
  20
336.000000
  0
VERTEX
  8
C7
  10
84.000000
  20
330.000000
  0
SEQEND
  8
C7
  0
POLYLINE
  8
C7
  66
1
  10
101.000000
  20
331.000000
  0
VERTEX
  8
C7
  10
101.000000
  20
331.000000
  0
VERTEX
  8
C7
  10
106.000000
  20
332.000000
  0
VERTEX
  8
C7
  10
107.000000
  20
332.000000
  0
VERTEX
  8
C7
  10
109.000000
  20
330.000000
  0
VERTEX
  8
C7
  10
109.000000
  20
335.000000
  0
VERTEX
  8
C7
  10
103.000000
  20
333.000000
  0
VERTEX
  8
C7
  10
102.245400
  20
333.583000
  0
VERTEX
  8
C7
  10
101.492800
  20
334.046900
  0
VERTEX
  8
C7
  10
100.746100
  20
334.397100
  0
VERTEX
  8
C7
  10
100.009500
  20
334.639000
  0
VERTEX
  8
C7
  10
99.287200
  20
334.777900
  0
VERTEX
  8
C7
  10
98.583200
  20
334.819200
  0
VERTEX
  8
C7
  10
97.901700
  20
334.768400
  0
VERTEX
  8
C7
  10
97.246700
  20
334.630800
  0
VERTEX
  8
C7
  10
96.622500
  20
334.411700
  0
VERTEX
  8
C7
  10
96.033200
  20
334.116700
  0
VERTEX
  8
C7
  10
95.482800
  20
333.751000
  0
VERTEX
  8
C7
  10
94.975600
  20
333.320000
  0
VERTEX
  8
C7
  10
94.515500
  20
332.829200
  0
VERTEX
  8
C7
  10
94.106800
  20
332.283900
  0
VERTEX
  8
C7
  10
93.753600
  20
331.689500
  0
VERTEX
  8
C7
  10
93.460000
  20
331.051300
  0
VERTEX
  8
C7
  10
93.230000
  20
330.374800
  0
VERTEX
  8
C7
  10
93.068000
  20
329.665400
  0
VERTEX
  8
C7
  10
92.977900
  20
328.928400
  0
VERTEX
  8
C7
  10
92.963900
  20
328.169200
  0
VERTEX
  8
C7
  10
93.030100
  20
327.393200
  0
VERTEX
  8
C7
  10
93.180700
  20
326.605900
  0
VERTEX
  8
C7
  10
93.419700
  20
325.812400
  0
VERTEX
  8
C7
  10
93.751300
  20
325.018400
  0
VERTEX
  8
C7
  10
94.179700
  20
324.229100
  0
VERTEX
  8
C7
  10
94.743100
  20
323.388300
  0
VERTEX
  8
C7
  10
95.308600
  20
322.704000
  0
VERTEX
  8
C7
  10
95.872700
  20
322.168200
  0
VERTEX
  8
C7
  10
96.431600
  20
321.772900
  0
VERTEX
  8
C7
  10
96.981800
  20
321.509900
  0
VERTEX
  8
C7
  10
97.519700
  20
321.371400
  0
VERTEX
  8
C7
  10
98.041700
  20
321.349200
  0
VERTEX
  8
C7
  10
98.544300
  20
321.435400
  0
VERTEX
  8
C7
  10
99.023700
  20
321.621900
  0
VERTEX
  8
C7
  10
99.476500
  20
321.900700
  0
VERTEX
  8
C7
  10
99.899000
  20
322.263700
  0
VERTEX
  8
C7
  10
100.287600
  20
322.703000
  0
VERTEX
  8
C7
  10
100.638700
  20
323.210500
  0
VERTEX
  8
C7
  10
100.948800
  20
323.778200
  0
VERTEX
  8
C7
  10
101.214200
  20
324.398100
  0
VERTEX
  8
C7
  10
101.431400
  20
325.062100
  0
VERTEX
  8
C7
  10
101.596700
  20
325.762200
  0
VERTEX
  8
C7
  10
101.706600
  20
326.490400
  0
VERTEX
  8
C7
  10
101.757400
  20
327.238600
  0
VERTEX
  8
C7
  10
101.745600
  20
327.998900
  0
VERTEX
  8
C7
  10
101.667500
  20
328.763200
  0
VERTEX
  8
C7
  10
101.519600
  20
329.523500
  0
VERTEX
  8
C7
  10
101.298300
  20
330.271800
  0
VERTEX
  8
C7
  10
101.000000
  20
331.000000
  0
SEQEND
  8
C7
  0
POLYLINE
  8
C7
  66
1
  10
113.000000
  20
336.000000
  0
VERTEX
  8
C7
  10
113.000000
  20
336.000000
  0
VERTEX
  8
C7
  10
112.644200
  20
335.174000
  0
VERTEX
  8
C7
  10
112.299900
  20
334.325000
  0
VERTEX
  8
C7
  10
111.971700
  20
333.456300
  0
VERTEX
  8
C7
  10
111.664300
  20
332.571800
  0
VERTEX
  8
C7
  10
111.382300
  20
331.674800
  0
VERTEX
  8
C7
  10
111.130400
  20
330.769000
  0
VERTEX
  8
C7
  10
110.913300
  20
329.858000
  0
VERTEX
  8
C7
  10
110.735600
  20
328.945400
  0
VERTEX
  8
C7
  10
110.602000
  20
328.034700
  0
VERTEX
  8
C7
  10
110.517200
  20
327.129500
  0
VERTEX
  8
C7
  10
110.485800
  20
326.233400
  0
VERTEX
  8
C7
  10
110.512400
  20
325.349900
  0
VERTEX
  8
C7
  10
110.601800
  20
324.482700
  0
VERTEX
  8
C7
  10
110.758700
  20
323.635400
  0
VERTEX
  8
C7
  10
110.987600
  20
322.811400
  0
VERTEX
  8
C7
  10
111.293200
  20
322.014500
  0
VERTEX
  8
C7
  10
111.680300
  20
321.248100
  0
VERTEX
  8
C7
  10
112.153400
  20
320.515800
  0
VERTEX
  8
C7
  10
112.717300
  20
319.821300
  0
VERTEX
  8
C7
  10
113.376600
  20
319.168100
  0
VERTEX
  8
C7
  10
114.135900
  20
318.559800
  0
VERTEX
  8
C7
  10
115.000000
  20
318.000000
  0
VERTEX
  8
C7
  10
115.000000
  20
336.000000
  0
VERTEX
  8
C7
  10
113.000000
  20
336.000000
  0
SEQEND
  8
C7
  0
POLYLINE
  8
C7
  66
1
  10
133.000000
  20
330.000000
  0
VERTEX
  8
C7
  10
133.000000
  20
330.000000
  0
VERTEX
  8
C7
  10
133.402200
  20
330.772900
  0
VERTEX
  8
C7
  10
133.672200
  20
331.571400
  0
VERTEX
  8
C7
  10
133.801400
  20
332.363600
  0
VERTEX
  8
C7
  10
133.781100
  20
333.117100
  0
VERTEX
  8
C7
  10
133.602800
  20
333.800000
  0
VERTEX
  8
C7
  10
133.257800
  20
334.380000
  0
VERTEX
  8
C7
  10
132.737500
  20
334.825000
  0
VERTEX
  8
C7
  10
132.033400
  20
335.103000
  0
VERTEX
  8
C7
  10
131.136900
  20
335.181800
  0
VERTEX
  8
C7
  10
130.039300
  20
335.029300
  0
SEQEND
  8
C7
  0
POLYLINE
  8
C7
  66
1
  10
130.039300
  20
335.029200
  0
VERTEX
  8
C7
  10
130.039300
  20
335.029200
  0
VERTEX
  8
C7
  10
129.339400
  20
334.798400
  0
VERTEX
  8
C7
  10
128.702200
  20
334.453600
  0
VERTEX
  8
C7
  10
128.128200
  20
334.006200
  0
VERTEX
  8
C7
  10
127.618100
  20
333.468100
  0
VERTEX
  8
C7
  10
127.172500
  20
332.850900
  0
VERTEX
  8
C7
  10
126.792100
  20
332.166200
  0
VERTEX
  8
C7
  10
126.477500
  20
331.425800
  0
VERTEX
  8
C7
  10
126.229300
  20
330.641400
  0
VERTEX
  8
C7
  10
126.048200
  20
329.824700
  0
VERTEX
  8
C7
  10
125.934800
  20
328.987300
  0
VERTEX
  8
C7
  10
125.889800
  20
328.140900
  0
VERTEX
  8
C7
  10
125.913800
  20
327.297300
  0
VERTEX
  8
C7
  10
126.007400
  20
326.468000
  0
VERTEX
  8
C7
  10
126.171300
  20
325.664900
  0
VERTEX
  8
C7
  10
126.406100
  20
324.899500
  0
VERTEX
  8
C7
  10
126.712500
  20
324.183600
  0
VERTEX
  8
C7
  10
127.091100
  20
323.528900
  0
VERTEX
  8
C7
  10
127.542500
  20
322.947000
  0
VERTEX
  8
C7
  10
128.067400
  20
322.449600
  0
VERTEX
  8
C7
  10
128.666500
  20
322.048500
  0
VERTEX
  8
C7
  10
129.340300
  20
321.755300
  0
VERTEX
  8
C7
  10
130.089500
  20
321.581700
  0
VERTEX
  8
C7
  10
131.032800
  20
321.535700
  0
VERTEX
  8
C7
  10
131.865900
  20
321.663400
  0
VERTEX
  8
C7
  10
132.589400
  20
321.944700
  0
VERTEX
  8
C7
  10
133.204100
  20
322.359500
  0
VERTEX
  8
C7
  10
133.710800
  20
322.887800
  0
VERTEX
  8
C7
  10
134.110200
  20
323.509600
  0
VERTEX
  8
C7
  10
134.403000
  20
324.204700
  0
VERTEX
  8
C7
  10
134.590000
  20
324.953100
  0
VERTEX
  8
C7
  10
134.672000
  20
325.734800
  0
VERTEX
  8
C7
  10
134.649700
  20
326.529600
  0
VERTEX
  8
C7
  10
134.523800
  20
327.317600
  0
VERTEX
  8
C7
  10
134.295100
  20
328.078700
  0
VERTEX
  8
C7
  10
133.964500
  20
328.792800
  0
VERTEX
  8
C7
  10
133.532500
  20
329.439900
  0
VERTEX
  8
C7
  10
133.000000
  20
330.000000
  0
SEQEND
  8
C7
  0
POLYLINE
  8
C7
  66
1
  10
177.000000
  20
336.000000
  0
VERTEX
  8
C7
  10
177.000000
  20
336.000000
  0
VERTEX
  8
C7
  10
177.000000
  20
318.000000
  0
VERTEX
  8
C7
  10
177.767500
  20
318.278000
  0
VERTEX
  8
C7
  10
178.465500
  20
318.638800
  0
VERTEX
  8
C7
  10
179.095200
  20
319.075900
  0
VERTEX
  8
C7
  10
179.658000
  20
319.583000
  0
VERTEX
  8
C7
  10
180.155100
  20
320.153900
  0
VERTEX
  8
C7
  10
180.587700
  20
320.782100
  0
VERTEX
  8
C7
  10
180.957000
  20
321.461300
  0
VERTEX
  8
C7
  10
181.264400
  20
322.185200
  0
VERTEX
  8
C7
  10
181.511100
  20
322.947400
  0
VERTEX
  8
C7
  10
181.698300
  20
323.741600
  0
VERTEX
  8
C7
  10
181.827300
  20
324.561500
  0
VERTEX
  8
C7
  10
181.899400
  20
325.400800
  0
VERTEX
  8
C7
  10
181.915800
  20
326.253000
  0
VERTEX
  8
C7
  10
181.877700
  20
327.111900
  0
VERTEX
  8
C7
  10
181.786400
  20
327.971100
  0
VERTEX
  8
C7
  10
181.643300
  20
328.824300
  0
VERTEX
  8
C7
  10
181.449400
  20
329.665100
  0
VERTEX
  8
C7
  10
181.206200
  20
330.487200
  0
VERTEX
  8
C7
  10
180.914700
  20
331.284400
  0
VERTEX
  8
C7
  10
180.576400
  20
332.050100
  0
VERTEX
  8
C7
  10
180.192400
  20
332.778200
  0
VERTEX
  8
C7
  10
179.764000
  20
333.462200
  0
VERTEX
  8
C7
  10
179.292400
  20
334.095800
  0
VERTEX
  8
C7
  10
178.779000
  20
334.672800
  0
VERTEX
  8
C7
  10
178.225000
  20
335.186700
  0
VERTEX
  8
C7
  10
177.631500
  20
335.631200
  0
VERTEX
  8
C7
  10
177.000000
  20
336.000000
  0
SEQEND
  8
C7
  0
POLYLINE
  8
C7
  66
1
  10
69.000000
  20
335.000000
  0
VERTEX
  8
C7
  10
69.000000
  20
335.000000
  0
VERTEX
  8
C7
  10
68.000000
  20
328.000000
  0
VERTEX
  8
C7
  10
69.000000
  20
327.000000
  0
VERTEX
  8
C7
  10
72.000000
  20
329.000000
  0
VERTEX
  8
C7
  10
73.000000
  20
329.000000
  0
VERTEX
  8
C7
  10
74.000000
  20
324.000000
  0
VERTEX
  8
C7
  10
68.000000
  20
326.000000
  0
VERTEX
  8
C7
  10
68.362600
  20
325.018900
  0
VERTEX
  8
C7
  10
68.793000
  20
324.153200
  0
VERTEX
  8
C7
  10
69.287400
  20
323.408100
  0
VERTEX
  8
C7
  10
69.842000
  20
322.789000
  0
VERTEX
  8
C7
  10
70.453100
  20
322.301000
  0
VERTEX
  8
C7
  10
71.117100
  20
321.949400
  0
VERTEX
  8
C7
  10
71.830000
  20
321.739500
  0
VERTEX
  8
C7
  10
72.588300
  20
321.676600
  0
VERTEX
  8
C7
  10
73.388200
  20
321.765900
  0
VERTEX
  8
C7
  10
74.225900
  20
322.012800
  0
VERTEX
  8
C7
  10
75.097700
  20
322.422300
  0
VERTEX
  8
C7
  10
76.000000
  20
323.000000
  0
VERTEX
  8
C7
  10
80.000000
  20
321.000000
  0
VERTEX
  8
C7
  10
83.000000
  20
335.000000
  0
VERTEX
  8
C7
  10
79.000000
  20
326.000000
  0
VERTEX
  8
C7
  10
78.000000
  20
326.000000
  0
VERTEX
  8
C7
  10
72.000000
  20
331.000000
  0
VERTEX
  8
C7
  10
72.000000
  20
333.000000
  0
VERTEX
  8
C7
  10
77.000000
  20
333.000000
  0
VERTEX
  8
C7
  10
77.000000
  20
335.000000
  0
VERTEX
  8
C7
  10
69.000000
  20
335.000000
  0
SEQEND
  8
C7
  0
POLYLINE
  8
C7
  66
1
  10
115.000000
  20
325.000000
  0
VERTEX
  8
C7
  10
115.000000
  20
325.000000
  0
VERTEX
  8
C7
  10
121.000000
  20
325.000000
  0
VERTEX
  8
C7
  10
121.000000
  20
321.000000
  0
VERTEX
  8
C7
  10
124.000000
  20
321.000000
  0
VERTEX
  8
C7
  10
124.000000
  20
335.000000
  0
VERTEX
  8
C7
  10
122.979400
  20
334.654100
  0
VERTEX
  8
C7
  10
122.030400
  20
334.239400
  0
VERTEX
  8
C7
  10
121.149500
  20
333.758800
  0
VERTEX
  8
C7
  10
120.333400
  20
333.215400
  0
VERTEX
  8
C7
  10
119.578800
  20
332.612300
  0
VERTEX
  8
C7
  10
118.882300
  20
331.952500
  0
VERTEX
  8
C7
  10
118.240600
  20
331.239000
  0
VERTEX
  8
C7
  10
117.650300
  20
330.475000
  0
VERTEX
  8
C7
  10
117.108000
  20
329.663400
  0
VERTEX
  8
C7
  10
116.610400
  20
328.807400
  0
VERTEX
  8
C7
  10
116.154100
  20
327.910000
  0
VERTEX
  8
C7
  10
115.735900
  20
326.974300
  0
VERTEX
  8
C7
  10
115.352300
  20
326.003200
  0
VERTEX
  8
C7
  10
115.000000
  20
325.000000
  0
SEQEND
  8
C7
  0
POLYLINE
  8
C7
  66
1
  10
137.000000
  20
335.000000
  0
VERTEX
  8
C7
  10
137.000000
  20
335.000000
  0
VERTEX
  8
C7
  10
136.000000
  20
328.000000
  0
VERTEX
  8
C7
  10
143.000000
  20
327.000000
  0
VERTEX
  8
C7
  10
143.000000
  20
325.000000
  0
VERTEX
  8
C7
  10
136.000000
  20
326.000000
  0
VERTEX
  8
C7
  10
136.316000
  20
325.249700
  0
VERTEX
  8
C7
  10
136.654800
  20
324.584800
  0
VERTEX
  8
C7
  10
137.013700
  20
324.002200
  0
VERTEX
  8
C7
  10
137.390100
  20
323.498700
  0
VERTEX
  8
C7
  10
137.781500
  20
323.070900
  0
VERTEX
  8
C7
  10
138.185300
  20
322.715700
  0
VERTEX
  8
C7
  10
138.598800
  20
322.429900
  0
VERTEX
  8
C7
  10
139.019600
  20
322.210200
  0
VERTEX
  8
C7
  10
139.444900
  20
322.053500
  0
VERTEX
  8
C7
  10
139.872300
  20
321.956400
  0
VERTEX
  8
C7
  10
140.299100
  20
321.915900
  0
VERTEX
  8
C7
  10
140.722700
  20
321.928600
  0
VERTEX
  8
C7
  10
141.140600
  20
321.991400
  0
VERTEX
  8
C7
  10
141.550200
  20
322.101000
  0
VERTEX
  8
C7
  10
141.948800
  20
322.254200
  0
VERTEX
  8
C7
  10
142.333900
  20
322.447800
  0
VERTEX
  8
C7
  10
142.703000
  20
322.678500
  0
VERTEX
  8
C7
  10
143.053300
  20
322.943300
  0
VERTEX
  8
C7
  10
143.382400
  20
323.238700
  0
VERTEX
  8
C7
  10
143.687500
  20
323.561700
  0
VERTEX
  8
C7
  10
143.966300
  20
323.909000
  0
VERTEX
  8
C7
  10
144.216000
  20
324.277400
  0
VERTEX
  8
C7
  10
144.434000
  20
324.663600
  0
VERTEX
  8
C7
  10
144.617900
  20
325.064500
  0
VERTEX
  8
C7
  10
144.764900
  20
325.476700
  0
VERTEX
  8
C7
  10
144.872600
  20
325.897200
  0
VERTEX
  8
C7
  10
144.938200
  20
326.322700
  0
VERTEX
  8
C7
  10
144.959300
  20
326.749900
  0
VERTEX
  8
C7
  10
144.933200
  20
327.175700
  0
VERTEX
  8
C7
  10
144.857400
  20
327.596800
  0
VERTEX
  8
C7
  10
144.729300
  20
328.010000
  0
VERTEX
  8
C7
  10
144.546200
  20
328.412100
  0
VERTEX
  8
C7
  10
144.305600
  20
328.799900
  0
VERTEX
  8
C7
  10
144.004900
  20
329.170100
  0
VERTEX
  8
C7
  10
143.641600
  20
329.519600
  0
VERTEX
  8
C7
  10
143.212900
  20
329.845100
  0
VERTEX
  8
C7
  10
142.716400
  20
330.143300
  0
VERTEX
  8
C7
  10
142.149400
  20
330.411200
  0
VERTEX
  8
C7
  10
141.509400
  20
330.645400
  0
VERTEX
  8
C7
  10
140.793800
  20
330.842700
  0
VERTEX
  8
C7
  10
140.000000
  20
331.000000
  0
VERTEX
  8
C7
  10
140.000000
  20
333.000000
  0
VERTEX
  8
C7
  10
145.000000
  20
333.000000
  0
VERTEX
  8
C7
  10
145.000000
  20
335.000000
  0
VERTEX
  8
C7
  10
137.000000
  20
335.000000
  0
SEQEND
  8
C7
  0
POLYLINE
  8
C7
  66
1
  10
56.000000
  20
333.000000
  0
VERTEX
  8
C7
  10
56.000000
  20
333.000000
  0
VERTEX
  8
C7
  10
57.000000
  20
330.000000
  0
VERTEX
  8
C7
  10
58.000000
  20
330.000000
  0
VERTEX
  8
C7
  10
59.000000
  20
333.000000
  0
VERTEX
  8
C7
  10
56.000000
  20
333.000000
  0
SEQEND
  8
C7
  0
POLYLINE
  8
C7
  66
1
  10
96.000000
  20
332.000000
  0
VERTEX
  8
C7
  10
96.000000
  20
332.000000
  0
VERTEX
  8
C7
  10
96.000000
  20
331.000000
  0
VERTEX
  8
C7
  10
100.000000
  20
331.000000
  0
VERTEX
  8
C7
  10
96.000000
  20
332.000000
  0
SEQEND
  8
C7
  0
POLYLINE
  8
C7
  66
1
  10
129.000000
  20
332.000000
  0
VERTEX
  8
C7
  10
129.000000
  20
332.000000
  0
VERTEX
  8
C7
  10
129.000000
  20
331.000000
  0
VERTEX
  8
C7
  10
133.000000
  20
331.000000
  0
VERTEX
  8
C7
  10
129.000000
  20
332.000000
  0
SEQEND
  8
C7
  0
POLYLINE
  8
C7
  66
1
  10
147.000000
  20
332.000000
  0
VERTEX
  8
C7
  10
147.000000
  20
332.000000
  0
VERTEX
  8
C7
  10
147.000000
  20
321.000000
  0
VERTEX
  8
C7
  10
149.000000
  20
321.000000
  0
VERTEX
  8
C7
  10
151.000000
  20
330.000000
  0
VERTEX
  8
C7
  10
152.000000
  20
321.000000
  0
VERTEX
  8
C7
  10
155.000000
  20
321.000000
  0
VERTEX
  8
C7
  10
156.000000
  20
330.000000
  0
VERTEX
  8
C7
  10
157.000000
  20
330.000000
  0
VERTEX
  8
C7
  10
158.000000
  20
321.000000
  0
VERTEX
  8
C7
  10
160.000000
  20
321.000000
  0
VERTEX
  8
C7
  10
159.982200
  20
322.331800
  0
VERTEX
  8
C7
  10
159.928000
  20
323.551100
  0
VERTEX
  8
C7
  10
159.835500
  20
324.662800
  0
VERTEX
  8
C7
  10
159.702700
  20
325.671900
  0
VERTEX
  8
C7
  10
159.527700
  20
326.583500
  0
VERTEX
  8
C7
  10
159.308700
  20
327.402400
  0
VERTEX
  8
C7
  10
159.043800
  20
328.133800
  0
VERTEX
  8
C7
  10
158.730900
  20
328.782500
  0
VERTEX
  8
C7
  10
158.368300
  20
329.353700
  0
VERTEX
  8
C7
  10
157.954000
  20
329.852200
  0
VERTEX
  8
C7
  10
157.486200
  20
330.283200
  0
VERTEX
  8
C7
  10
156.962900
  20
330.651500
  0
VERTEX
  8
C7
  10
156.382100
  20
330.962300
  0
VERTEX
  8
C7
  10
155.742100
  20
331.220400
  0
VERTEX
  8
C7
  10
155.040900
  20
331.430900
  0
VERTEX
  8
C7
  10
154.276600
  20
331.598700
  0
VERTEX
  8
C7
  10
153.447300
  20
331.729000
  0
VERTEX
  8
C7
  10
152.551100
  20
331.826600
  0
VERTEX
  8
C7
  10
151.586100
  20
331.896500
  0
VERTEX
  8
C7
  10
150.550400
  20
331.943800
  0
VERTEX
  8
C7
  10
149.442100
  20
331.973500
  0
VERTEX
  8
C7
  10
148.259200
  20
331.990600
  0
VERTEX
  8
C7
  10
147.000000
  20
332.000000
  0
SEQEND
  8
C7
  0
POLYLINE
  8
C7
  66
1
  10
162.000000
  20
332.000000
  0
VERTEX
  8
C7
  10
162.000000
  20
332.000000
  0
VERTEX
  8
C7
  10
162.000000
  20
321.000000
  0
VERTEX
  8
C7
  10
164.000000
  20
321.000000
  0
VERTEX
  8
C7
  10
166.000000
  20
330.000000
  0
VERTEX
  8
C7
  10
167.000000
  20
330.000000
  0
VERTEX
  8
C7
  10
167.000000
  20
321.000000
  0
VERTEX
  8
C7
  10
170.000000
  20
321.000000
  0
VERTEX
  8
C7
  10
171.000000
  20
330.000000
  0
VERTEX
  8
C7
  10
172.000000
  20
330.000000
  0
VERTEX
  8
C7
  10
173.000000
  20
321.000000
  0
VERTEX
  8
C7
  10
176.000000
  20
321.000000
  0
VERTEX
  8
C7
  10
175.976500
  20
322.291100
  0
VERTEX
  8
C7
  10
175.907800
  20
323.476500
  0
VERTEX
  8
C7
  10
175.793400
  20
324.560800
  0
VERTEX
  8
C7
  10
175.632800
  20
325.548400
  0
VERTEX
  8
C7
  10
175.425700
  20
326.444000
  0
VERTEX
  8
C7
  10
175.171400
  20
327.252100
  0
VERTEX
  8
C7
  10
174.869500
  20
327.977100
  0
VERTEX
  8
C7
  10
174.519600
  20
328.623700
  0
VERTEX
  8
C7
  10
174.121200
  20
329.196300
  0
VERTEX
  8
C7
  10
173.673700
  20
329.699600
  0
VERTEX
  8
C7
  10
173.176800
  20
330.138000
  0
VERTEX
  8
C7
  10
172.630000
  20
330.516100
  0
VERTEX
  8
C7
  10
172.032700
  20
330.838400
  0
VERTEX
  8
C7
  10
171.384600
  20
331.109500
  0
VERTEX
  8
C7
  10
170.685000
  20
331.333900
  0
VERTEX
  8
C7
  10
169.933700
  20
331.516100
  0
VERTEX
  8
C7
  10
169.130000
  20
331.660600
  0
VERTEX
  8
C7
  10
168.273600
  20
331.772100
  0
VERTEX
  8
C7
  10
167.363900
  20
331.855000
  0
VERTEX
  8
C7
  10
166.400400
  20
331.913900
  0
VERTEX
  8
C7
  10
165.382800
  20
331.953300
  0
VERTEX
  8
C7
  10
164.310500
  20
331.977700
  0
VERTEX
  8
C7
  10
163.183000
  20
331.991800
  0
VERTEX
  8
C7
  10
162.000000
  20
332.000000
  0
SEQEND
  8
C7
  0
POLYLINE
  8
C7
  66
1
  10
120.000000
  20
330.000000
  0
VERTEX
  8
C7
  10
120.000000
  20
330.000000
  0
VERTEX
  8
C7
  10
119.000000
  20
327.000000
  0
VERTEX
  8
C7
  10
120.000000
  20
330.000000
  0
SEQEND
  8
C7
  0
POLYLINE
  8
C7
  66
1
  10
252.000000
  20
330.000000
  0
VERTEX
  8
C7
  10
252.000000
  20
330.000000
  0
VERTEX
  8
C7
  10
252.000000
  20
324.000000
  0
VERTEX
  8
C7
  10
253.000000
  20
324.000000
  0
VERTEX
  8
C7
  10
252.000000
  20
330.000000
  0
SEQEND
  8
C7
  0
POLYLINE
  8
C7
  66
1
  10
531.000000
  20
330.000000
  0
VERTEX
  8
C7
  10
531.000000
  20
330.000000
  0
VERTEX
  8
C7
  10
531.000000
  20
324.000000
  0
VERTEX
  8
C7
  10
532.000000
  20
324.000000
  0
VERTEX
  8
C7
  10
531.000000
  20
330.000000
  0
SEQEND
  8
C7
  0
POLYLINE
  8
C7
  66
1
  10
57.000000
  20
328.000000
  0
VERTEX
  8
C7
  10
57.000000
  20
328.000000
  0
VERTEX
  8
C7
  10
56.000000
  20
324.000000
  0
VERTEX
  8
C7
  10
59.000000
  20
324.000000
  0
VERTEX
  8
C7
  10
57.000000
  20
328.000000
  0
SEQEND
  8
C7
  0
POLYLINE
  8
C7
  66
1
  10
96.000000
  20
327.000000
  0
VERTEX
  8
C7
  10
96.000000
  20
327.000000
  0
VERTEX
  8
C7
  10
96.000000
  20
325.000000
  0
VERTEX
  8
C7
  10
97.000000
  20
324.000000
  0
VERTEX
  8
C7
  10
99.000000
  20
324.000000
  0
VERTEX
  8
C7
  10
100.000000
  20
328.000000
  0
VERTEX
  8
C7
  10
96.000000
  20
327.000000
  0
SEQEND
  8
C7
  0
POLYLINE
  8
C7
  66
1
  10
129.000000
  20
328.000000
  0
VERTEX
  8
C7
  10
129.000000
  20
328.000000
  0
VERTEX
  8
C7
  10
130.000000
  20
324.000000
  0
VERTEX
  8
C7
  10
132.000000
  20
324.000000
  0
VERTEX
  8
C7
  10
133.000000
  20
325.000000
  0
VERTEX
  8
C7
  10
133.000000
  20
327.000000
  0
VERTEX
  8
C7
  10
129.000000
  20
328.000000
  0
SEQEND
  8
C7
  0
POLYLINE
  8
C7
  66
1
  10
77.333336
  20
324.333344
  0
VERTEX
  8
C7
  10
77.333336
  20
324.333344
  0
VERTEX
  8
C7
  10
77.666664
  20
323.666656
  0
VERTEX
  8
C7
  10
77.333336
  20
324.333344
  0
SEQEND
  8
C7
  0
POLYLINE
  8
C7
  66
1
  10
252.000000
  20
320.000000
  0
VERTEX
  8
C7
  10
252.000000
  20
320.000000
  0
VERTEX
  8
C7
  10
252.000000
  20
315.000000
  0
VERTEX
  8
C7
  10
253.000000
  20
315.000000
  0
VERTEX
  8
C7
  10
252.000000
  20
320.000000
  0
SEQEND
  8
C7
  0
POLYLINE
  8
C7
  66
1
  10
531.000000
  20
320.000000
  0
VERTEX
  8
C7
  10
531.000000
  20
320.000000
  0
VERTEX
  8
C7
  10
531.000000
  20
315.000000
  0
VERTEX
  8
C7
  10
532.000000
  20
315.000000
  0
VERTEX
  8
C7
  10
531.000000
  20
320.000000
  0
SEQEND
  8
C7
  0
POLYLINE
  8
C7
  66
1
  10
609.000000
  20
311.000000
  0
VERTEX
  8
C7
  10
609.000000
  20
311.000000
  0
VERTEX
  8
C7
  10
612.000000
  20
312.000000
  0
VERTEX
  8
C7
  10
612.000000
  20
303.000000
  0
VERTEX
  8
C7
  10
615.000000
  20
303.000000
  0
VERTEX
  8
C7
  10
615.000000
  20
317.000000
  0
VERTEX
  8
C7
  10
609.000000
  20
311.000000
  0
SEQEND
  8
C7
  0
POLYLINE
  8
C7
  66
1
  10
618.000000
  20
312.000000
  0
VERTEX
  8
C7
  10
618.000000
  20
312.000000
  0
VERTEX
  8
C7
  10
623.000000
  20
315.000000
  0
VERTEX
  8
C7
  10
617.000000
  20
303.000000
  0
VERTEX
  8
C7
  10
627.000000
  20
303.000000
  0
VERTEX
  8
C7
  10
627.000000
  20
306.000000
  0
VERTEX
  8
C7
  10
622.000000
  20
306.000000
  0
VERTEX
  8
C7
  10
622.773100
  20
306.701600
  0
VERTEX
  8
C7
  10
623.447300
  20
307.392400
  0
VERTEX
  8
C7
  10
624.027000
  20
308.070500
  0
VERTEX
  8
C7
  10
624.516300
  20
308.734300
  0
VERTEX
  8
C7
  10
624.919500
  20
309.381800
  0
VERTEX
  8
C7
  10
625.240900
  20
310.011600
  0
VERTEX
  8
C7
  10
625.484800
  20
310.621700
  0
VERTEX
  8
C7
  10
625.655400
  20
311.210500
  0
VERTEX
  8
C7
  10
625.757000
  20
311.776300
  0
VERTEX
  8
C7
  10
625.793800
  20
312.317200
  0
VERTEX
  8
C7
  10
625.770200
  20
312.831700
  0
VERTEX
  8
C7
  10
625.690300
  20
313.317800
  0
VERTEX
  8
C7
  10
625.558500
  20
313.774000
  0
VERTEX
  8
C7
  10
625.379000
  20
314.198400
  0
VERTEX
  8
C7
  10
625.156100
  20
314.589400
  0
VERTEX
  8
C7
  10
624.894000
  20
314.945200
  0
VERTEX
  8
C7
  10
624.597000
  20
315.264000
  0
VERTEX
  8
C7
  10
624.269400
  20
315.544200
  0
VERTEX
  8
C7
  10
623.915500
  20
315.784000
  0
VERTEX
  8
C7
  10
623.539500
  20
315.981700
  0
VERTEX
  8
C7
  10
623.145600
  20
316.135500
  0
VERTEX
  8
C7
  10
622.738200
  20
316.243700
  0
VERTEX
  8
C7
  10
622.321500
  20
316.304500
  0
VERTEX
  8
C7
  10
621.899800
  20
316.316400
  0
VERTEX
  8
C7
  10
621.477300
  20
316.277400
  0
VERTEX
  8
C7
  10
621.058400
  20
316.185800
  0
VERTEX
  8
C7
  10
620.647200
  20
316.040000
  0
VERTEX
  8
C7
  10
620.248000
  20
315.838300
  0
VERTEX
  8
C7
  10
619.865100
  20
315.578700
  0
VERTEX
  8
C7
  10
619.502800
  20
315.259700
  0
VERTEX
  8
C7
  10
619.165400
  20
314.879600
  0
VERTEX
  8
C7
  10
618.857000
  20
314.436400
  0
VERTEX
  8
C7
  10
618.582000
  20
313.928600
  0
VERTEX
  8
C7
  10
618.344700
  20
313.354500
  0
VERTEX
  8
C7
  10
618.149200
  20
312.712100
  0
VERTEX
  8
C7
  10
618.000000
  20
312.000000
  0
SEQEND
  8
C7
  0
POLYLINE
  8
C7
  66
1
  10
633.000000
  20
313.000000
  0
VERTEX
  8
C7
  10
633.000000
  20
313.000000
  0
VERTEX
  8
C7
  10
638.000000
  20
315.000000
  0
VERTEX
  8
C7
  10
639.000000
  20
312.000000
  0
VERTEX
  8
C7
  10
636.000000
  20
309.000000
  0
VERTEX
  8
C7
  10
640.000000
  20
308.000000
  0
VERTEX
  8
C7
  10
637.000000
  20
305.000000
  0
VERTEX
  8
C7
  10
633.000000
  20
308.000000
  0
VERTEX
  8
C7
  10
633.370000
  20
306.983700
  0
VERTEX
  8
C7
  10
633.811900
  20
306.117800
  0
VERTEX
  8
C7
  10
634.321300
  20
305.390200
  0
VERTEX
  8
C7
  10
634.893400
  20
304.788700
  0
VERTEX
  8
C7
  10
635.523700
  20
304.301200
  0
VERTEX
  8
C7
  10
636.207800
  20
303.915600
  0
VERTEX
  8
C7
  10
636.941000
  20
303.619800
  0
VERTEX
  8
C7
  10
637.718800
  20
303.401600
  0
VERTEX
  8
C7
  10
638.536600
  20
303.249100
  0
VERTEX
  8
C7
  10
639.389900
  20
303.150000
  0
VERTEX
  8
C7
  10
640.274200
  20
303.092200
  0
VERTEX
  8
C7
  10
641.184800
  20
303.063700
  0
VERTEX
  8
C7
  10
642.117200
  20
303.052400
  0
VERTEX
  8
C7
  10
643.066900
  20
303.046000
  0
VERTEX
  8
C7
  10
644.029400
  20
303.032600
  0
VERTEX
  8
C7
  10
645.000000
  20
303.000000
  0
VERTEX
  8
C7
  10
648.000000
  20
317.000000
  0
VERTEX
  8
C7
  10
647.233400
  20
316.407600
  0
VERTEX
  8
C7
  10
646.554300
  20
315.747600
  0
VERTEX
  8
C7
  10
645.956900
  20
315.026600
  0
VERTEX
  8
C7
  10
645.435100
  20
314.251100
  0
VERTEX
  8
C7
  10
644.983100
  20
313.427700
  0
VERTEX
  8
C7
  10
644.595000
  20
312.562900
  0
VERTEX
  8
C7
  10
644.264800
  20
311.663300
  0
VERTEX
  8
C7
  10
643.986600
  20
310.735400
  0
VERTEX
  8
C7
  10
643.754600
  20
309.785900
  0
VERTEX
  8
C7
  10
643.562700
  20
308.821200
  0
VERTEX
  8
C7
  10
643.405200
  20
307.847900
  0
VERTEX
  8
C7
  10
643.276100
  20
306.872600
  0
VERTEX
  8
C7
  10
643.169400
  20
305.901800
  0
VERTEX
  8
C7
  10
643.079400
  20
304.942000
  0
VERTEX
  8
C7
  10
643.000000
  20
304.000000
  0
VERTEX
  8
C7
  10
642.879200
  20
304.410500
  0
VERTEX
  8
C7
  10
642.751800
  20
304.880700
  0
VERTEX
  8
C7
  10
642.617100
  20
305.404100
  0
VERTEX
  8
C7
  10
642.474900
  20
305.974000
  0
VERTEX
  8
C7
  10
642.324500
  20
306.583800
  0
VERTEX
  8
C7
  10
642.165600
  20
307.226800
  0
VERTEX
  8
C7
  10
641.997800
  20
307.896600
  0
VERTEX
  8
C7
  10
641.820400
  20
308.586400
  0
VERTEX
  8
C7
  10
641.633200
  20
309.289600
  0
VERTEX
  8
C7
  10
641.435700
  20
309.999700
  0
VERTEX
  8
C7
  10
641.227400
  20
310.709900
  0
VERTEX
  8
C7
  10
641.007800
  20
311.413800
  0
VERTEX
  8
C7
  10
640.776500
  20
312.104600
  0
VERTEX
  8
C7
  10
640.533100
  20
312.775800
  0
VERTEX
  8
C7
  10
640.277100
  20
313.420800
  0
VERTEX
  8
C7
  10
640.008000
  20
314.032900
  0
VERTEX
  8
C7
  10
639.725400
  20
314.605500
  0
VERTEX
  8
C7
  10
639.428900
  20
315.132000
  0
VERTEX
  8
C7
  10
639.118000
  20
315.605800
  0
VERTEX
  8
C7
  10
638.792200
  20
316.020300
  0
VERTEX
  8
C7
  10
638.451100
  20
316.368800
  0
VERTEX
  8
C7
  10
638.094300
  20
316.644800
  0
VERTEX
  8
C7
  10
637.721200
  20
316.841600
  0
VERTEX
  8
C7
  10
637.331500
  20
316.952600
  0
VERTEX
  8
C7
  10
636.924700
  20
316.971200
  0
VERTEX
  8
C7
  10
636.500300
  20
316.890800
  0
VERTEX
  8
C7
  10
636.057900
  20
316.704800
  0
VERTEX
  8
C7
  10
635.597000
  20
316.406500
  0
VERTEX
  8
C7
  10
635.117300
  20
315.989400
  0
VERTEX
  8
C7
  10
634.618100
  20
315.446800
  0
VERTEX
  8
C7
  10
634.099200
  20
314.772100
  0
VERTEX
  8
C7
  10
633.559900
  20
313.958700
  0
VERTEX
  8
C7
  10
633.000000
  20
313.000000
  0
SEQEND
  8
C7
  0
POLYLINE
  8
C7
  66
1
  10
649.000000
  20
311.000000
  0
VERTEX
  8
C7
  10
649.000000
  20
311.000000
  0
VERTEX
  8
C7
  10
653.000000
  20
313.000000
  0
VERTEX
  8
C7
  10
653.000000
  20
303.000000
  0
VERTEX
  8
C7
  10
655.000000
  20
303.000000
  0
VERTEX
  8
C7
  10
655.000000
  20
317.000000
  0
VERTEX
  8
C7
  10
649.000000
  20
311.000000
  0
SEQEND
  8
C7
  0
POLYLINE
  8
C7
  66
1
  10
665.000000
  20
312.000000
  0
VERTEX
  8
C7
  10
665.000000
  20
312.000000
  0
VERTEX
  8
C7
  10
665.000000
  20
313.000000
  0
VERTEX
  8
C7
  10
671.000000
  20
314.000000
  0
VERTEX
  8
C7
  10
672.000000
  20
314.000000
  0
VERTEX
  8
C7
  10
674.000000
  20
312.000000
  0
VERTEX
  8
C7
  10
674.000000
  20
317.000000
  0
VERTEX
  8
C7
  10
672.854900
  20
317.006700
  0
VERTEX
  8
C7
  10
671.817400
  20
317.004000
  0
VERTEX
  8
C7
  10
670.890000
  20
316.942000
  0
VERTEX
  8
C7
  10
670.075500
  20
316.770900
  0
VERTEX
  8
C7
  10
669.376600
  20
316.441000
  0
VERTEX
  8
C7
  10
668.795900
  20
315.902400
  0
VERTEX
  8
C7
  10
668.336100
  20
315.105300
  0
VERTEX
  8
C7
  10
668.000000
  20
314.000000
  0
VERTEX
  8
C7
  10
667.297400
  20
314.598400
  0
VERTEX
  8
C7
  10
666.591900
  20
315.082300
  0
VERTEX
  8
C7
  10
665.887300
  20
315.457100
  0
VERTEX
  8
C7
  10
665.187500
  20
315.727900
  0
VERTEX
  8
C7
  10
664.496700
  20
315.900000
  0
VERTEX
  8
C7
  10
663.818700
  20
315.978600
  0
VERTEX
  8
C7
  10
663.157600
  20
315.969000
  0
VERTEX
  8
C7
  10
662.517300
  20
315.876400
  0
VERTEX
  8
C7
  10
661.901800
  20
315.706000
  0
VERTEX
  8
C7
  10
661.315100
  20
315.463200
  0
VERTEX
  8
C7
  10
660.761100
  20
315.153000
  0
VERTEX
  8
C7
  10
660.243900
  20
314.780900
  0
VERTEX
  8
C7
  10
659.767500
  20
314.351900
  0
VERTEX
  8
C7
  10
659.335700
  20
313.871400
  0
VERTEX
  8
C7
  10
658.952700
  20
313.344600
  0
VERTEX
  8
C7
  10
658.622300
  20
312.776700
  0
VERTEX
  8
C7
  10
658.348600
  20
312.173000
  0
VERTEX
  8
C7
  10
658.135500
  20
311.538700
  0
VERTEX
  8
C7
  10
657.987100
  20
310.879100
  0
VERTEX
  8
C7
  10
657.907200
  20
310.199400
  0
VERTEX
  8
C7
  10
657.899900
  20
309.504800
  0
VERTEX
  8
C7
  10
657.969200
  20
308.800500
  0
VERTEX
  8
C7
  10
658.119000
  20
308.091900
  0
VERTEX
  8
C7
  10
658.353400
  20
307.384200
  0
VERTEX
  8
C7
  10
658.676200
  20
306.682600
  0
VERTEX
  8
C7
  10
659.091600
  20
305.992300
  0
VERTEX
  8
C7
  10
659.603400
  20
305.318600
  0
SEQEND
  8
C7
  0
POLYLINE
  8
C7
  66
1
  10
659.603300
  20
305.318600
  0
VERTEX
  8
C7
  10
659.603300
  20
305.318600
  0
VERTEX
  8
C7
  10
660.195100
  20
304.698700
  0
VERTEX
  8
C7
  10
660.800700
  20
304.212600
  0
VERTEX
  8
C7
  10
661.413700
  20
303.852700
  0
VERTEX
  8
C7
  10
662.028000
  20
303.611200
  0
VERTEX
  8
C7
  10
662.637300
  20
303.480700
  0
VERTEX
  8
C7
  10
663.235400
  20
303.453600
  0
VERTEX
  8
C7
  10
663.816100
  20
303.522300
  0
VERTEX
  8
C7
  10
664.373200
  20
303.679200
  0
VERTEX
  8
C7
  10
664.900500
  20
303.916700
  0
VERTEX
  8
C7
  10
665.391700
  20
304.227300
  0
VERTEX
  8
C7
  10
665.840600
  20
304.603300
  0
VERTEX
  8
C7
  10
666.241000
  20
305.037300
  0
VERTEX
  8
C7
  10
666.586700
  20
305.521500
  0
VERTEX
  8
C7
  10
666.871500
  20
306.048500
  0
VERTEX
  8
C7
  10
667.089100
  20
306.610600
  0
VERTEX
  8
C7
  10
667.233400
  20
307.200200
  0
VERTEX
  8
C7
  10
667.298100
  20
307.809900
  0
VERTEX
  8
C7
  10
667.276900
  20
308.431900
  0
VERTEX
  8
C7
  10
667.163800
  20
309.058800
  0
VERTEX
  8
C7
  10
666.952400
  20
309.682900
  0
VERTEX
  8
C7
  10
666.636500
  20
310.296600
  0
VERTEX
  8
C7
  10
666.209900
  20
310.892400
  0
VERTEX
  8
C7
  10
665.666500
  20
311.462700
  0
VERTEX
  8
C7
  10
665.000000
  20
312.000000
  0
SEQEND
  8
C7
  0
POLYLINE
  8
C7
  66
1
  10
678.000000
  20
317.000000
  0
VERTEX
  8
C7
  10
678.000000
  20
317.000000
  0
VERTEX
  8
C7
  10
677.611400
  20
316.193300
  0
VERTEX
  8
C7
  10
677.243600
  20
315.360100
  0
VERTEX
  8
C7
  10
676.900200
  20
314.504400
  0
VERTEX
  8
C7
  10
676.584900
  20
313.629800
  0
VERTEX
  8
C7
  10
676.301600
  20
312.740100
  0
VERTEX
  8
C7
  10
676.053900
  20
311.839300
  0
VERTEX
  8
C7
  10
675.845600
  20
310.931000
  0
VERTEX
  8
C7
  10
675.680500
  20
310.019100
  0
VERTEX
  8
C7
  10
675.562300
  20
309.107300
  0
VERTEX
  8
C7
  10
675.494800
  20
308.199500
  0
VERTEX
  8
C7
  10
675.481700
  20
307.299500
  0
VERTEX
  8
C7
  10
675.526700
  20
306.411100
  0
VERTEX
  8
C7
  10
675.633600
  20
305.538100
  0
VERTEX
  8
C7
  10
675.806200
  20
304.684200
  0
VERTEX
  8
C7
  10
676.048100
  20
303.853300
  0
VERTEX
  8
C7
  10
676.363300
  20
303.049200
  0
VERTEX
  8
C7
  10
676.755300
  20
302.275700
  0
VERTEX
  8
C7
  10
677.227900
  20
301.536600
  0
VERTEX
  8
C7
  10
677.785000
  20
300.835600
  0
VERTEX
  8
C7
  10
678.430200
  20
300.176700
  0
VERTEX
  8
C7
  10
679.167200
  20
299.563500
  0
VERTEX
  8
C7
  10
680.000000
  20
299.000000
  0
VERTEX
  8
C7
  10
680.000000
  20
317.000000
  0
VERTEX
  8
C7
  10
678.000000
  20
317.000000
  0
SEQEND
  8
C7
  0
POLYLINE
  8
C7
  66
1
  10
681.000000
  20
313.000000
  0
VERTEX
  8
C7
  10
681.000000
  20
313.000000
  0
VERTEX
  8
C7
  10
686.000000
  20
315.000000
  0
VERTEX
  8
C7
  10
687.000000
  20
312.000000
  0
VERTEX
  8
C7
  10
684.000000
  20
309.000000
  0
VERTEX
  8
C7
  10
687.000000
  20
309.000000
  0
VERTEX
  8
C7
  10
686.000000
  20
305.000000
  0
VERTEX
  8
C7
  10
685.000000
  20
305.000000
  0
VERTEX
  8
C7
  10
681.000000
  20
308.000000
  0
VERTEX
  8
C7
  10
681.277700
  20
307.256100
  0
VERTEX
  8
C7
  10
681.647100
  20
306.536000
  0
VERTEX
  8
C7
  10
682.096300
  20
305.854500
  0
VERTEX
  8
C7
  10
682.613400
  20
305.226700
  0
VERTEX
  8
C7
  10
683.186400
  20
304.667500
  0
VERTEX
  8
C7
  10
683.803500
  20
304.192000
  0
VERTEX
  8
C7
  10
684.452600
  20
303.815000
  0
VERTEX
  8
C7
  10
685.122000
  20
303.551700
  0
VERTEX
  8
C7
  10
685.799700
  20
303.416900
  0
VERTEX
  8
C7
  10
686.473700
  20
303.425700
  0
VERTEX
  8
C7
  10
687.132100
  20
303.593100
  0
VERTEX
  8
C7
  10
687.763100
  20
303.934000
  0
VERTEX
  8
C7
  10
688.354600
  20
304.463500
  0
VERTEX
  8
C7
  10
688.894900
  20
305.196500
  0
VERTEX
  8
C7
  10
689.371900
  20
306.148100
  0
SEQEND
  8
C7
  0
POLYLINE
  8
C7
  66
1
  10
689.371800
  20
306.148100
  0
VERTEX
  8
C7
  10
689.371800
  20
306.148100
  0
VERTEX
  8
C7
  10
689.636900
  20
306.886100
  0
VERTEX
  8
C7
  10
689.828900
  20
307.633900
  0
VERTEX
  8
C7
  10
689.951100
  20
308.385600
  0
VERTEX
  8
C7
  10
690.007200
  20
309.135800
  0
VERTEX
  8
C7
  10
690.000400
  20
309.878800
  0
VERTEX
  8
C7
  10
689.934400
  20
310.609000
  0
VERTEX
  8
C7
  10
689.812500
  20
311.320600
  0
VERTEX
  8
C7
  10
689.638300
  20
312.008200
  0
VERTEX
  8
C7
  10
689.415300
  20
312.666000
  0
VERTEX
  8
C7
  10
689.146800
  20
313.288400
  0
VERTEX
  8
C7
  10
688.836400
  20
313.869800
  0
VERTEX
  8
C7
  10
688.487500
  20
314.404600
  0
VERTEX
  8
C7
  10
688.103600
  20
314.887100
  0
VERTEX
  8
C7
  10
687.688200
  20
315.311700
  0
VERTEX
  8
C7
  10
687.244800
  20
315.672800
  0
VERTEX
  8
C7
  10
686.776800
  20
315.964700
  0
VERTEX
  8
C7
  10
686.287700
  20
316.181800
  0
VERTEX
  8
C7
  10
685.781000
  20
316.318500
  0
VERTEX
  8
C7
  10
685.260100
  20
316.369100
  0
VERTEX
  8
C7
  10
684.728500
  20
316.328000
  0
VERTEX
  8
C7
  10
684.189700
  20
316.189600
  0
VERTEX
  8
C7
  10
683.647200
  20
315.948300
  0
VERTEX
  8
C7
  10
683.104400
  20
315.598300
  0
VERTEX
  8
C7
  10
682.564800
  20
315.134100
  0
VERTEX
  8
C7
  10
682.031900
  20
314.550100
  0
VERTEX
  8
C7
  10
681.509100
  20
313.840600
  0
VERTEX
  8
C7
  10
681.000000
  20
313.000000
  0
SEQEND
  8
C7
  0
POLYLINE
  8
C7
  66
1
  10
692.000000
  20
311.000000
  0
VERTEX
  8
C7
  10
692.000000
  20
311.000000
  0
VERTEX
  8
C7
  10
695.000000
  20
312.000000
  0
VERTEX
  8
C7
  10
695.000000
  20
303.000000
  0
VERTEX
  8
C7
  10
698.000000
  20
303.000000
  0
VERTEX
  8
C7
  10
698.000000
  20
317.000000
  0
VERTEX
  8
C7
  10
692.000000
  20
311.000000
  0
SEQEND
  8
C7
  0
POLYLINE
  8
C7
  66
1
  10
703.429810
  20
315.967590
  0
VERTEX
  8
C7
  10
703.429810
  20
315.967590
  0
VERTEX
  8
C7
  10
702.915200
  20
315.553300
  0
VERTEX
  8
C7
  10
702.465800
  20
315.057100
  0
VERTEX
  8
C7
  10
702.080600
  20
314.489000
  0
VERTEX
  8
C7
  10
701.758400
  20
313.858800
  0
VERTEX
  8
C7
  10
701.498400
  20
313.176700
  0
VERTEX
  8
C7
  10
701.299400
  20
312.452600
  0
VERTEX
  8
C7
  10
701.160300
  20
311.696500
  0
VERTEX
  8
C7
  10
701.080200
  20
310.918600
  0
VERTEX
  8
C7
  10
701.058000
  20
310.128700
  0
VERTEX
  8
C7
  10
701.092600
  20
309.337000
  0
VERTEX
  8
C7
  10
701.183100
  20
308.553400
  0
VERTEX
  8
C7
  10
701.328300
  20
307.787900
  0
VERTEX
  8
C7
  10
701.527200
  20
307.050700
  0
VERTEX
  8
C7
  10
701.778800
  20
306.351600
  0
VERTEX
  8
C7
  10
702.082100
  20
305.700700
  0
VERTEX
  8
C7
  10
702.436000
  20
305.108000
  0
VERTEX
  8
C7
  10
702.839400
  20
304.583600
  0
VERTEX
  8
C7
  10
703.291300
  20
304.137400
  0
VERTEX
  8
C7
  10
703.790600
  20
303.779500
  0
VERTEX
  8
C7
  10
704.336400
  20
303.519900
  0
VERTEX
  8
C7
  10
704.927600
  20
303.368600
  0
VERTEX
  8
C7
  10
705.563100
  20
303.335700
  0
VERTEX
  8
C7
  10
706.241900
  20
303.431100
  0
VERTEX
  8
C7
  10
706.963000
  20
303.664800
  0
VERTEX
  8
C7
  10
707.725300
  20
304.047000
  0
SEQEND
  8
C7
  0
POLYLINE
  8
C7
  66
1
  10
707.725200
  20
304.047000
  0
VERTEX
  8
C7
  10
707.725200
  20
304.047000
  0
VERTEX
  8
C7
  10
708.288300
  20
304.438000
  0
VERTEX
  8
C7
  10
708.782200
  20
304.902500
  0
VERTEX
  8
C7
  10
709.208500
  20
305.432300
  0
VERTEX
  8
C7
  10
709.568900
  20
306.019000
  0
VERTEX
  8
C7
  10
709.865000
  20
306.654100
  0
VERTEX
  8
C7
  10
710.098500
  20
307.329400
  0
VERTEX
  8
C7
  10
710.270900
  20
308.036400
  0
VERTEX
  8
C7
  10
710.384000
  20
308.766800
  0
VERTEX
  8
C7
  10
710.439400
  20
309.512300
  0
VERTEX
  8
C7
  10
710.438600
  20
310.264400
  0
VERTEX
  8
C7
  10
710.383400
  20
311.014800
  0
VERTEX
  8
C7
  10
710.275300
  20
311.755200
  0
VERTEX
  8
C7
  10
710.116100
  20
312.477100
  0
VERTEX
  8
C7
  10
709.907300
  20
313.172300
  0
VERTEX
  8
C7
  10
709.650600
  20
313.832400
  0
VERTEX
  8
C7
  10
709.347700
  20
314.448900
  0
VERTEX
  8
C7
  10
709.000100
  20
315.013500
  0
VERTEX
  8
C7
  10
708.609500
  20
315.518000
  0
VERTEX
  8
C7
  10
708.177500
  20
315.953800
  0
VERTEX
  8
C7
  10
707.705900
  20
316.312700
  0
VERTEX
  8
C7
  10
707.196100
  20
316.586300
  0
VERTEX
  8
C7
  10
706.650000
  20
316.766100
  0
VERTEX
  8
C7
  10
706.069000
  20
316.844000
  0
VERTEX
  8
C7
  10
705.454800
  20
316.811400
  0
VERTEX
  8
C7
  10
704.809100
  20
316.660000
  0
VERTEX
  8
C7
  10
704.133600
  20
316.381500
  0
VERTEX
  8
C7
  10
703.429800
  20
315.967600
  0
SEQEND
  8
C7
  0
POLYLINE
  8
C7
  66
1
  10
742.000000
  20
317.000000
  0
VERTEX
  8
C7
  10
742.000000
  20
317.000000
  0
VERTEX
  8
C7
  10
742.000000
  20
299.000000
  0
VERTEX
  8
C7
  10
742.825400
  20
299.557700
  0
VERTEX
  8
C7
  10
743.554900
  20
300.162200
  0
VERTEX
  8
C7
  10
744.193000
  20
300.810200
  0
VERTEX
  8
C7
  10
744.744300
  20
301.498200
  0
VERTEX
  8
C7
  10
745.213200
  20
302.223100
  0
VERTEX
  8
C7
  10
745.604500
  20
302.981600
  0
VERTEX
  8
C7
  10
745.922500
  20
303.770400
  0
VERTEX
  8
C7
  10
746.171900
  20
304.586100
  0
VERTEX
  8
C7
  10
746.357100
  20
305.425600
  0
VERTEX
  8
C7
  10
746.482800
  20
306.285500
  0
VERTEX
  8
C7
  10
746.553500
  20
307.162500
  0
VERTEX
  8
C7
  10
746.573700
  20
308.053300
  0
VERTEX
  8
C7
  10
746.547900
  20
308.954700
  0
VERTEX
  8
C7
  10
746.480800
  20
309.863400
  0
VERTEX
  8
C7
  10
746.376900
  20
310.776000
  0
VERTEX
  8
C7
  10
746.240700
  20
311.689400
  0
VERTEX
  8
C7
  10
746.076700
  20
312.600100
  0
VERTEX
  8
C7
  10
745.889600
  20
313.505000
  0
VERTEX
  8
C7
  10
745.683800
  20
314.400700
  0
VERTEX
  8
C7
  10
745.463900
  20
315.284000
  0
VERTEX
  8
C7
  10
745.234400
  20
316.151500
  0
VERTEX
  8
C7
  10
745.000000
  20
317.000000
  0
VERTEX
  8
C7
  10
742.000000
  20
317.000000
  0
SEQEND
  8
C7
  0
POLYLINE
  8
C7
  66
1
  10
661.000000
  20
312.000000
  0
VERTEX
  8
C7
  10
661.000000
  20
312.000000
  0
VERTEX
  8
C7
  10
665.000000
  20
314.000000
  0
VERTEX
  8
C7
  10
661.000000
  20
312.000000
  0
SEQEND
  8
C7
  0
POLYLINE
  8
C7
  66
1
  10
705.000000
  20
315.000000
  0
VERTEX
  8
C7
  10
705.000000
  20
315.000000
  0
VERTEX
  8
C7
  10
705.000000
  20
305.000000
  0
VERTEX
  8
C7
  10
705.779900
  20
305.836200
  0
VERTEX
  8
C7
  10
706.406000
  20
306.662900
  0
VERTEX
  8
C7
  10
706.889500
  20
307.488200
  0
VERTEX
  8
C7
  10
707.242000
  20
308.319900
  0
VERTEX
  8
C7
  10
707.474900
  20
309.166300
  0
VERTEX
  8
C7
  10
707.599600
  20
310.035200
  0
VERTEX
  8
C7
  10
707.627500
  20
310.934700
  0
VERTEX
  8
C7
  10
707.570000
  20
311.873000
  0
VERTEX
  8
C7
  10
707.438700
  20
312.857900
  0
VERTEX
  8
C7
  10
707.244800
  20
313.897500
  0
VERTEX
  8
C7
  10
707.000000
  20
315.000000
  0
VERTEX
  8
C7
  10
705.000000
  20
315.000000
  0
SEQEND
  8
C7
  0
POLYLINE
  8
C7
  66
1
  10
112.000000
  20
314.000000
  0
VERTEX
  8
C7
  10
112.000000
  20
314.000000
  0
VERTEX
  8
C7
  10
112.000000
  20
225.000000
  0
VERTEX
  8
C7
  10
112.007500
  20
224.245300
  0
VERTEX
  8
C7
  10
112.029200
  20
223.450300
  0
VERTEX
  8
C7
  10
112.063500
  20
222.617600
  0
VERTEX
  8
C7
  10
112.108700
  20
221.749600
  0
VERTEX
  8
C7
  10
112.163400
  20
220.849200
  0
VERTEX
  8
C7
  10
112.225900
  20
219.918700
  0
VERTEX
  8
C7
  10
112.294700
  20
218.960900
  0
VERTEX
  8
C7
  10
112.368300
  20
217.978400
  0
VERTEX
  8
C7
  10
112.445000
  20
216.973700
  0
VERTEX
  8
C7
  10
112.523300
  20
215.949500
  0
VERTEX
  8
C7
  10
112.601700
  20
214.908400
  0
VERTEX
  8
C7
  10
112.678500
  20
213.852900
  0
VERTEX
  8
C7
  10
112.752300
  20
212.785700
  0
VERTEX
  8
C7
  10
112.821400
  20
211.709500
  0
VERTEX
  8
C7
  10
112.884200
  20
210.626700
  0
VERTEX
  8
C7
  10
112.939400
  20
209.540000
  0
VERTEX
  8
C7
  10
112.985100
  20
208.452000
  0
VERTEX
  8
C7
  10
113.020000
  20
207.365300
  0
VERTEX
  8
C7
  10
113.042400
  20
206.282600
  0
VERTEX
  8
C7
  10
113.050800
  20
205.206400
  0
VERTEX
  8
C7
  10
113.043500
  20
204.139300
  0
VERTEX
  8
C7
  10
113.019100
  20
203.083900
  0
VERTEX
  8
C7
  10
112.976000
  20
202.042900
  0
VERTEX
  8
C7
  10
112.912600
  20
201.018800
  0
VERTEX
  8
C7
  10
112.827300
  20
200.014300
  0
VERTEX
  8
C7
  10
112.718700
  20
199.031900
  0
VERTEX
  8
C7
  10
112.585000
  20
198.074300
  0
VERTEX
  8
C7
  10
112.424800
  20
197.144000
  0
VERTEX
  8
C7
  10
112.236500
  20
196.243800
  0
VERTEX
  8
C7
  10
112.018500
  20
195.376100
  0
VERTEX
  8
C7
  10
111.769300
  20
194.543500
  0
VERTEX
  8
C7
  10
111.487300
  20
193.748800
  0
VERTEX
  8
C7
  10
111.170900
  20
192.994500
  0
VERTEX
  8
C7
  10
110.818600
  20
192.283200
  0
VERTEX
  8
C7
  10
110.428800
  20
191.617500
  0
VERTEX
  8
C7
  10
110.000000
  20
191.000000
  0
VERTEX
  8
C7
  10
112.000000
  20
178.000000
  0
VERTEX
  8
C7
  10
108.000000
  20
178.000000
  0
VERTEX
  8
C7
  10
108.000000
  20
177.000000
  0
VERTEX
  8
C7
  10
202.000000
  20
177.000000
  0
VERTEX
  8
C7
  10
202.000000
  20
86.000000
  0
VERTEX
  8
C7
  10
203.000000
  20
86.000000
  0
VERTEX
  8
C7
  10
203.000000
  20
90.000000
  0
VERTEX
  8
C7
  10
216.000000
  20
88.000000
  0
VERTEX
  8
C7
  10
216.403800
  20
88.536500
  0
VERTEX
  8
C7
  10
216.884400
  20
89.024600
  0
VERTEX
  8
C7
  10
217.437500
  20
89.466100
  0
VERTEX
  8
C7
  10
218.058800
  20
89.863200
  0
VERTEX
  8
C7
  10
218.744000
  20
90.217800
  0
VERTEX
  8
C7
  10
219.488700
  20
90.531900
  0
VERTEX
  8
C7
  10
220.288600
  20
90.807500
  0
VERTEX
  8
C7
  10
221.139400
  20
91.046600
  0
VERTEX
  8
C7
  10
222.036900
  20
91.251300
  0
VERTEX
  8
C7
  10
222.976600
  20
91.423400
  0
VERTEX
  8
C7
  10
223.954300
  20
91.565000
  0
VERTEX
  8
C7
  10
224.965700
  20
91.678100
  0
VERTEX
  8
C7
  10
226.006400
  20
91.764700
  0
VERTEX
  8
C7
  10
227.072200
  20
91.826800
  0
VERTEX
  8
C7
  10
228.158700
  20
91.866400
  0
VERTEX
  8
C7
  10
229.261500
  20
91.885500
  0
VERTEX
  8
C7
  10
230.376500
  20
91.886100
  0
VERTEX
  8
C7
  10
231.499200
  20
91.870200
  0
VERTEX
  8
C7
  10
232.625400
  20
91.839700
  0
VERTEX
  8
C7
  10
233.750800
  20
91.796800
  0
VERTEX
  8
C7
  10
234.870900
  20
91.743300
  0
VERTEX
  8
C7
  10
235.981600
  20
91.681300
  0
VERTEX
  8
C7
  10
237.078500
  20
91.612800
  0
VERTEX
  8
C7
  10
238.157300
  20
91.539700
  0
VERTEX
  8
C7
  10
239.213700
  20
91.464100
  0
VERTEX
  8
C7
  10
240.243300
  20
91.388000
  0
VERTEX
  8
C7
  10
241.241900
  20
91.313400
  0
VERTEX
  8
C7
  10
242.205100
  20
91.242200
  0
VERTEX
  8
C7
  10
243.128600
  20
91.176500
  0
VERTEX
  8
C7
  10
244.008100
  20
91.118300
  0
VERTEX
  8
C7
  10
244.839300
  20
91.069500
  0
VERTEX
  8
C7
  10
245.617900
  20
91.032200
  0
VERTEX
  8
C7
  10
246.339600
  20
91.008300
  0
VERTEX
  8
C7
  10
247.000000
  20
91.000000
  0
VERTEX
  8
C7
  10
339.000000
  20
91.000000
  0
VERTEX
  8
C7
  10
339.000000
  20
92.000000
  0
VERTEX
  8
C7
  10
250.000000
  20
92.000000
  0
VERTEX
  8
C7
  10
249.245300
  20
91.992400
  0
VERTEX
  8
C7
  10
248.450400
  20
91.970700
  0
VERTEX
  8
C7
  10
247.617600
  20
91.936400
  0
VERTEX
  8
C7
  10
246.749700
  20
91.891200
  0
VERTEX
  8
C7
  10
245.849200
  20
91.836500
  0
VERTEX
  8
C7
  10
244.918800
  20
91.774000
  0
VERTEX
  8
C7
  10
243.961000
  20
91.705200
  0
VERTEX
  8
C7
  10
242.978400
  20
91.631600
  0
VERTEX
  8
C7
  10
241.973800
  20
91.554900
  0
VERTEX
  8
C7
  10
240.949500
  20
91.476600
  0
VERTEX
  8
C7
  10
239.908400
  20
91.398200
  0
VERTEX
  8
C7
  10
238.853000
  20
91.321400
  0
VERTEX
  8
C7
  10
237.785800
  20
91.247600
  0
VERTEX
  8
C7
  10
236.709500
  20
91.178500
  0
VERTEX
  8
C7
  10
235.626700
  20
91.115600
  0
VERTEX
  8
C7
  10
234.540000
  20
91.060500
  0
VERTEX
  8
C7
  10
233.452000
  20
91.014700
  0
VERTEX
  8
C7
  10
232.365400
  20
90.979900
  0
VERTEX
  8
C7
  10
231.282600
  20
90.957500
  0
VERTEX
  8
C7
  10
230.206400
  20
90.949100
  0
VERTEX
  8
C7
  10
229.139300
  20
90.956300
  0
VERTEX
  8
C7
  10
228.083900
  20
90.980700
  0
VERTEX
  8
C7
  10
227.042900
  20
91.023800
  0
VERTEX
  8
C7
  10
226.018800
  20
91.087300
  0
VERTEX
  8
C7
  10
225.014300
  20
91.172500
  0
VERTEX
  8
C7
  10
224.031900
  20
91.281200
  0
VERTEX
  8
C7
  10
223.074300
  20
91.414900
  0
VERTEX
  8
C7
  10
222.144000
  20
91.575100
  0
VERTEX
  8
C7
  10
221.243800
  20
91.763400
  0
VERTEX
  8
C7
  10
220.376100
  20
91.981400
  0
VERTEX
  8
C7
  10
219.543600
  20
92.230600
  0
VERTEX
  8
C7
  10
218.748800
  20
92.512600
  0
VERTEX
  8
C7
  10
217.994500
  20
92.829000
  0
VERTEX
  8
C7
  10
217.283200
  20
93.181300
  0
VERTEX
  8
C7
  10
216.617500
  20
93.571100
  0
VERTEX
  8
C7
  10
216.000000
  20
94.000000
  0
VERTEX
  8
C7
  10
203.000000
  20
92.000000
  0
VERTEX
  8
C7
  10
203.000000
  20
154.000000
  0
VERTEX
  8
C7
  10
203.012600
  20
154.730000
  0
VERTEX
  8
C7
  10
203.047900
  20
155.538000
  0
VERTEX
  8
C7
  10
203.101900
  20
156.416000
  0
VERTEX
  8
C7
  10
203.170600
  20
157.356000
  0
VERTEX
  8
C7
  10
203.250100
  20
158.350100
  0
VERTEX
  8
C7
  10
203.336200
  20
159.390300
  0
VERTEX
  8
C7
  10
203.425100
  20
160.468500
  0
VERTEX
  8
C7
  10
203.512800
  20
161.576900
  0
VERTEX
  8
C7
  10
203.595300
  20
162.707400
  0
VERTEX
  8
C7
  10
203.668600
  20
163.852200
  0
VERTEX
  8
C7
  10
203.728600
  20
165.003100
  0
VERTEX
  8
C7
  10
203.771600
  20
166.152300
  0
VERTEX
  8
C7
  10
203.793400
  20
167.291700
  0
VERTEX
  8
C7
  10
203.790000
  20
168.413400
  0
VERTEX
  8
C7
  10
203.757600
  20
169.509500
  0
VERTEX
  8
C7
  10
203.692000
  20
170.571800
  0
VERTEX
  8
C7
  10
203.589400
  20
171.592600
  0
VERTEX
  8
C7
  10
203.445700
  20
172.563800
  0
VERTEX
  8
C7
  10
203.257000
  20
173.477400
  0
VERTEX
  8
C7
  10
203.019300
  20
174.325400
  0
VERTEX
  8
C7
  10
202.728600
  20
175.099900
  0
VERTEX
  8
C7
  10
202.380800
  20
175.793000
  0
VERTEX
  8
C7
  10
201.972200
  20
176.396600
  0
VERTEX
  8
C7
  10
201.524300
  20
176.859100
  0
VERTEX
  8
C7
  10
200.970400
  20
177.259600
  0
VERTEX
  8
C7
  10
200.319500
  20
177.601900
  0
VERTEX
  8
C7
  10
199.580300
  20
177.889800
  0
VERTEX
  8
C7
  10
198.761900
  20
178.126900
  0
VERTEX
  8
C7
  10
197.873100
  20
178.317000
  0
VERTEX
  8
C7
  10
196.922800
  20
178.464000
  0
VERTEX
  8
C7
  10
195.920100
  20
178.571500
  0
VERTEX
  8
C7
  10
194.873600
  20
178.643400
  0
VERTEX
  8
C7
  10
193.792500
  20
178.683400
  0
VERTEX
  8
C7
  10
192.685500
  20
178.695200
  0
VERTEX
  8
C7
  10
191.561600
  20
178.682700
  0
VERTEX
  8
C7
  10
190.429800
  20
178.649500
  0
VERTEX
  8
C7
  10
189.298800
  20
178.599500
  0
VERTEX
  8
C7
  10
188.177700
  20
178.536300
  0
VERTEX
  8
C7
  10
187.075300
  20
178.463900
  0
VERTEX
  8
C7
  10
186.000600
  20
178.385900
  0
VERTEX
  8
C7
  10
184.962400
  20
178.306100
  0
VERTEX
  8
C7
  10
183.969700
  20
178.228200
  0
VERTEX
  8
C7
  10
183.031300
  20
178.156100
  0
VERTEX
  8
C7
  10
182.156300
  20
178.093400
  0
VERTEX
  8
C7
  10
181.353400
  20
178.044000
  0
VERTEX
  8
C7
  10
180.631700
  20
178.011600
  0
VERTEX
  8
C7
  10
180.000000
  20
178.000000
  0
VERTEX
  8
C7
  10
114.000000
  20
178.000000
  0
VERTEX
  8
C7
  10
116.000000
  20
191.000000
  0
VERTEX
  8
C7
  10
115.463400
  20
191.403800
  0
VERTEX
  8
C7
  10
114.975300
  20
191.884400
  0
VERTEX
  8
C7
  10
114.533800
  20
192.437500
  0
VERTEX
  8
C7
  10
114.136700
  20
193.058800
  0
VERTEX
  8
C7
  10
113.782100
  20
193.744000
  0
VERTEX
  8
C7
  10
113.468000
  20
194.488700
  0
VERTEX
  8
C7
  10
113.192300
  20
195.288600
  0
VERTEX
  8
C7
  10
112.953200
  20
196.139400
  0
VERTEX
  8
C7
  10
112.748600
  20
197.036900
  0
VERTEX
  8
C7
  10
112.576500
  20
197.976600
  0
VERTEX
  8
C7
  10
112.434900
  20
198.954300
  0
VERTEX
  8
C7
  10
112.321700
  20
199.965700
  0
VERTEX
  8
C7
  10
112.235100
  20
201.006400
  0
VERTEX
  8
C7
  10
112.173000
  20
202.072200
  0
VERTEX
  8
C7
  10
112.133400
  20
203.158700
  0
VERTEX
  8
C7
  10
112.114300
  20
204.261500
  0
VERTEX
  8
C7
  10
112.113800
  20
205.376500
  0
VERTEX
  8
C7
  10
112.129700
  20
206.499200
  0
VERTEX
  8
C7
  10
112.160100
  20
207.625400
  0
VERTEX
  8
C7
  10
112.203100
  20
208.750800
  0
VERTEX
  8
C7
  10
112.256600
  20
209.870900
  0
VERTEX
  8
C7
  10
112.318600
  20
210.981600
  0
VERTEX
  8
C7
  10
112.387100
  20
212.078500
  0
VERTEX
  8
C7
  10
112.460200
  20
213.157300
  0
VERTEX
  8
C7
  10
112.535800
  20
214.213700
  0
VERTEX
  8
C7
  10
112.611900
  20
215.243300
  0
VERTEX
  8
C7
  10
112.686500
  20
216.241900
  0
VERTEX
  8
C7
  10
112.757700
  20
217.205100
  0
VERTEX
  8
C7
  10
112.823400
  20
218.128600
  0
VERTEX
  8
C7
  10
112.881600
  20
219.008100
  0
VERTEX
  8
C7
  10
112.930400
  20
219.839300
  0
VERTEX
  8
C7
  10
112.967700
  20
220.617900
  0
VERTEX
  8
C7
  10
112.991600
  20
221.339600
  0
VERTEX
  8
C7
  10
113.000000
  20
222.000000
  0
VERTEX
  8
C7
  10
113.000000
  20
286.000000
  0
VERTEX
  8
C7
  10
113.008000
  20
286.900300
  0
VERTEX
  8
C7
  10
113.030900
  20
287.827700
  0
VERTEX
  8
C7
  10
113.066500
  20
288.779700
  0
VERTEX
  8
C7
  10
113.112800
  20
289.754300
  0
VERTEX
  8
C7
  10
113.167600
  20
290.748900
  0
VERTEX
  8
C7
  10
113.228800
  20
291.761600
  0
VERTEX
  8
C7
  10
113.294500
  20
292.789900
  0
VERTEX
  8
C7
  10
113.362400
  20
293.831600
  0
VERTEX
  8
C7
  10
113.430600
  20
294.884400
  0
VERTEX
  8
C7
  10
113.497000
  20
295.946100
  0
VERTEX
  8
C7
  10
113.559300
  20
297.014500
  0
VERTEX
  8
C7
  10
113.615700
  20
298.087200
  0
VERTEX
  8
C7
  10
113.664000
  20
299.162000
  0
VERTEX
  8
C7
  10
113.702100
  20
300.236700
  0
VERTEX
  8
C7
  10
113.727900
  20
301.308900
  0
VERTEX
  8
C7
  10
113.739300
  20
302.376500
  0
VERTEX
  8
C7
  10
113.734400
  20
303.437200
  0
VERTEX
  8
C7
  10
113.710900
  20
304.488600
  0
VERTEX
  8
C7
  10
113.666800
  20
305.528600
  0
VERTEX
  8
C7
  10
113.600100
  20
306.554900
  0
VERTEX
  8
C7
  10
113.508600
  20
307.565100
  0
VERTEX
  8
C7
  10
113.390200
  20
308.557200
  0
VERTEX
  8
C7
  10
113.243000
  20
309.528800
  0
VERTEX
  8
C7
  10
113.064700
  20
310.477600
  0
VERTEX
  8
C7
  10
112.853300
  20
311.401300
  0
VERTEX
  8
C7
  10
112.606800
  20
312.297800
  0
VERTEX
  8
C7
  10
112.323000
  20
313.164800
  0
VERTEX
  8
C7
  10
112.000000
  20
314.000000
  0
SEQEND
  8
C7
  0
POLYLINE
  8
C7
  66
1
  10
712.000000
  20
314.000000
  0
VERTEX
  8
C7
  10
712.000000
  20
314.000000
  0
VERTEX
  8
C7
  10
712.000000
  20
303.000000
  0
VERTEX
  8
C7
  10
714.000000
  20
303.000000
  0
VERTEX
  8
C7
  10
717.000000
  20
311.000000
  0
VERTEX
  8
C7
  10
717.000000
  20
303.000000
  0
VERTEX
  8
C7
  10
720.000000
  20
303.000000
  0
VERTEX
  8
C7
  10
720.000000
  20
311.000000
  0
VERTEX
  8
C7
  10
723.000000
  20
311.000000
  0
VERTEX
  8
C7
  10
723.000000
  20
303.000000
  0
VERTEX
  8
C7
  10
725.000000
  20
303.000000
  0
VERTEX
  8
C7
  10
724.982600
  20
304.329500
  0
VERTEX
  8
C7
  10
724.929400
  20
305.546200
  0
VERTEX
  8
C7
  10
724.838400
  20
306.655000
  0
VERTEX
  8
C7
  10
724.707600
  20
307.661100
  0
VERTEX
  8
C7
  10
724.535000
  20
308.569400
  0
VERTEX
  8
C7
  10
724.318600
  20
309.385200
  0
VERTEX
  8
C7
  10
724.056400
  20
310.113400
  0
VERTEX
  8
C7
  10
723.746500
  20
310.759200
  0
VERTEX
  8
C7
  10
723.386700
  20
311.327600
  0
VERTEX
  8
C7
  10
722.975100
  20
311.823600
  0
VERTEX
  8
C7
  10
722.509700
  20
312.252400
  0
VERTEX
  8
C7
  10
721.988500
  20
312.619100
  0
VERTEX
  8
C7
  10
721.409500
  20
312.928600
  0
VERTEX
  8
C7
  10
720.770700
  20
313.186100
  0
VERTEX
  8
C7
  10
720.070000
  20
313.396700
  0
VERTEX
  8
C7
  10
719.305600
  20
313.565400
  0
VERTEX
  8
C7
  10
718.475400
  20
313.697300
  0
VERTEX
  8
C7
  10
717.577300
  20
313.797400
  0
VERTEX
  8
C7
  10
716.609500
  20
313.871000
  0
VERTEX
  8
C7
  10
715.569800
  20
313.922900
  0
VERTEX
  8
C7
  10
714.456300
  20
313.958300
  0
VERTEX
  8
C7
  10
713.267000
  20
313.982300
  0
VERTEX
  8
C7
  10
712.000000
  20
314.000000
  0
SEQEND
  8
C7
  0
POLYLINE
  8
C7
  66
1
  10
727.000000
  20
314.000000
  0
VERTEX
  8
C7
  10
727.000000
  20
314.000000
  0
VERTEX
  8
C7
  10
727.000000
  20
303.000000
  0
VERTEX
  8
C7
  10
729.000000
  20
303.000000
  0
VERTEX
  8
C7
  10
732.000000
  20
311.000000
  0
VERTEX
  8
C7
  10
732.000000
  20
303.000000
  0
VERTEX
  8
C7
  10
735.000000
  20
303.000000
  0
VERTEX
  8
C7
  10
735.000000
  20
311.000000
  0
VERTEX
  8
C7
  10
738.000000
  20
311.000000
  0
VERTEX
  8
C7
  10
738.000000
  20
303.000000
  0
VERTEX
  8
C7
  10
741.000000
  20
303.000000
  0
VERTEX
  8
C7
  10
740.974800
  20
304.281600
  0
VERTEX
  8
C7
  10
740.906900
  20
305.452600
  0
VERTEX
  8
C7
  10
740.796100
  20
306.518400
  0
VERTEX
  8
C7
  10
740.642100
  20
307.484100
  0
VERTEX
  8
C7
  10
740.444600
  20
308.355100
  0
VERTEX
  8
C7
  10
740.203400
  20
309.136600
  0
VERTEX
  8
C7
  10
739.918200
  20
309.833900
  0
VERTEX
  8
C7
  10
739.588900
  20
310.452300
  0
VERTEX
  8
C7
  10
739.215200
  20
310.997000
  0
VERTEX
  8
C7
  10
738.796900
  20
311.473300
  0
VERTEX
  8
C7
  10
738.333600
  20
311.886600
  0
VERTEX
  8
C7
  10
737.825200
  20
312.242000
  0
VERTEX
  8
C7
  10
737.271500
  20
312.544800
  0
VERTEX
  8
C7
  10
736.672100
  20
312.800400
  0
VERTEX
  8
C7
  10
736.026900
  20
313.014000
  0
VERTEX
  8
C7
  10
735.335600
  20
313.190800
  0
VERTEX
  8
C7
  10
734.597900
  20
313.336200
  0
VERTEX
  8
C7
  10
733.813700
  20
313.455400
  0
VERTEX
  8
C7
  10
732.982700
  20
313.553700
  0
VERTEX
  8
C7
  10
732.104600
  20
313.636400
  0
VERTEX
  8
C7
  10
731.179200
  20
313.708700
  0
VERTEX
  8
C7
  10
730.206300
  20
313.776000
  0
VERTEX
  8
C7
  10
729.185600
  20
313.843400
  0
VERTEX
  8
C7
  10
728.116900
  20
313.916300
  0
VERTEX
  8
C7
  10
727.000000
  20
314.000000
  0
SEQEND
  8
C7
  0
POLYLINE
  8
C7
  66
1
  10
252.000000
  20
311.000000
  0
VERTEX
  8
C7
  10
252.000000
  20
311.000000
  0
VERTEX
  8
C7
  10
252.000000
  20
305.000000
  0
VERTEX
  8
C7
  10
253.000000
  20
305.000000
  0
VERTEX
  8
C7
  10
252.000000
  20
311.000000
  0
SEQEND
  8
C7
  0
POLYLINE
  8
C7
  66
1
  10
531.000000
  20
311.000000
  0
VERTEX
  8
C7
  10
531.000000
  20
311.000000
  0
VERTEX
  8
C7
  10
531.000000
  20
305.000000
  0
VERTEX
  8
C7
  10
532.000000
  20
305.000000
  0
VERTEX
  8
C7
  10
531.000000
  20
311.000000
  0
SEQEND
  8
C7
  0
POLYLINE
  8
C7
  66
1
  10
662.000000
  20
310.000000
  0
VERTEX
  8
C7
  10
662.000000
  20
310.000000
  0
VERTEX
  8
C7
  10
661.000000
  20
309.000000
  0
VERTEX
  8
C7
  10
664.000000
  20
305.000000
  0
VERTEX
  8
C7
  10
664.000000
  20
310.000000
  0
VERTEX
  8
C7
  10
662.000000
  20
310.000000
  0
SEQEND
  8
C7
  0
POLYLINE
  8
C7
  66
1
  10
252.000000
  20
302.000000
  0
VERTEX
  8
C7
  10
252.000000
  20
302.000000
  0
VERTEX
  8
C7
  10
252.000000
  20
296.000000
  0
VERTEX
  8
C7
  10
253.000000
  20
296.000000
  0
VERTEX
  8
C7
  10
252.000000
  20
302.000000
  0
SEQEND
  8
C7
  0
POLYLINE
  8
C7
  66
1
  10
531.000000
  20
302.000000
  0
VERTEX
  8
C7
  10
531.000000
  20
302.000000
  0
VERTEX
  8
C7
  10
531.000000
  20
296.000000
  0
VERTEX
  8
C7
  10
532.000000
  20
296.000000
  0
VERTEX
  8
C7
  10
531.000000
  20
302.000000
  0
SEQEND
  8
C7
  0
POLYLINE
  8
C7
  66
1
  10
252.000000
  20
292.000000
  0
VERTEX
  8
C7
  10
252.000000
  20
292.000000
  0
VERTEX
  8
C7
  10
252.000000
  20
287.000000
  0
VERTEX
  8
C7
  10
253.000000
  20
287.000000
  0
VERTEX
  8
C7
  10
252.000000
  20
292.000000
  0
SEQEND
  8
C7
  0
POLYLINE
  8
C7
  66
1
  10
531.000000
  20
292.000000
  0
VERTEX
  8
C7
  10
531.000000
  20
292.000000
  0
VERTEX
  8
C7
  10
531.000000
  20
287.000000
  0
VERTEX
  8
C7
  10
532.000000
  20
287.000000
  0
VERTEX
  8
C7
  10
531.000000
  20
292.000000
  0
SEQEND
  8
C7
  0
POLYLINE
  8
C7
  66
1
  10
252.000000
  20
283.000000
  0
VERTEX
  8
C7
  10
252.000000
  20
283.000000
  0
VERTEX
  8
C7
  10
252.000000
  20
278.000000
  0
VERTEX
  8
C7
  10
253.000000
  20
278.000000
  0
VERTEX
  8
C7
  10
252.000000
  20
283.000000
  0
SEQEND
  8
C7
  0
POLYLINE
  8
C7
  66
1
  10
531.000000
  20
283.000000
  0
VERTEX
  8
C7
  10
531.000000
  20
283.000000
  0
VERTEX
  8
C7
  10
531.000000
  20
278.000000
  0
VERTEX
  8
C7
  10
532.000000
  20
278.000000
  0
VERTEX
  8
C7
  10
531.000000
  20
283.000000
  0
SEQEND
  8
C7
  0
POLYLINE
  8
C7
  66
1
  10
252.000000
  20
274.000000
  0
VERTEX
  8
C7
  10
252.000000
  20
274.000000
  0
VERTEX
  8
C7
  10
252.000000
  20
268.000000
  0
VERTEX
  8
C7
  10
253.000000
  20
268.000000
  0
VERTEX
  8
C7
  10
252.000000
  20
274.000000
  0
SEQEND
  8
C7
  0
POLYLINE
  8
C7
  66
1
  10
531.000000
  20
274.000000
  0
VERTEX
  8
C7
  10
531.000000
  20
274.000000
  0
VERTEX
  8
C7
  10
531.000000
  20
268.000000
  0
VERTEX
  8
C7
  10
532.000000
  20
268.000000
  0
VERTEX
  8
C7
  10
531.000000
  20
274.000000
  0
SEQEND
  8
C7
  0
POLYLINE
  8
C7
  66
1
  10
252.000000
  20
265.000000
  0
VERTEX
  8
C7
  10
252.000000
  20
265.000000
  0
VERTEX
  8
C7
  10
252.000000
  20
259.000000
  0
VERTEX
  8
C7
  10
253.000000
  20
259.000000
  0
VERTEX
  8
C7
  10
252.000000
  20
265.000000
  0
SEQEND
  8
C7
  0
POLYLINE
  8
C7
  66
1
  10
531.000000
  20
265.000000
  0
VERTEX
  8
C7
  10
531.000000
  20
265.000000
  0
VERTEX
  8
C7
  10
531.000000
  20
259.000000
  0
VERTEX
  8
C7
  10
532.000000
  20
259.000000
  0
VERTEX
  8
C7
  10
531.000000
  20
265.000000
  0
SEQEND
  8
C7
  0
POLYLINE
  8
C7
  66
1
  10
252.000000
  20
255.000000
  0
VERTEX
  8
C7
  10
252.000000
  20
255.000000
  0
VERTEX
  8
C7
  10
252.000000
  20
250.000000
  0
VERTEX
  8
C7
  10
253.000000
  20
250.000000
  0
VERTEX
  8
C7
  10
252.000000
  20
255.000000
  0
SEQEND
  8
C7
  0
POLYLINE
  8
C7
  66
1
  10
531.000000
  20
255.000000
  0
VERTEX
  8
C7
  10
531.000000
  20
255.000000
  0
VERTEX
  8
C7
  10
531.000000
  20
250.000000
  0
VERTEX
  8
C7
  10
532.000000
  20
250.000000
  0
VERTEX
  8
C7
  10
531.000000
  20
255.000000
  0
SEQEND
  8
C7
  0
POLYLINE
  8
C7
  66
1
  10
252.000000
  20
246.000000
  0
VERTEX
  8
C7
  10
252.000000
  20
246.000000
  0
VERTEX
  8
C7
  10
252.000000
  20
240.000000
  0
VERTEX
  8
C7
  10
253.000000
  20
240.000000
  0
VERTEX
  8
C7
  10
252.000000
  20
246.000000
  0
SEQEND
  8
C7
  0
POLYLINE
  8
C7
  66
1
  10
531.000000
  20
246.000000
  0
VERTEX
  8
C7
  10
531.000000
  20
246.000000
  0
VERTEX
  8
C7
  10
531.000000
  20
240.000000
  0
VERTEX
  8
C7
  10
532.000000
  20
240.000000
  0
VERTEX
  8
C7
  10
531.000000
  20
246.000000
  0
SEQEND
  8
C7
  0
POLYLINE
  8
C7
  66
1
  10
252.000000
  20
237.000000
  0
VERTEX
  8
C7
  10
252.000000
  20
237.000000
  0
VERTEX
  8
C7
  10
252.000000
  20
231.000000
  0
VERTEX
  8
C7
  10
253.000000
  20
231.000000
  0
VERTEX
  8
C7
  10
252.000000
  20
237.000000
  0
SEQEND
  8
C7
  0
POLYLINE
  8
C7
  66
1
  10
531.000000
  20
237.000000
  0
VERTEX
  8
C7
  10
531.000000
  20
237.000000
  0
VERTEX
  8
C7
  10
531.000000
  20
231.000000
  0
VERTEX
  8
C7
  10
532.000000
  20
231.000000
  0
VERTEX
  8
C7
  10
531.000000
  20
237.000000
  0
SEQEND
  8
C7
  0
POLYLINE
  8
C7
  66
1
  10
252.000000
  20
227.000000
  0
VERTEX
  8
C7
  10
252.000000
  20
227.000000
  0
VERTEX
  8
C7
  10
252.000000
  20
222.000000
  0
VERTEX
  8
C7
  10
253.000000
  20
222.000000
  0
VERTEX
  8
C7
  10
252.000000
  20
227.000000
  0
SEQEND
  8
C7
  0
POLYLINE
  8
C7
  66
1
  10
531.000000
  20
227.000000
  0
VERTEX
  8
C7
  10
531.000000
  20
227.000000
  0
VERTEX
  8
C7
  10
531.000000
  20
222.000000
  0
VERTEX
  8
C7
  10
532.000000
  20
222.000000
  0
VERTEX
  8
C7
  10
531.000000
  20
227.000000
  0
SEQEND
  8
C7
  0
POLYLINE
  8
C7
  66
1
  10
252.000000
  20
218.000000
  0
VERTEX
  8
C7
  10
252.000000
  20
218.000000
  0
VERTEX
  8
C7
  10
251.993100
  20
216.855000
  0
VERTEX
  8
C7
  10
251.995800
  20
215.817400
  0
VERTEX
  8
C7
  10
252.057800
  20
214.890100
  0
VERTEX
  8
C7
  10
252.228900
  20
214.075500
  0
VERTEX
  8
C7
  10
252.558800
  20
213.376600
  0
VERTEX
  8
C7
  10
253.097500
  20
212.795900
  0
VERTEX
  8
C7
  10
253.894600
  20
212.336100
  0
VERTEX
  8
C7
  10
255.000000
  20
212.000000
  0
VERTEX
  8
C7
  10
255.000000
  20
213.000000
  0
VERTEX
  8
C7
  10
252.000000
  20
218.000000
  0
SEQEND
  8
C7
  0
POLYLINE
  8
C7
  66
1
  10
531.000000
  20
218.000000
  0
VERTEX
  8
C7
  10
531.000000
  20
218.000000
  0
VERTEX
  8
C7
  10
529.000000
  20
213.000000
  0
VERTEX
  8
C7
  10
529.000000
  20
212.000000
  0
VERTEX
  8
C7
  10
529.998300
  20
212.302800
  0
VERTEX
  8
C7
  10
530.779300
  20
212.726700
  0
VERTEX
  8
C7
  10
531.352800
  20
213.258900
  0
VERTEX
  8
C7
  10
531.728900
  20
213.886400
  0
VERTEX
  8
C7
  10
531.917600
  20
214.596200
  0
VERTEX
  8
C7
  10
531.929100
  20
215.375400
  0
VERTEX
  8
C7
  10
531.773300
  20
216.211000
  0
VERTEX
  8
C7
  10
531.460200
  20
217.090200
  0
VERTEX
  8
C7
  10
531.000000
  20
218.000000
  0
SEQEND
  8
C7
  0
POLYLINE
  8
C7
  66
1
  10
259.000000
  20
213.000000
  0
VERTEX
  8
C7
  10
259.000000
  20
213.000000
  0
VERTEX
  8
C7
  10
259.000000
  20
212.000000
  0
VERTEX
  8
C7
  10
265.000000
  20
212.000000
  0
VERTEX
  8
C7
  10
259.000000
  20
213.000000
  0
SEQEND
  8
C7
  0
POLYLINE
  8
C7
  66
1
  10
268.000000
  20
213.000000
  0
VERTEX
  8
C7
  10
268.000000
  20
213.000000
  0
VERTEX
  8
C7
  10
268.000000
  20
212.000000
  0
VERTEX
  8
C7
  10
274.000000
  20
212.000000
  0
VERTEX
  8
C7
  10
268.000000
  20
213.000000
  0
SEQEND
  8
C7
  0
POLYLINE
  8
C7
  66
1
  10
278.000000
  20
213.000000
  0
VERTEX
  8
C7
  10
278.000000
  20
213.000000
  0
VERTEX
  8
C7
  10
278.000000
  20
212.000000
  0
VERTEX
  8
C7
  10
283.000000
  20
212.000000
  0
VERTEX
  8
C7
  10
278.000000
  20
213.000000
  0
SEQEND
  8
C7
  0
POLYLINE
  8
C7
  66
1
  10
287.000000
  20
213.000000
  0
VERTEX
  8
C7
  10
287.000000
  20
213.000000
  0
VERTEX
  8
C7
  10
287.000000
  20
212.000000
  0
VERTEX
  8
C7
  10
292.000000
  20
212.000000
  0
VERTEX
  8
C7
  10
287.000000
  20
213.000000
  0
SEQEND
  8
C7
  0
POLYLINE
  8
C7
  66
1
  10
296.000000
  20
213.000000
  0
VERTEX
  8
C7
  10
296.000000
  20
213.000000
  0
VERTEX
  8
C7
  10
296.000000
  20
212.000000
  0
VERTEX
  8
C7
  10
302.000000
  20
212.000000
  0
VERTEX
  8
C7
  10
296.000000
  20
213.000000
  0
SEQEND
  8
C7
  0
POLYLINE
  8
C7
  66
1
  10
305.000000
  20
213.000000
  0
VERTEX
  8
C7
  10
305.000000
  20
213.000000
  0
VERTEX
  8
C7
  10
305.000000
  20
212.000000
  0
VERTEX
  8
C7
  10
311.000000
  20
212.000000
  0
VERTEX
  8
C7
  10
305.000000
  20
213.000000
  0
SEQEND
  8
C7
  0
POLYLINE
  8
C7
  66
1
  10
315.000000
  20
213.000000
  0
VERTEX
  8
C7
  10
315.000000
  20
213.000000
  0
VERTEX
  8
C7
  10
315.000000
  20
212.000000
  0
VERTEX
  8
C7
  10
320.000000
  20
212.000000
  0
VERTEX
  8
C7
  10
315.000000
  20
213.000000
  0
SEQEND
  8
C7
  0
POLYLINE
  8
C7
  66
1
  10
324.000000
  20
213.000000
  0
VERTEX
  8
C7
  10
324.000000
  20
213.000000
  0
VERTEX
  8
C7
  10
324.000000
  20
212.000000
  0
VERTEX
  8
C7
  10
330.000000
  20
212.000000
  0
VERTEX
  8
C7
  10
324.000000
  20
213.000000
  0
SEQEND
  8
C7
  0
POLYLINE
  8
C7
  66
1
  10
333.000000
  20
213.000000
  0
VERTEX
  8
C7
  10
333.000000
  20
213.000000
  0
VERTEX
  8
C7
  10
333.000000
  20
212.000000
  0
VERTEX
  8
C7
  10
339.000000
  20
212.000000
  0
VERTEX
  8
C7
  10
333.000000
  20
213.000000
  0
SEQEND
  8
C7
  0
POLYLINE
  8
C7
  66
1
  10
343.000000
  20
213.000000
  0
VERTEX
  8
C7
  10
343.000000
  20
213.000000
  0
VERTEX
  8
C7
  10
343.000000
  20
212.000000
  0
VERTEX
  8
C7
  10
348.000000
  20
212.000000
  0
VERTEX
  8
C7
  10
343.000000
  20
213.000000
  0
SEQEND
  8
C7
  0
POLYLINE
  8
C7
  66
1
  10
352.000000
  20
213.000000
  0
VERTEX
  8
C7
  10
352.000000
  20
213.000000
  0
VERTEX
  8
C7
  10
352.000000
  20
212.000000
  0
VERTEX
  8
C7
  10
358.000000
  20
212.000000
  0
VERTEX
  8
C7
  10
352.000000
  20
213.000000
  0
SEQEND
  8
C7
  0
POLYLINE
  8
C7
  66
1
  10
361.000000
  20
213.000000
  0
VERTEX
  8
C7
  10
361.000000
  20
213.000000
  0
VERTEX
  8
C7
  10
361.000000
  20
212.000000
  0
VERTEX
  8
C7
  10
367.000000
  20
212.000000
  0
VERTEX
  8
C7
  10
361.000000
  20
213.000000
  0
SEQEND
  8
C7
  0
POLYLINE
  8
C7
  66
1
  10
371.000000
  20
213.000000
  0
VERTEX
  8
C7
  10
371.000000
  20
213.000000
  0
VERTEX
  8
C7
  10
371.000000
  20
212.000000
  0
VERTEX
  8
C7
  10
376.000000
  20
212.000000
  0
VERTEX
  8
C7
  10
371.000000
  20
213.000000
  0
SEQEND
  8
C7
  0
POLYLINE
  8
C7
  66
1
  10
380.000000
  20
213.000000
  0
VERTEX
  8
C7
  10
380.000000
  20
213.000000
  0
VERTEX
  8
C7
  10
380.000000
  20
212.000000
  0
VERTEX
  8
C7
  10
386.000000
  20
212.000000
  0
VERTEX
  8
C7
  10
380.000000
  20
213.000000
  0
SEQEND
  8
C7
  0
POLYLINE
  8
C7
  66
1
  10
389.000000
  20
213.000000
  0
VERTEX
  8
C7
  10
389.000000
  20
213.000000
  0
VERTEX
  8
C7
  10
389.000000
  20
212.000000
  0
VERTEX
  8
C7
  10
395.000000
  20
212.000000
  0
VERTEX
  8
C7
  10
389.000000
  20
213.000000
  0
SEQEND
  8
C7
  0
POLYLINE
  8
C7
  66
1
  10
399.000000
  20
213.000000
  0
VERTEX
  8
C7
  10
399.000000
  20
213.000000
  0
VERTEX
  8
C7
  10
399.000000
  20
212.000000
  0
VERTEX
  8
C7
  10
404.000000
  20
212.000000
  0
VERTEX
  8
C7
  10
399.000000
  20
213.000000
  0
SEQEND
  8
C7
  0
POLYLINE
  8
C7
  66
1
  10
408.000000
  20
213.000000
  0
VERTEX
  8
C7
  10
408.000000
  20
213.000000
  0
VERTEX
  8
C7
  10
408.000000
  20
212.000000
  0
VERTEX
  8
C7
  10
413.000000
  20
212.000000
  0
VERTEX
  8
C7
  10
408.000000
  20
213.000000
  0
SEQEND
  8
C7
  0
POLYLINE
  8
C7
  66
1
  10
417.000000
  20
213.000000
  0
VERTEX
  8
C7
  10
417.000000
  20
213.000000
  0
VERTEX
  8
C7
  10
417.000000
  20
212.000000
  0
VERTEX
  8
C7
  10
423.000000
  20
212.000000
  0
VERTEX
  8
C7
  10
417.000000
  20
213.000000
  0
SEQEND
  8
C7
  0
POLYLINE
  8
C7
  66
1
  10
426.000000
  20
213.000000
  0
VERTEX
  8
C7
  10
426.000000
  20
213.000000
  0
VERTEX
  8
C7
  10
426.000000
  20
212.000000
  0
VERTEX
  8
C7
  10
432.000000
  20
212.000000
  0
VERTEX
  8
C7
  10
426.000000
  20
213.000000
  0
SEQEND
  8
C7
  0
POLYLINE
  8
C7
  66
1
  10
436.000000
  20
213.000000
  0
VERTEX
  8
C7
  10
436.000000
  20
213.000000
  0
VERTEX
  8
C7
  10
436.000000
  20
212.000000
  0
VERTEX
  8
C7
  10
441.000000
  20
212.000000
  0
VERTEX
  8
C7
  10
436.000000
  20
213.000000
  0
SEQEND
  8
C7
  0
POLYLINE
  8
C7
  66
1
  10
445.000000
  20
213.000000
  0
VERTEX
  8
C7
  10
445.000000
  20
213.000000
  0
VERTEX
  8
C7
  10
445.000000
  20
212.000000
  0
VERTEX
  8
C7
  10
451.000000
  20
212.000000
  0
VERTEX
  8
C7
  10
445.000000
  20
213.000000
  0
SEQEND
  8
C7
  0
POLYLINE
  8
C7
  66
1
  10
454.000000
  20
213.000000
  0
VERTEX
  8
C7
  10
454.000000
  20
213.000000
  0
VERTEX
  8
C7
  10
454.000000
  20
212.000000
  0
VERTEX
  8
C7
  10
460.000000
  20
212.000000
  0
VERTEX
  8
C7
  10
454.000000
  20
213.000000
  0
SEQEND
  8
C7
  0
POLYLINE
  8
C7
  66
1
  10
464.000000
  20
213.000000
  0
VERTEX
  8
C7
  10
464.000000
  20
213.000000
  0
VERTEX
  8
C7
  10
464.000000
  20
212.000000
  0
VERTEX
  8
C7
  10
469.000000
  20
212.000000
  0
VERTEX
  8
C7
  10
464.000000
  20
213.000000
  0
SEQEND
  8
C7
  0
POLYLINE
  8
C7
  66
1
  10
473.000000
  20
213.000000
  0
VERTEX
  8
C7
  10
473.000000
  20
213.000000
  0
VERTEX
  8
C7
  10
473.000000
  20
212.000000
  0
VERTEX
  8
C7
  10
479.000000
  20
212.000000
  0
VERTEX
  8
C7
  10
473.000000
  20
213.000000
  0
SEQEND
  8
C7
  0
POLYLINE
  8
C7
  66
1
  10
482.000000
  20
213.000000
  0
VERTEX
  8
C7
  10
482.000000
  20
213.000000
  0
VERTEX
  8
C7
  10
482.000000
  20
212.000000
  0
VERTEX
  8
C7
  10
487.000000
  20
212.000000
  0
VERTEX
  8
C7
  10
482.000000
  20
213.000000
  0
SEQEND
  8
C7
  0
POLYLINE
  8
C7
  66
1
  10
492.000000
  20
213.000000
  0
VERTEX
  8
C7
  10
492.000000
  20
213.000000
  0
VERTEX
  8
C7
  10
492.000000
  20
212.000000
  0
VERTEX
  8
C7
  10
497.000000
  20
212.000000
  0
VERTEX
  8
C7
  10
492.000000
  20
213.000000
  0
SEQEND
  8
C7
  0
POLYLINE
  8
C7
  66
1
  10
501.000000
  20
213.000000
  0
VERTEX
  8
C7
  10
501.000000
  20
213.000000
  0
VERTEX
  8
C7
  10
501.000000
  20
212.000000
  0
VERTEX
  8
C7
  10
507.000000
  20
212.000000
  0
VERTEX
  8
C7
  10
501.000000
  20
213.000000
  0
SEQEND
  8
C7
  0
POLYLINE
  8
C7
  66
1
  10
510.000000
  20
213.000000
  0
VERTEX
  8
C7
  10
510.000000
  20
213.000000
  0
VERTEX
  8
C7
  10
510.000000
  20
212.000000
  0
VERTEX
  8
C7
  10
516.000000
  20
212.000000
  0
VERTEX
  8
C7
  10
510.000000
  20
213.000000
  0
SEQEND
  8
C7
  0
POLYLINE
  8
C7
  66
1
  10
520.000000
  20
213.000000
  0
VERTEX
  8
C7
  10
520.000000
  20
213.000000
  0
VERTEX
  8
C7
  10
520.000000
  20
212.000000
  0
VERTEX
  8
C7
  10
525.000000
  20
212.000000
  0
VERTEX
  8
C7
  10
520.000000
  20
213.000000
  0
SEQEND
  8
C7
  0
POLYLINE
  8
C7
  66
1
  10
581.000000
  20
177.000000
  0
VERTEX
  8
C7
  10
581.000000
  20
177.000000
  0
VERTEX
  8
C7
  10
581.000000
  20
92.000000
  0
VERTEX
  8
C7
  10
568.000000
  20
94.000000
  0
VERTEX
  8
C7
  10
567.382400
  20
93.571100
  0
VERTEX
  8
C7
  10
566.716700
  20
93.181300
  0
VERTEX
  8
C7
  10
566.005400
  20
92.829000
  0
VERTEX
  8
C7
  10
565.251100
  20
92.512600
  0
VERTEX
  8
C7
  10
564.456300
  20
92.230600
  0
VERTEX
  8
C7
  10
563.623800
  20
91.981400
  0
VERTEX
  8
C7
  10
562.756100
  20
91.763400
  0
VERTEX
  8
C7
  10
561.855900
  20
91.575100
  0
VERTEX
  8
C7
  10
560.925600
  20
91.414900
  0
VERTEX
  8
C7
  10
559.968000
  20
91.281200
  0
VERTEX
  8
C7
  10
558.985600
  20
91.172500
  0
VERTEX
  8
C7
  10
557.981100
  20
91.087300
  0
VERTEX
  8
C7
  10
556.957000
  20
91.023800
  0
VERTEX
  8
C7
  10
555.916000
  20
90.980700
  0
VERTEX
  8
C7
  10
554.860600
  20
90.956300
  0
VERTEX
  8
C7
  10
553.793500
  20
90.949100
  0
VERTEX
  8
C7
  10
552.717300
  20
90.957500
  0
VERTEX
  8
C7
  10
551.634500
  20
90.979900
  0
VERTEX
  8
C7
  10
550.547900
  20
91.014700
  0
VERTEX
  8
C7
  10
549.459900
  20
91.060500
  0
VERTEX
  8
C7
  10
548.373200
  20
91.115600
  0
VERTEX
  8
C7
  10
547.290400
  20
91.178500
  0
VERTEX
  8
C7
  10
546.214100
  20
91.247600
  0
VERTEX
  8
C7
  10
545.146900
  20
91.321400
  0
VERTEX
  8
C7
  10
544.091500
  20
91.398200
  0
VERTEX
  8
C7
  10
543.050400
  20
91.476600
  0
VERTEX
  8
C7
  10
542.026100
  20
91.554900
  0
VERTEX
  8
C7
  10
541.021500
  20
91.631600
  0
VERTEX
  8
C7
  10
540.038900
  20
91.705200
  0
VERTEX
  8
C7
  10
539.081100
  20
91.774000
  0
VERTEX
  8
C7
  10
538.150700
  20
91.836500
  0
VERTEX
  8
C7
  10
537.250200
  20
91.891200
  0
VERTEX
  8
C7
  10
536.382300
  20
91.936400
  0
VERTEX
  8
C7
  10
535.549500
  20
91.970700
  0
VERTEX
  8
C7
  10
534.754600
  20
91.992400
  0
VERTEX
  8
C7
  10
534.000000
  20
92.000000
  0
VERTEX
  8
C7
  10
445.000000
  20
92.000000
  0
VERTEX
  8
C7
  10
445.000000
  20
91.000000
  0
VERTEX
  8
C7
  10
537.000000
  20
91.000000
  0
VERTEX
  8
C7
  10
537.660300
  20
91.008300
  0
VERTEX
  8
C7
  10
538.382000
  20
91.032200
  0
VERTEX
  8
C7
  10
539.160600
  20
91.069500
  0
VERTEX
  8
C7
  10
539.991800
  20
91.118300
  0
VERTEX
  8
C7
  10
540.871300
  20
91.176500
  0
VERTEX
  8
C7
  10
541.794800
  20
91.242200
  0
VERTEX
  8
C7
  10
542.758000
  20
91.313400
  0
VERTEX
  8
C7
  10
543.756600
  20
91.388000
  0
VERTEX
  8
C7
  10
544.786200
  20
91.464100
  0
VERTEX
  8
C7
  10
545.842600
  20
91.539700
  0
VERTEX
  8
C7
  10
546.921400
  20
91.612800
  0
VERTEX
  8
C7
  10
548.018200
  20
91.681300
  0
VERTEX
  8
C7
  10
549.128900
  20
91.743300
  0
VERTEX
  8
C7
  10
550.249100
  20
91.796800
  0
VERTEX
  8
C7
  10
551.374400
  20
91.839700
  0
VERTEX
  8
C7
  10
552.500600
  20
91.870200
  0
VERTEX
  8
C7
  10
553.623400
  20
91.886100
  0
VERTEX
  8
C7
  10
554.738300
  20
91.885500
  0
VERTEX
  8
C7
  10
555.841200
  20
91.866400
  0
VERTEX
  8
C7
  10
556.927700
  20
91.826800
  0
VERTEX
  8
C7
  10
557.993400
  20
91.764700
  0
VERTEX
  8
C7
  10
559.034100
  20
91.678100
  0
VERTEX
  8
C7
  10
560.045500
  20
91.565000
  0
VERTEX
  8
C7
  10
561.023200
  20
91.423400
  0
VERTEX
  8
C7
  10
561.963000
  20
91.251300
  0
VERTEX
  8
C7
  10
562.860400
  20
91.046600
  0
VERTEX
  8
C7
  10
563.711300
  20
90.807500
  0
VERTEX
  8
C7
  10
564.511200
  20
90.531900
  0
VERTEX
  8
C7
  10
565.255900
  20
90.217800
  0
VERTEX
  8
C7
  10
565.941100
  20
89.863200
  0
VERTEX
  8
C7
  10
566.562400
  20
89.466100
  0
VERTEX
  8
C7
  10
567.115500
  20
89.024600
  0
VERTEX
  8
C7
  10
567.596100
  20
88.536500
  0
VERTEX
  8
C7
  10
568.000000
  20
88.000000
  0
VERTEX
  8
C7
  10
581.000000
  20
90.000000
  0
VERTEX
  8
C7
  10
581.000000
  20
86.000000
  0
VERTEX
  8
C7
  10
582.000000
  20
86.000000
  0
VERTEX
  8
C7
  10
582.000000
  20
149.000000
  0
VERTEX
  8
C7
  10
581.000000
  20
177.000000
  0
SEQEND
  8
C7
  0
POLYLINE
  8
C7
  66
1
  10
318.000000
  20
134.000000
  0
VERTEX
  8
C7
  10
318.000000
  20
134.000000
  0
VERTEX
  8
C7
  10
321.000000
  20
135.000000
  0
VERTEX
  8
C7
  10
321.000000
  20
126.000000
  0
VERTEX
  8
C7
  10
324.000000
  20
126.000000
  0
VERTEX
  8
C7
  10
324.000000
  20
140.000000
  0
VERTEX
  8
C7
  10
318.000000
  20
134.000000
  0
SEQEND
  8
C7
  0
POLYLINE
  8
C7
  66
1
  10
327.000000
  20
140.000000
  0
VERTEX
  8
C7
  10
327.000000
  20
140.000000
  0
VERTEX
  8
C7
  10
327.000000
  20
137.000000
  0
VERTEX
  8
C7
  10
332.000000
  20
137.000000
  0
VERTEX
  8
C7
  10
329.000000
  20
126.000000
  0
VERTEX
  8
C7
  10
336.000000
  20
140.000000
  0
VERTEX
  8
C7
  10
327.000000
  20
140.000000
  0
SEQEND
  8
C7
  0
POLYLINE
  8
C7
  66
1
  10
343.000000
  20
134.000000
  0
VERTEX
  8
C7
  10
343.000000
  20
134.000000
  0
VERTEX
  8
C7
  10
346.000000
  20
135.000000
  0
VERTEX
  8
C7
  10
346.000000
  20
126.000000
  0
VERTEX
  8
C7
  10
349.000000
  20
126.000000
  0
VERTEX
  8
C7
  10
349.000000
  20
140.000000
  0
VERTEX
  8
C7
  10
343.000000
  20
134.000000
  0
SEQEND
  8
C7
  0
POLYLINE
  8
C7
  66
1
  10
353.000000
  20
134.000000
  0
VERTEX
  8
C7
  10
353.000000
  20
134.000000
  0
VERTEX
  8
C7
  10
357.000000
  20
135.000000
  0
VERTEX
  8
C7
  10
357.000000
  20
126.000000
  0
VERTEX
  8
C7
  10
359.000000
  20
126.000000
  0
VERTEX
  8
C7
  10
359.000000
  20
140.000000
  0
VERTEX
  8
C7
  10
353.000000
  20
134.000000
  0
SEQEND
  8
C7
  0
POLYLINE
  8
C7
  66
1
  10
365.000000
  20
140.000000
  0
VERTEX
  8
C7
  10
365.000000
  20
140.000000
  0
VERTEX
  8
C7
  10
361.000000
  20
125.000000
  0
VERTEX
  8
C7
  10
361.817700
  20
125.316000
  0
VERTEX
  8
C7
  10
362.557100
  20
125.754500
  0
VERTEX
  8
C7
  10
363.222000
  20
126.303800
  0
VERTEX
  8
C7
  10
363.816600
  20
126.952400
  0
VERTEX
  8
C7
  10
364.344800
  20
127.688800
  0
VERTEX
  8
C7
  10
364.810600
  20
128.501400
  0
VERTEX
  8
C7
  10
365.218200
  20
129.378700
  0
VERTEX
  8
C7
  10
365.571400
  20
130.309200
  0
VERTEX
  8
C7
  10
365.874300
  20
131.281300
  0
VERTEX
  8
C7
  10
366.130900
  20
132.283500
  0
VERTEX
  8
C7
  10
366.345300
  20
133.304200
  0
VERTEX
  8
C7
  10
366.521400
  20
134.332000
  0
VERTEX
  8
C7
  10
366.663300
  20
135.355200
  0
VERTEX
  8
C7
  10
366.775000
  20
136.362400
  0
VERTEX
  8
C7
  10
366.860500
  20
137.342000
  0
VERTEX
  8
C7
  10
366.923800
  20
138.282500
  0
VERTEX
  8
C7
  10
366.968900
  20
139.172300
  0
VERTEX
  8
C7
  10
367.000000
  20
140.000000
  0
VERTEX
  8
C7
  10
365.000000
  20
140.000000
  0
SEQEND
  8
C7
  0
POLYLINE
  8
C7
  66
1
  10
369.000000
  20
134.000000
  0
VERTEX
  8
C7
  10
369.000000
  20
134.000000
  0
VERTEX
  8
C7
  10
372.000000
  20
135.000000
  0
VERTEX
  8
C7
  10
372.000000
  20
126.000000
  0
VERTEX
  8
C7
  10
374.000000
  20
126.000000
  0
VERTEX
  8
C7
  10
374.000000
  20
140.000000
  0
VERTEX
  8
C7
  10
369.000000
  20
134.000000
  0
SEQEND
  8
C7
  0
POLYLINE
  8
C7
  66
1
  10
380.000000
  20
135.000000
  0
VERTEX
  8
C7
  10
380.000000
  20
135.000000
  0
VERTEX
  8
C7
  10
380.000000
  20
136.000000
  0
VERTEX
  8
C7
  10
390.000000
  20
134.000000
  0
VERTEX
  8
C7
  10
390.000000
  20
140.000000
  0
VERTEX
  8
C7
  10
387.000000
  20
137.000000
  0
VERTEX
  8
C7
  10
386.302700
  20
137.601200
  0
VERTEX
  8
C7
  10
385.614400
  20
138.091200
  0
VERTEX
  8
C7
  10
384.937100
  20
138.475100
  0
VERTEX
  8
C7
  10
384.273000
  20
138.758300
  0
VERTEX
  8
C7
  10
383.624000
  20
138.945800
  0
VERTEX
  8
C7
  10
382.992200
  20
139.043100
  0
VERTEX
  8
C7
  10
382.379800
  20
139.055300
  0
VERTEX
  8
C7
  10
381.788800
  20
138.987600
  0
VERTEX
  8
C7
  10
381.221300
  20
138.845300
  0
VERTEX
  8
C7
  10
380.679300
  20
138.633600
  0
VERTEX
  8
C7
  10
380.165100
  20
138.357900
  0
VERTEX
  8
C7
  10
379.680500
  20
138.023200
  0
VERTEX
  8
C7
  10
379.227800
  20
137.634900
  0
VERTEX
  8
C7
  10
378.808900
  20
137.198100
  0
VERTEX
  8
C7
  10
378.426000
  20
136.718300
  0
VERTEX
  8
C7
  10
378.081100
  20
136.200400
  0
VERTEX
  8
C7
  10
377.776400
  20
135.649900
  0
VERTEX
  8
C7
  10
377.513900
  20
135.072000
  0
VERTEX
  8
C7
  10
377.295600
  20
134.471800
  0
VERTEX
  8
C7
  10
377.123700
  20
133.854700
  0
VERTEX
  8
C7
  10
377.000200
  20
133.225800
  0
VERTEX
  8
C7
  10
376.927300
  20
132.590400
  0
VERTEX
  8
C7
  10
376.906900
  20
131.953800
  0
VERTEX
  8
C7
  10
376.941300
  20
131.321200
  0
VERTEX
  8
C7
  10
377.032300
  20
130.697800
  0
VERTEX
  8
C7
  10
377.182300
  20
130.088800
  0
VERTEX
  8
C7
  10
377.393100
  20
129.499600
  0
VERTEX
  8
C7
  10
377.666900
  20
128.935300
  0
VERTEX
  8
C7
  10
378.005700
  20
128.401200
  0
VERTEX
  8
C7
  10
378.411800
  20
127.902500
  0
VERTEX
  8
C7
  10
378.887000
  20
127.444500
  0
VERTEX
  8
C7
  10
379.433600
  20
127.032400
  0
VERTEX
  8
C7
  10
380.041600
  20
126.678100
  0
VERTEX
  8
C7
  10
380.639100
  20
126.425000
  0
VERTEX
  8
C7
  10
381.222700
  20
126.266800
  0
VERTEX
  8
C7
  10
381.788700
  20
126.197200
  0
VERTEX
  8
C7
  10
382.333600
  20
126.210000
  0
VERTEX
  8
C7
  10
382.854100
  20
126.299000
  0
VERTEX
  8
C7
  10
383.346500
  20
126.457800
  0
VERTEX
  8
C7
  10
383.807400
  20
126.680300
  0
VERTEX
  8
C7
  10
384.233300
  20
126.960200
  0
VERTEX
  8
C7
  10
384.620700
  20
127.291300
  0
VERTEX
  8
C7
  10
384.966000
  20
127.667300
  0
VERTEX
  8
C7
  10
385.265700
  20
128.082000
  0
VERTEX
  8
C7
  10
385.516400
  20
128.529100
  0
VERTEX
  8
C7
  10
385.714600
  20
129.002500
  0
VERTEX
  8
C7
  10
385.856800
  20
129.495800
  0
VERTEX
  8
C7
  10
385.939300
  20
130.002700
  0
VERTEX
  8
C7
  10
385.958900
  20
130.517200
  0
VERTEX
  8
C7
  10
385.911800
  20
131.032900
  0
VERTEX
  8
C7
  10
385.794700
  20
131.543500
  0
VERTEX
  8
C7
  10
385.604100
  20
132.042900
  0
VERTEX
  8
C7
  10
385.336400
  20
132.524700
  0
VERTEX
  8
C7
  10
384.988100
  20
132.982800
  0
VERTEX
  8
C7
  10
384.555700
  20
133.411000
  0
VERTEX
  8
C7
  10
384.035800
  20
133.802800
  0
VERTEX
  8
C7
  10
383.424800
  20
134.152200
  0
VERTEX
  8
C7
  10
382.719200
  20
134.452800
  0
VERTEX
  8
C7
  10
381.915500
  20
134.698500
  0
VERTEX
  8
C7
  10
381.010300
  20
134.883000
  0
VERTEX
  8
C7
  10
380.000000
  20
135.000000
  0
SEQEND
  8
C7
  0
POLYLINE
  8
C7
  66
1
  10
391.000000
  20
140.000000
  0
VERTEX
  8
C7
  10
391.000000
  20
140.000000
  0
VERTEX
  8
C7
  10
391.000000
  20
134.000000
  0
VERTEX
  8
C7
  10
393.000000
  20
134.000000
  0
VERTEX
  8
C7
  10
393.000000
  20
140.000000
  0
VERTEX
  8
C7
  10
391.000000
  20
140.000000
  0
SEQEND
  8
C7
  0
POLYLINE
  8
C7
  66
1
  10
397.000000
  20
140.000000
  0
VERTEX
  8
C7
  10
397.000000
  20
140.000000
  0
VERTEX
  8
C7
  10
396.645500
  20
139.175800
  0
VERTEX
  8
C7
  10
396.303800
  20
138.329300
  0
VERTEX
  8
C7
  10
395.979200
  20
137.464100
  0
VERTEX
  8
C7
  10
395.676400
  20
136.583500
  0
VERTEX
  8
C7
  10
395.399600
  20
135.691000
  0
VERTEX
  8
C7
  10
395.153400
  20
134.789900
  0
VERTEX
  8
C7
  10
394.942200
  20
133.883700
  0
VERTEX
  8
C7
  10
394.770500
  20
132.975800
  0
VERTEX
  8
C7
  10
394.642600
  20
132.069500
  0
VERTEX
  8
C7
  10
394.563100
  20
131.168500
  0
VERTEX
  8
C7
  10
394.536400
  20
130.275900
  0
VERTEX
  8
C7
  10
394.567000
  20
129.395400
  0
VERTEX
  8
C7
  10
394.659200
  20
128.530200
  0
VERTEX
  8
C7
  10
394.817600
  20
127.683800
  0
VERTEX
  8
C7
  10
395.046600
  20
126.859700
  0
VERTEX
  8
C7
  10
395.350600
  20
126.061200
  0
VERTEX
  8
C7
  10
395.734200
  20
125.291700
  0
VERTEX
  8
C7
  10
396.201600
  20
124.554700
  0
VERTEX
  8
C7
  10
396.757500
  20
123.853600
  0
VERTEX
  8
C7
  10
397.406200
  20
123.191900
  0
VERTEX
  8
C7
  10
398.152200
  20
122.572800
  0
VERTEX
  8
C7
  10
399.000000
  20
122.000000
  0
VERTEX
  8
C7
  10
399.000000
  20
140.000000
  0
VERTEX
  8
C7
  10
397.000000
  20
140.000000
  0
SEQEND
  8
C7
  0
POLYLINE
  8
C7
  66
1
  10
399.000000
  20
129.000000
  0
VERTEX
  8
C7
  10
399.000000
  20
129.000000
  0
VERTEX
  8
C7
  10
405.000000
  20
126.000000
  0
VERTEX
  8
C7
  10
408.000000
  20
126.000000
  0
VERTEX
  8
C7
  10
408.000000
  20
140.000000
  0
VERTEX
  8
C7
  10
407.026600
  20
139.649900
  0
VERTEX
  8
C7
  10
406.119800
  20
139.222900
  0
VERTEX
  8
C7
  10
405.276700
  20
138.724200
  0
VERTEX
  8
C7
  10
404.494100
  20
138.158800
  0
VERTEX
  8
C7
  10
403.768900
  20
137.531800
  0
VERTEX
  8
C7
  10
403.098100
  20
136.848300
  0
VERTEX
  8
C7
  10
402.478600
  20
136.113500
  0
VERTEX
  8
C7
  10
401.907300
  20
135.332500
  0
VERTEX
  8
C7
  10
401.381100
  20
134.510400
  0
VERTEX
  8
C7
  10
400.897000
  20
133.652200
  0
VERTEX
  8
C7
  10
400.451900
  20
132.763100
  0
VERTEX
  8
C7
  10
400.042700
  20
131.848300
  0
VERTEX
  8
C7
  10
399.666400
  20
130.912700
  0
VERTEX
  8
C7
  10
399.319800
  20
129.961600
  0
VERTEX
  8
C7
  10
399.000000
  20
129.000000
  0
SEQEND
  8
C7
  0
POLYLINE
  8
C7
  66
1
  10
410.000000
  20
132.000000
  0
VERTEX
  8
C7
  10
410.000000
  20
132.000000
  0
VERTEX
  8
C7
  10
416.000000
  20
133.000000
  0
VERTEX
  8
C7
  10
416.000000
  20
128.000000
  0
VERTEX
  8
C7
  10
410.000000
  20
130.000000
  0
VERTEX
  8
C7
  10
410.539400
  20
129.131600
  0
VERTEX
  8
C7
  10
411.137500
  20
128.370000
  0
VERTEX
  8
C7
  10
411.785300
  20
127.722000
  0
VERTEX
  8
C7
  10
412.473700
  20
127.194500
  0
VERTEX
  8
C7
  10
413.193600
  20
126.794300
  0
VERTEX
  8
C7
  10
413.936000
  20
126.528300
  0
VERTEX
  8
C7
  10
414.691700
  20
126.403400
  0
VERTEX
  8
C7
  10
415.451800
  20
126.426400
  0
VERTEX
  8
C7
  10
416.207200
  20
126.604100
  0
VERTEX
  8
C7
  10
416.948700
  20
126.943500
  0
VERTEX
  8
C7
  10
417.667400
  20
127.451400
  0
VERTEX
  8
C7
  10
418.354200
  20
128.134600
  0
VERTEX
  8
C7
  10
419.000000
  20
129.000000
  0
VERTEX
  8
C7
  10
421.000000
  20
129.000000
  0
VERTEX
  8
C7
  10
421.588800
  20
128.202300
  0
VERTEX
  8
C7
  10
422.209500
  20
127.562100
  0
VERTEX
  8
C7
  10
422.853800
  20
127.072300
  0
VERTEX
  8
C7
  10
423.513500
  20
126.725900
  0
VERTEX
  8
C7
  10
424.180100
  20
126.515800
  0
VERTEX
  8
C7
  10
424.845500
  20
126.435100
  0
VERTEX
  8
C7
  10
425.501400
  20
126.476700
  0
VERTEX
  8
C7
  10
426.139400
  20
126.633700
  0
VERTEX
  8
C7
  10
426.751400
  20
126.898900
  0
VERTEX
  8
C7
  10
427.328900
  20
127.265300
  0
VERTEX
  8
C7
  10
427.863800
  20
127.726100
  0
VERTEX
  8
C7
  10
428.347600
  20
128.274000
  0
VERTEX
  8
C7
  10
428.772300
  20
128.902100
  0
VERTEX
  8
C7
  10
429.129400
  20
129.603400
  0
VERTEX
  8
C7
  10
429.410700
  20
130.370900
  0
VERTEX
  8
C7
  10
429.607800
  20
131.197500
  0
VERTEX
  8
C7
  10
429.712600
  20
132.076200
  0
VERTEX
  8
C7
  10
429.716800
  20
133.000000
  0
VERTEX
  8
C7
  10
429.626300
  20
134.022400
  0
VERTEX
  8
C7
  10
429.469900
  20
134.942800
  0
VERTEX
  8
C7
  10
429.253100
  20
135.763200
  0
VERTEX
  8
C7
  10
428.981200
  20
136.485700
  0
VERTEX
  8
C7
  10
428.659600
  20
137.112700
  0
VERTEX
  8
C7
  10
428.293800
  20
137.646100
  0
VERTEX
  8
C7
  10
427.889100
  20
138.088200
  0
VERTEX
  8
C7
  10
427.451000
  20
138.441100
  0
VERTEX
  8
C7
  10
426.984800
  20
138.706900
  0
VERTEX
  8
C7
  10
426.495900
  20
138.887900
  0
VERTEX
  8
C7
  10
425.989800
  20
138.986200
  0
VERTEX
  8
C7
  10
425.471800
  20
139.003900
  0
VERTEX
  8
C7
  10
424.947400
  20
138.943200
  0
VERTEX
  8
C7
  10
424.421900
  20
138.806200
  0
VERTEX
  8
C7
  10
423.900800
  20
138.595200
  0
VERTEX
  8
C7
  10
423.389400
  20
138.312200
  0
VERTEX
  8
C7
  10
422.893200
  20
137.959400
  0
VERTEX
  8
C7
  10
422.417500
  20
137.539000
  0
VERTEX
  8
C7
  10
421.967700
  20
137.053200
  0
VERTEX
  8
C7
  10
421.549400
  20
136.504000
  0
VERTEX
  8
C7
  10
421.167700
  20
135.893600
  0
VERTEX
  8
C7
  10
420.828300
  20
135.224300
  0
VERTEX
  8
C7
  10
420.536300
  20
134.498100
  0
VERTEX
  8
C7
  10
420.297400
  20
133.717200
  0
VERTEX
  8
C7
  10
420.116800
  20
132.883800
  0
VERTEX
  8
C7
  10
420.000000
  20
132.000000
  0
VERTEX
  8
C7
  10
419.000000
  20
132.000000
  0
VERTEX
  8
C7
  10
414.000000
  20
135.000000
  0
VERTEX
  8
C7
  10
414.000000
  20
137.000000
  0
VERTEX
  8
C7
  10
419.000000
  20
137.000000
  0
VERTEX
  8
C7
  10
419.000000
  20
140.000000
  0
VERTEX
  8
C7
  10
417.710000
  20
139.956200
  0
VERTEX
  8
C7
  10
416.560900
  20
139.853600
  0
VERTEX
  8
C7
  10
415.542400
  20
139.686500
  0
VERTEX
  8
C7
  10
414.644100
  20
139.449400
  0
VERTEX
  8
C7
  10
413.855600
  20
139.136700
  0
VERTEX
  8
C7
  10
413.166700
  20
138.742800
  0
VERTEX
  8
C7
  10
412.567100
  20
138.262100
  0
VERTEX
  8
C7
  10
412.046300
  20
137.689200
  0
VERTEX
  8
C7
  10
411.594100
  20
137.018300
  0
VERTEX
  8
C7
  10
411.200200
  20
136.243900
  0
VERTEX
  8
C7
  10
410.854100
  20
135.360400
  0
VERTEX
  8
C7
  10
410.545600
  20
134.362400
  0
VERTEX
  8
C7
  10
410.264300
  20
133.244100
  0
VERTEX
  8
C7
  10
410.000000
  20
132.000000
  0
SEQEND
  8
C7
  0
POLYLINE
  8
C7
  66
1
  10
461.000000
  20
140.000000
  0
VERTEX
  8
C7
  10
461.000000
  20
140.000000
  0
VERTEX
  8
C7
  10
461.000000
  20
122.000000
  0
VERTEX
  8
C7
  10
461.741700
  20
122.478800
  0
VERTEX
  8
C7
  10
462.423000
  20
123.019100
  0
VERTEX
  8
C7
  10
463.043700
  20
123.615400
  0
VERTEX
  8
C7
  10
463.603600
  20
124.262500
  0
VERTEX
  8
C7
  10
464.102500
  20
124.954800
  0
VERTEX
  8
C7
  10
464.540300
  20
125.686900
  0
VERTEX
  8
C7
  10
464.916700
  20
126.453600
  0
VERTEX
  8
C7
  10
465.231600
  20
127.249300
  0
VERTEX
  8
C7
  10
465.484900
  20
128.068800
  0
VERTEX
  8
C7
  10
465.676200
  20
128.906500
  0
VERTEX
  8
C7
  10
465.805500
  20
129.757200
  0
VERTEX
  8
C7
  10
465.872600
  20
130.615300
  0
VERTEX
  8
C7
  10
465.877300
  20
131.475600
  0
VERTEX
  8
C7
  10
465.819300
  20
132.332600
  0
VERTEX
  8
C7
  10
465.698700
  20
133.180900
  0
VERTEX
  8
C7
  10
465.515000
  20
134.015100
  0
VERTEX
  8
C7
  10
465.268200
  20
134.829900
  0
VERTEX
  8
C7
  10
464.958200
  20
135.619800
  0
VERTEX
  8
C7
  10
464.584600
  20
136.379400
  0
VERTEX
  8
C7
  10
464.147400
  20
137.103400
  0
VERTEX
  8
C7
  10
463.646300
  20
137.786400
  0
VERTEX
  8
C7
  10
463.081200
  20
138.422900
  0
VERTEX
  8
C7
  10
462.451900
  20
139.007600
  0
VERTEX
  8
C7
  10
461.758200
  20
139.535100
  0
VERTEX
  8
C7
  10
461.000000
  20
140.000000
  0
SEQEND
  8
C7
  0
POLYLINE
  8
C7
  66
1
  10
424.000000
  20
137.000000
  0
VERTEX
  8
C7
  10
424.000000
  20
137.000000
  0
VERTEX
  8
C7
  10
424.000000
  20
128.000000
  0
VERTEX
  8
C7
  10
426.000000
  20
128.000000
  0
VERTEX
  8
C7
  10
426.000000
  20
137.000000
  0
VERTEX
  8
C7
  10
424.000000
  20
137.000000
  0
SEQEND
  8
C7
  0
POLYLINE
  8
C7
  66
1
  10
431.000000
  20
136.000000
  0
VERTEX
  8
C7
  10
431.000000
  20
136.000000
  0
VERTEX
  8
C7
  10
431.000000
  20
126.000000
  0
VERTEX
  8
C7
  10
433.000000
  20
126.000000
  0
VERTEX
  8
C7
  10
436.000000
  20
134.000000
  0
VERTEX
  8
C7
  10
436.000000
  20
126.000000
  0
VERTEX
  8
C7
  10
439.000000
  20
126.000000
  0
VERTEX
  8
C7
  10
440.000000
  20
134.000000
  0
VERTEX
  8
C7
  10
441.000000
  20
134.000000
  0
VERTEX
  8
C7
  10
442.000000
  20
126.000000
  0
VERTEX
  8
C7
  10
444.000000
  20
126.000000
  0
VERTEX
  8
C7
  10
444.032300
  20
127.276300
  0
VERTEX
  8
C7
  10
444.021700
  20
128.439700
  0
VERTEX
  8
C7
  10
443.967200
  20
129.495200
  0
VERTEX
  8
C7
  10
443.867900
  20
130.448100
  0
VERTEX
  8
C7
  10
443.722800
  20
131.303600
  0
VERTEX
  8
C7
  10
443.531000
  20
132.066900
  0
VERTEX
  8
C7
  10
443.291400
  20
132.743300
  0
VERTEX
  8
C7
  10
443.003300
  20
133.338000
  0
VERTEX
  8
C7
  10
442.665500
  20
133.856100
  0
VERTEX
  8
C7
  10
442.277200
  20
134.303000
  0
VERTEX
  8
C7
  10
441.837400
  20
134.683900
  0
VERTEX
  8
C7
  10
441.345100
  20
135.003900
  0
VERTEX
  8
C7
  10
440.799500
  20
135.268300
  0
VERTEX
  8
C7
  10
440.199400
  20
135.482300
  0
VERTEX
  8
C7
  10
439.544100
  20
135.651200
  0
VERTEX
  8
C7
  10
438.832500
  20
135.780100
  0
VERTEX
  8
C7
  10
438.063700
  20
135.874200
  0
VERTEX
  8
C7
  10
437.236700
  20
135.938900
  0
VERTEX
  8
C7
  10
436.350600
  20
135.979300
  0
VERTEX
  8
C7
  10
435.404400
  20
136.000700
  0
VERTEX
  8
C7
  10
434.397200
  20
136.008200
  0
VERTEX
  8
C7
  10
433.328000
  20
136.007100
  0
VERTEX
  8
C7
  10
432.195900
  20
136.002600
  0
VERTEX
  8
C7
  10
431.000000
  20
136.000000
  0
SEQEND
  8
C7
  0
POLYLINE
  8
C7
  66
1
  10
446.000000
  20
136.000000
  0
VERTEX
  8
C7
  10
446.000000
  20
136.000000
  0
VERTEX
  8
C7
  10
446.000000
  20
126.000000
  0
VERTEX
  8
C7
  10
449.000000
  20
126.000000
  0
VERTEX
  8
C7
  10
449.000000
  20
134.000000
  0
VERTEX
  8
C7
  10
451.000000
  20
134.000000
  0
VERTEX
  8
C7
  10
451.000000
  20
126.000000
  0
VERTEX
  8
C7
  10
454.000000
  20
126.000000
  0
VERTEX
  8
C7
  10
457.000000
  20
134.000000
  0
VERTEX
  8
C7
  10
457.000000
  20
126.000000
  0
VERTEX
  8
C7
  10
460.000000
  20
126.000000
  0
VERTEX
  8
C7
  10
459.972300
  20
127.270800
  0
VERTEX
  8
C7
  10
459.896900
  20
128.429500
  0
VERTEX
  8
C7
  10
459.773600
  20
129.481300
  0
VERTEX
  8
C7
  10
459.602500
  20
130.431300
  0
VERTEX
  8
C7
  10
459.383400
  20
131.284700
  0
VERTEX
  8
C7
  10
459.116200
  20
132.046600
  0
VERTEX
  8
C7
  10
458.800800
  20
132.722100
  0
VERTEX
  8
C7
  10
458.437300
  20
133.316500
  0
VERTEX
  8
C7
  10
458.025500
  20
133.835000
  0
VERTEX
  8
C7
  10
457.565300
  20
134.282500
  0
VERTEX
  8
C7
  10
457.056600
  20
134.664400
  0
VERTEX
  8
C7
  10
456.499400
  20
134.985800
  0
VERTEX
  8
C7
  10
455.893600
  20
135.251800
  0
VERTEX
  8
C7
  10
455.239200
  20
135.467700
  0
VERTEX
  8
C7
  10
454.535900
  20
135.638500
  0
VERTEX
  8
C7
  10
453.783900
  20
135.769400
  0
VERTEX
  8
C7
  10
452.982900
  20
135.865500
  0
VERTEX
  8
C7
  10
452.132900
  20
135.932200
  0
VERTEX
  8
C7
  10
451.233900
  20
135.974400
  0
VERTEX
  8
C7
  10
450.285700
  20
135.997300
  0
VERTEX
  8
C7
  10
449.288300
  20
136.006200
  0
VERTEX
  8
C7
  10
448.241600
  20
136.006200
  0
VERTEX
  8
C7
  10
447.145500
  20
136.002400
  0
VERTEX
  8
C7
  10
446.000000
  20
136.000000
  0
SEQEND
  8
C7
  0
POLYLINE
  8
C7
  66
1
  10
404.000000
  20
134.000000
  0
VERTEX
  8
C7
  10
404.000000
  20
134.000000
  0
VERTEX
  8
C7
  10
403.000000
  20
131.000000
  0
VERTEX
  8
C7
  10
404.000000
  20
134.000000
  0
SEQEND
  8
C7
  0
POLYLINE
  8
C7
  66
1
  10
381.000000
  20
133.000000
  0
VERTEX
  8
C7
  10
381.000000
  20
133.000000
  0
VERTEX
  8
C7
  10
381.000000
  20
128.000000
  0
VERTEX
  8
C7
  10
383.000000
  20
128.000000
  0
VERTEX
  8
C7
  10
383.000000
  20
133.000000
  0
VERTEX
  8
C7
  10
381.000000
  20
133.000000
  0
SEQEND
  8
C7
  0
POLYLINE
  8
C7
  66
1
  10
343.000000
  20
95.000000
  0
VERTEX
  8
C7
  10
343.000000
  20
95.000000
  0
VERTEX
  8
C7
  10
348.000000
  20
98.000000
  0
VERTEX
  8
C7
  10
342.000000
  20
86.000000
  0
VERTEX
  8
C7
  10
352.000000
  20
86.000000
  0
VERTEX
  8
C7
  10
352.000000
  20
88.000000
  0
VERTEX
  8
C7
  10
346.000000
  20
88.000000
  0
VERTEX
  8
C7
  10
346.813800
  20
88.694700
  0
VERTEX
  8
C7
  10
347.531600
  20
89.385900
  0
VERTEX
  8
C7
  10
348.157200
  20
90.071100
  0
VERTEX
  8
C7
  10
348.694600
  20
90.748100
  0
VERTEX
  8
C7
  10
349.147700
  20
91.414600
  0
VERTEX
  8
C7
  10
349.520400
  20
92.068200
  0
VERTEX
  8
C7
  10
349.816700
  20
92.706500
  0
VERTEX
  8
C7
  10
350.040400
  20
93.327400
  0
VERTEX
  8
C7
  10
350.195500
  20
93.928500
  0
VERTEX
  8
C7
  10
350.285900
  20
94.507400
  0
VERTEX
  8
C7
  10
350.315600
  20
95.061800
  0
VERTEX
  8
C7
  10
350.288400
  20
95.589500
  0
VERTEX
  8
C7
  10
350.208300
  20
96.088000
  0
VERTEX
  8
C7
  10
350.079200
  20
96.555100
  0
VERTEX
  8
C7
  10
349.905000
  20
96.988500
  0
VERTEX
  8
C7
  10
349.689700
  20
97.385800
  0
VERTEX
  8
C7
  10
349.437100
  20
97.744800
  0
VERTEX
  8
C7
  10
349.151300
  20
98.063000
  0
VERTEX
  8
C7
  10
348.836100
  20
98.338300
  0
VERTEX
  8
C7
  10
348.495500
  20
98.568200
  0
VERTEX
  8
C7
  10
348.133300
  20
98.750400
  0
VERTEX
  8
C7
  10
347.753500
  20
98.882700
  0
VERTEX
  8
C7
  10
347.360000
  20
98.962700
  0
VERTEX
  8
C7
  10
346.956800
  20
98.988100
  0
VERTEX
  8
C7
  10
346.547800
  20
98.956500
  0
VERTEX
  8
C7
  10
346.136800
  20
98.865700
  0
VERTEX
  8
C7
  10
345.727900
  20
98.713400
  0
VERTEX
  8
C7
  10
345.324900
  20
98.497100
  0
VERTEX
  8
C7
  10
344.931800
  20
98.214700
  0
VERTEX
  8
C7
  10
344.552500
  20
97.863700
  0
VERTEX
  8
C7
  10
344.190800
  20
97.441900
  0
VERTEX
  8
C7
  10
343.850800
  20
96.947000
  0
VERTEX
  8
C7
  10
343.536400
  20
96.376500
  0
VERTEX
  8
C7
  10
343.251500
  20
95.728300
  0
VERTEX
  8
C7
  10
343.000000
  20
95.000000
  0
SEQEND
  8
C7
  0
POLYLINE
  8
C7
  66
1
  10
352.000000
  20
89.000000
  0
VERTEX
  8
C7
  10
352.000000
  20
89.000000
  0
VERTEX
  8
C7
  10
359.000000
  20
86.000000
  0
VERTEX
  8
C7
  10
362.000000
  20
89.000000
  0
VERTEX
  8
C7
  10
362.000000
  20
90.000000
  0
VERTEX
  8
C7
  10
362.000000
  20
91.000000
  0
VERTEX
  8
C7
  10
360.000000
  20
100.000000
  0
VERTEX
  8
C7
  10
359.076100
  20
99.487400
  0
VERTEX
  8
C7
  10
358.213100
  20
98.926700
  0
VERTEX
  8
C7
  10
357.409400
  20
98.319200
  0
VERTEX
  8
C7
  10
356.663300
  20
97.666700
  0
VERTEX
  8
C7
  10
355.973000
  20
96.970500
  0
VERTEX
  8
C7
  10
355.337000
  20
96.232400
  0
VERTEX
  8
C7
  10
354.753600
  20
95.453700
  0
VERTEX
  8
C7
  10
354.221000
  20
94.636200
  0
VERTEX
  8
C7
  10
353.737600
  20
93.781200
  0
VERTEX
  8
C7
  10
353.301800
  20
92.890400
  0
VERTEX
  8
C7
  10
352.911800
  20
91.965400
  0
VERTEX
  8
C7
  10
352.565900
  20
91.007600
  0
VERTEX
  8
C7
  10
352.262500
  20
90.018600
  0
VERTEX
  8
C7
  10
352.000000
  20
89.000000
  0
SEQEND
  8
C7
  0
POLYLINE
  8
C7
  66
1
  10
363.000000
  20
100.000000
  0
VERTEX
  8
C7
  10
363.000000
  20
100.000000
  0
VERTEX
  8
C7
  10
363.000000
  20
94.000000
  0
VERTEX
  8
C7
  10
365.000000
  20
96.000000
  0
VERTEX
  8
C7
  10
366.000000
  20
96.000000
  0
VERTEX
  8
C7
  10
368.000000
  20
94.000000
  0
VERTEX
  8
C7
  10
369.000000
  20
100.000000
  0
VERTEX
  8
C7
  10
363.000000
  20
100.000000
  0
SEQEND
  8
C7
  0
POLYLINE
  8
C7
  66
1
  10
372.000000
  20
100.000000
  0
VERTEX
  8
C7
  10
372.000000
  20
100.000000
  0
VERTEX
  8
C7
  10
371.789100
  20
99.244600
  0
VERTEX
  8
C7
  10
371.571700
  20
98.446700
  0
VERTEX
  8
C7
  10
371.353000
  20
97.612100
  0
VERTEX
  8
C7
  10
371.138600
  20
96.746500
  0
VERTEX
  8
C7
  10
370.933700
  20
95.855600
  0
VERTEX
  8
C7
  10
370.743700
  20
94.945100
  0
VERTEX
  8
C7
  10
370.573900
  20
94.020700
  0
VERTEX
  8
C7
  10
370.429900
  20
93.088100
  0
VERTEX
  8
C7
  10
370.316800
  20
92.153000
  0
VERTEX
  8
C7
  10
370.240200
  20
91.221100
  0
VERTEX
  8
C7
  10
370.205300
  20
90.298200
  0
VERTEX
  8
C7
  10
370.217600
  20
89.390000
  0
VERTEX
  8
C7
  10
370.282300
  20
88.502100
  0
VERTEX
  8
C7
  10
370.405000
  20
87.640300
  0
VERTEX
  8
C7
  10
370.590900
  20
86.810300
  0
VERTEX
  8
C7
  10
370.845400
  20
86.017800
  0
VERTEX
  8
C7
  10
371.174000
  20
85.268500
  0
VERTEX
  8
C7
  10
371.581900
  20
84.568100
  0
VERTEX
  8
C7
  10
372.074500
  20
83.922400
  0
VERTEX
  8
C7
  10
372.657300
  20
83.337000
  0
VERTEX
  8
C7
  10
373.335500
  20
82.817600
  0
VERTEX
  8
C7
  10
374.114600
  20
82.370100
  0
VERTEX
  8
C7
  10
375.000000
  20
82.000000
  0
VERTEX
  8
C7
  10
375.000000
  20
100.000000
  0
VERTEX
  8
C7
  10
372.000000
  20
100.000000
  0
SEQEND
  8
C7
  0
POLYLINE
  8
C7
  66
1
  10
378.000000
  20
95.000000
  0
VERTEX
  8
C7
  10
378.000000
  20
95.000000
  0
VERTEX
  8
C7
  10
380.000000
  20
98.000000
  0
VERTEX
  8
C7
  10
381.000000
  20
98.000000
  0
VERTEX
  8
C7
  10
385.000000
  20
96.000000
  0
VERTEX
  8
C7
  10
384.557900
  20
96.745300
  0
VERTEX
  8
C7
  10
384.109700
  20
97.394900
  0
VERTEX
  8
C7
  10
383.656900
  20
97.952200
  0
VERTEX
  8
C7
  10
383.201000
  20
98.420900
  0
VERTEX
  8
C7
  10
382.743600
  20
98.804700
  0
VERTEX
  8
C7
  10
382.286100
  20
99.107200
  0
VERTEX
  8
C7
  10
381.830000
  20
99.332000
  0
VERTEX
  8
C7
  10
381.376900
  20
99.482900
  0
VERTEX
  8
C7
  10
380.928300
  20
99.563300
  0
VERTEX
  8
C7
  10
380.485600
  20
99.576900
  0
VERTEX
  8
C7
  10
380.050400
  20
99.527400
  0
VERTEX
  8
C7
  10
379.624300
  20
99.418500
  0
VERTEX
  8
C7
  10
379.208600
  20
99.253700
  0
VERTEX
  8
C7
  10
378.805000
  20
99.036700
  0
VERTEX
  8
C7
  10
378.414900
  20
98.771100
  0
VERTEX
  8
C7
  10
378.039900
  20
98.460600
  0
VERTEX
  8
C7
  10
377.681500
  20
98.108700
  0
VERTEX
  8
C7
  10
377.341100
  20
97.719200
  0
VERTEX
  8
C7
  10
377.020300
  20
97.295700
  0
VERTEX
  8
C7
  10
376.720600
  20
96.841800
  0
VERTEX
  8
C7
  10
376.443500
  20
96.361100
  0
VERTEX
  8
C7
  10
376.190600
  20
95.857300
  0
VERTEX
  8
C7
  10
375.963300
  20
95.334000
  0
VERTEX
  8
C7
  10
375.763100
  20
94.794900
  0
VERTEX
  8
C7
  10
375.591600
  20
94.243500
  0
VERTEX
  8
C7
  10
375.450300
  20
93.683600
  0
VERTEX
  8
C7
  10
375.340600
  20
93.118800
  0
VERTEX
  8
C7
  10
375.264100
  20
92.552600
  0
VERTEX
  8
C7
  10
375.222400
  20
91.988800
  0
VERTEX
  8
C7
  10
375.216900
  20
91.430900
  0
VERTEX
  8
C7
  10
375.249100
  20
90.882700
  0
VERTEX
  8
C7
  10
375.320500
  20
90.347600
  0
VERTEX
  8
C7
  10
375.432700
  20
89.829500
  0
VERTEX
  8
C7
  10
375.587200
  20
89.331900
  0
VERTEX
  8
C7
  10
375.785400
  20
88.858400
  0
VERTEX
  8
C7
  10
376.028900
  20
88.412700
  0
VERTEX
  8
C7
  10
376.319300
  20
87.998500
  0
VERTEX
  8
C7
  10
376.657900
  20
87.619300
  0
VERTEX
  8
C7
  10
377.046400
  20
87.278800
  0
VERTEX
  8
C7
  10
377.486200
  20
86.980600
  0
VERTEX
  8
C7
  10
377.978800
  20
86.728400
  0
VERTEX
  8
C7
  10
378.525900
  20
86.525800
  0
VERTEX
  8
C7
  10
379.128800
  20
86.376500
  0
VERTEX
  8
C7
  10
379.997800
  20
86.256000
  0
VERTEX
  8
C7
  10
380.780800
  20
86.240200
  0
VERTEX
  8
C7
  10
381.478500
  20
86.320500
  0
VERTEX
  8
C7
  10
382.091800
  20
86.488300
  0
VERTEX
  8
C7
  10
382.621600
  20
86.735000
  0
VERTEX
  8
C7
  10
383.068800
  20
87.052000
  0
VERTEX
  8
C7
  10
383.434300
  20
87.430800
  0
VERTEX
  8
C7
  10
383.719000
  20
87.862700
  0
VERTEX
  8
C7
  10
383.923700
  20
88.339200
  0
VERTEX
  8
C7
  10
384.049400
  20
88.851700
  0
VERTEX
  8
C7
  10
384.096800
  20
89.391600
  0
VERTEX
  8
C7
  10
384.067000
  20
89.950400
  0
VERTEX
  8
C7
  10
383.960700
  20
90.519300
  0
VERTEX
  8
C7
  10
383.778800
  20
91.090000
  0
VERTEX
  8
C7
  10
383.522400
  20
91.653700
  0
VERTEX
  8
C7
  10
383.192100
  20
92.202000
  0
VERTEX
  8
C7
  10
382.788900
  20
92.726100
  0
VERTEX
  8
C7
  10
382.313800
  20
93.217600
  0
VERTEX
  8
C7
  10
381.767500
  20
93.667800
  0
VERTEX
  8
C7
  10
381.150900
  20
94.068300
  0
VERTEX
  8
C7
  10
380.465000
  20
94.410300
  0
VERTEX
  8
C7
  10
379.710600
  20
94.685300
  0
VERTEX
  8
C7
  10
378.888600
  20
94.884700
  0
VERTEX
  8
C7
  10
378.000000
  20
95.000000
  0
SEQEND
  8
C7
  0
POLYLINE
  8
C7
  66
1
  10
387.000000
  20
94.000000
  0
VERTEX
  8
C7
  10
387.000000
  20
94.000000
  0
VERTEX
  8
C7
  10
390.000000
  20
95.000000
  0
VERTEX
  8
C7
  10
390.000000
  20
86.000000
  0
VERTEX
  8
C7
  10
393.000000
  20
86.000000
  0
VERTEX
  8
C7
  10
393.000000
  20
100.000000
  0
VERTEX
  8
C7
  10
387.000000
  20
94.000000
  0
SEQEND
  8
C7
  0
POLYLINE
  8
C7
  66
1
  10
398.314026
  20
98.952934
  0
VERTEX
  8
C7
  10
398.314026
  20
98.952934
  0
VERTEX
  8
C7
  10
397.822700
  20
98.588100
  0
VERTEX
  8
C7
  10
397.388100
  20
98.145300
  0
VERTEX
  8
C7
  10
397.009200
  20
97.633100
  0
VERTEX
  8
C7
  10
396.685500
  20
97.060200
  0
VERTEX
  8
C7
  10
396.416000
  20
96.435300
  0
VERTEX
  8
C7
  10
396.200100
  20
95.766900
  0
VERTEX
  8
C7
  10
396.036900
  20
95.063700
  0
VERTEX
  8
C7
  10
395.925800
  20
94.334500
  0
VERTEX
  8
C7
  10
395.865900
  20
93.587800
  0
VERTEX
  8
C7
  10
395.856600
  20
92.832300
  0
VERTEX
  8
C7
  10
395.896900
  20
92.076700
  0
VERTEX
  8
C7
  10
395.986300
  20
91.329600
  0
VERTEX
  8
C7
  10
396.123800
  20
90.599700
  0
VERTEX
  8
C7
  10
396.308900
  20
89.895600
  0
VERTEX
  8
C7
  10
396.540600
  20
89.226000
  0
VERTEX
  8
C7
  10
396.818200
  20
88.599600
  0
VERTEX
  8
C7
  10
397.141000
  20
88.025000
  0
VERTEX
  8
C7
  10
397.508200
  20
87.510800
  0
VERTEX
  8
C7
  10
397.919100
  20
87.065800
  0
VERTEX
  8
C7
  10
398.372800
  20
86.698500
  0
VERTEX
  8
C7
  10
398.868700
  20
86.417600
  0
VERTEX
  8
C7
  10
399.405900
  20
86.231900
  0
VERTEX
  8
C7
  10
399.983700
  20
86.149900
  0
VERTEX
  8
C7
  10
400.601400
  20
86.180200
  0
VERTEX
  8
C7
  10
401.258100
  20
86.331700
  0
VERTEX
  8
C7
  10
401.953200
  20
86.612800
  0
VERTEX
  8
C7
  10
402.685900
  20
87.032400
  0
VERTEX
  8
C7
  10
403.183700
  20
87.421100
  0
VERTEX
  8
C7
  10
403.618400
  20
87.888100
  0
VERTEX
  8
C7
  10
403.991400
  20
88.424300
  0
VERTEX
  8
C7
  10
404.303700
  20
89.020400
  0
VERTEX
  8
C7
  10
404.556700
  20
89.667500
  0
VERTEX
  8
C7
  10
404.751500
  20
90.356500
  0
VERTEX
  8
C7
  10
404.889400
  20
91.078400
  0
VERTEX
  8
C7
  10
404.971500
  20
91.823900
  0
VERTEX
  8
C7
  10
404.999200
  20
92.584100
  0
VERTEX
  8
C7
  10
404.973600
  20
93.349900
  0
VERTEX
  8
C7
  10
404.895900
  20
94.112100
  0
VERTEX
  8
C7
  10
404.767400
  20
94.861800
  0
VERTEX
  8
C7
  10
404.589200
  20
95.589800
  0
VERTEX
  8
C7
  10
404.362700
  20
96.287100
  0
VERTEX
  8
C7
  10
404.089000
  20
96.944600
  0
VERTEX
  8
C7
  10
403.769400
  20
97.553200
  0
VERTEX
  8
C7
  10
403.405000
  20
98.103800
  0
VERTEX
  8
C7
  10
402.997100
  20
98.587400
  0
VERTEX
  8
C7
  10
402.546900
  20
98.994800
  0
VERTEX
  8
C7
  10
402.055600
  20
99.317100
  0
VERTEX
  8
C7
  10
401.524500
  20
99.545000
  0
VERTEX
  8
C7
  10
400.954800
  20
99.669600
  0
VERTEX
  8
C7
  10
400.347600
  20
99.681800
  0
VERTEX
  8
C7
  10
399.704300
  20
99.572400
  0
VERTEX
  8
C7
  10
399.026000
  20
99.332500
  0
VERTEX
  8
C7
  10
398.314000
  20
98.952900
  0
SEQEND
  8
C7
  0
POLYLINE
  8
C7
  66
1
  10
436.000000
  20
100.000000
  0
VERTEX
  8
C7
  10
436.000000
  20
100.000000
  0
VERTEX
  8
C7
  10
436.400300
  20
98.884500
  0
VERTEX
  8
C7
  10
436.753500
  20
97.809800
  0
VERTEX
  8
C7
  10
437.059600
  20
96.770700
  0
VERTEX
  8
C7
  10
437.318600
  20
95.762200
  0
VERTEX
  8
C7
  10
437.530600
  20
94.779200
  0
VERTEX
  8
C7
  10
437.695400
  20
93.816500
  0
VERTEX
  8
C7
  10
437.813200
  20
92.869200
  0
VERTEX
  8
C7
  10
437.883800
  20
91.932000
  0
VERTEX
  8
C7
  10
437.907400
  20
90.999900
  0
VERTEX
  8
C7
  10
437.883800
  20
90.067800
  0
VERTEX
  8
C7
  10
437.813200
  20
89.130600
  0
VERTEX
  8
C7
  10
437.695400
  20
88.183300
  0
VERTEX
  8
C7
  10
437.530600
  20
87.220600
  0
VERTEX
  8
C7
  10
437.318600
  20
86.237600
  0
VERTEX
  8
C7
  10
437.059600
  20
85.229100
  0
VERTEX
  8
C7
  10
436.753500
  20
84.190100
  0
VERTEX
  8
C7
  10
436.400300
  20
83.115400
  0
VERTEX
  8
C7
  10
436.000000
  20
82.000000
  0
VERTEX
  8
C7
  10
436.761200
  20
82.296200
  0
VERTEX
  8
C7
  10
437.466200
  20
82.669500
  0
VERTEX
  8
C7
  10
438.114700
  20
83.113800
  0
VERTEX
  8
C7
  10
438.706800
  20
83.623400
  0
VERTEX
  8
C7
  10
439.242500
  20
84.192100
  0
VERTEX
  8
C7
  10
439.721800
  20
84.814300
  0
VERTEX
  8
C7
  10
440.144800
  20
85.483800
  0
VERTEX
  8
C7
  10
440.511300
  20
86.194800
  0
VERTEX
  8
C7
  10
440.821500
  20
86.941300
  0
VERTEX
  8
C7
  10
441.075300
  20
87.717500
  0
VERTEX
  8
C7
  10
441.272600
  20
88.517400
  0
VERTEX
  8
C7
  10
441.413600
  20
89.335000
  0
VERTEX
  8
C7
  10
441.498200
  20
90.164500
  0
VERTEX
  8
C7
  10
441.526400
  20
90.999900
  0
VERTEX
  8
C7
  10
441.498200
  20
91.835300
  0
VERTEX
  8
C7
  10
441.413600
  20
92.664800
  0
VERTEX
  8
C7
  10
441.272600
  20
93.482500
  0
VERTEX
  8
C7
  10
441.075300
  20
94.282300
  0
VERTEX
  8
C7
  10
440.821500
  20
95.058500
  0
VERTEX
  8
C7
  10
440.511300
  20
95.805100
  0
VERTEX
  8
C7
  10
440.144800
  20
96.516100
  0
VERTEX
  8
C7
  10
439.721800
  20
97.185600
  0
VERTEX
  8
C7
  10
439.242500
  20
97.807700
  0
VERTEX
  8
C7
  10
438.706800
  20
98.376500
  0
VERTEX
  8
C7
  10
438.114700
  20
98.886100
  0
VERTEX
  8
C7
  10
437.466200
  20
99.330400
  0
VERTEX
  8
C7
  10
436.761200
  20
99.703700
  0
VERTEX
  8
C7
  10
436.000000
  20
100.000000
  0
SEQEND
  8
C7
  0
POLYLINE
  8
C7
  66
1
  10
400.000000
  20
98.000000
  0
VERTEX
  8
C7
  10
400.000000
  20
98.000000
  0
VERTEX
  8
C7
  10
400.000000
  20
88.000000
  0
VERTEX
  8
C7
  10
401.000000
  20
88.000000
  0
VERTEX
  8
C7
  10
400.000000
  20
98.000000
  0
SEQEND
  8
C7
  0
POLYLINE
  8
C7
  66
1
  10
406.000000
  20
96.000000
  0
VERTEX
  8
C7
  10
406.000000
  20
96.000000
  0
VERTEX
  8
C7
  10
406.000000
  20
86.000000
  0
VERTEX
  8
C7
  10
409.000000
  20
86.000000
  0
VERTEX
  8
C7
  10
410.000000
  20
94.000000
  0
VERTEX
  8
C7
  10
411.000000
  20
94.000000
  0
VERTEX
  8
C7
  10
412.000000
  20
86.000000
  0
VERTEX
  8
C7
  10
414.000000
  20
86.000000
  0
VERTEX
  8
C7
  10
417.000000
  20
94.000000
  0
VERTEX
  8
C7
  10
417.000000
  20
86.000000
  0
VERTEX
  8
C7
  10
420.000000
  20
86.000000
  0
VERTEX
  8
C7
  10
419.976700
  20
87.273400
  0
VERTEX
  8
C7
  10
419.908700
  20
88.444700
  0
VERTEX
  8
C7
  10
419.795400
  20
89.517500
  0
VERTEX
  8
C7
  10
419.636200
  20
90.495600
  0
VERTEX
  8
C7
  10
419.430700
  20
91.382800
  0
VERTEX
  8
C7
  10
419.178200
  20
92.183000
  0
VERTEX
  8
C7
  10
418.878300
  20
92.899800
  0
VERTEX
  8
C7
  10
418.530400
  20
93.537000
  0
VERTEX
  8
C7
  10
418.134000
  20
94.098500
  0
VERTEX
  8
C7
  10
417.688500
  20
94.587900
  0
VERTEX
  8
C7
  10
417.193400
  20
95.009200
  0
VERTEX
  8
C7
  10
416.648200
  20
95.366100
  0
VERTEX
  8
C7
  10
416.052300
  20
95.662300
  0
VERTEX
  8
C7
  10
415.405200
  20
95.901600
  0
VERTEX
  8
C7
  10
414.706400
  20
96.087900
  0
VERTEX
  8
C7
  10
413.955300
  20
96.224900
  0
VERTEX
  8
C7
  10
413.151300
  20
96.316400
  0
VERTEX
  8
C7
  10
412.294100
  20
96.366100
  0
VERTEX
  8
C7
  10
411.382900
  20
96.377900
  0
VERTEX
  8
C7
  10
410.417300
  20
96.355500
  0
VERTEX
  8
C7
  10
409.396700
  20
96.302800
  0
VERTEX
  8
C7
  10
408.320700
  20
96.223400
  0
VERTEX
  8
C7
  10
407.188600
  20
96.121200
  0
VERTEX
  8
C7
  10
406.000000
  20
96.000000
  0
SEQEND
  8
C7
  0
POLYLINE
  8
C7
  66
1
  10
421.000000
  20
96.000000
  0
VERTEX
  8
C7
  10
421.000000
  20
96.000000
  0
VERTEX
  8
C7
  10
421.000000
  20
86.000000
  0
VERTEX
  8
C7
  10
424.000000
  20
86.000000
  0
VERTEX
  8
C7
  10
427.000000
  20
94.000000
  0
VERTEX
  8
C7
  10
427.000000
  20
86.000000
  0
VERTEX
  8
C7
  10
430.000000
  20
86.000000
  0
VERTEX
  8
C7
  10
430.000000
  20
94.000000
  0
VERTEX
  8
C7
  10
433.000000
  20
86.000000
  0
VERTEX
  8
C7
  10
435.000000
  20
86.000000
  0
VERTEX
  8
C7
  10
434.979800
  20
87.307700
  0
VERTEX
  8
C7
  10
434.918900
  20
88.507800
  0
VERTEX
  8
C7
  10
434.816200
  20
89.604500
  0
VERTEX
  8
C7
  10
434.670500
  20
90.601800
  0
VERTEX
  8
C7
  10
434.480700
  20
91.503800
  0
VERTEX
  8
C7
  10
434.245600
  20
92.314700
  0
VERTEX
  8
C7
  10
433.964300
  20
93.038500
  0
VERTEX
  8
C7
  10
433.635400
  20
93.679400
  0
VERTEX
  8
C7
  10
433.257900
  20
94.241400
  0
VERTEX
  8
C7
  10
432.830700
  20
94.728700
  0
VERTEX
  8
C7
  10
432.352700
  20
95.145300
  0
VERTEX
  8
C7
  10
431.822700
  20
95.495400
  0
VERTEX
  8
C7
  10
431.239600
  20
95.783000
  0
VERTEX
  8
C7
  10
430.602300
  20
96.012300
  0
VERTEX
  8
C7
  10
429.909600
  20
96.187400
  0
VERTEX
  8
C7
  10
429.160500
  20
96.312400
  0
VERTEX
  8
C7
  10
428.353800
  20
96.391300
  0
VERTEX
  8
C7
  10
427.488400
  20
96.428300
  0
VERTEX
  8
C7
  10
426.563100
  20
96.427500
  0
VERTEX
  8
C7
  10
425.576900
  20
96.393000
  0
VERTEX
  8
C7
  10
424.528600
  20
96.328900
  0
VERTEX
  8
C7
  10
423.417100
  20
96.239300
  0
VERTEX
  8
C7
  10
422.241200
  20
96.128300
  0
VERTEX
  8
C7
  10
421.000000
  20
96.000000
  0
SEQEND
  8
C7
  0
POLYLINE
  8
C7
  66
1
  10
357.000000
  20
94.000000
  0
VERTEX
  8
C7
  10
357.000000
  20
94.000000
  0
VERTEX
  8
C7
  10
356.000000
  20
91.000000
  0
VERTEX
  8
C7
  10
357.000000
  20
94.000000
  0
SEQEND
  8
C7
  0
POLYLINE
  8
C7
  66
1
  10
379.000000
  20
93.000000
  0
VERTEX
  8
C7
  10
379.000000
  20
93.000000
  0
VERTEX
  8
C7
  10
379.000000
  20
88.000000
  0
VERTEX
  8
C7
  10
381.000000
  20
88.000000
  0
VERTEX
  8
C7
  10
381.000000
  20
93.000000
  0
VERTEX
  8
C7
  10
379.000000
  20
93.000000
  0
SEQEND
  8
0
  0
ENDSEC
  0
EOF
