  0
SECTION
  2
HEADER
  9
$ACADVER
  1
AC1009
  9
$EXTMIN
  10
 0.000000
  20
 0.000000
  30
 0.000000
  9
$EXTMAX
  10
 792.000000
  20
 612.000000
  30
 0.000000
  0
ENDSEC
  0
SECTION
  2
TABLES
  0
TABLE
  2
LAYER
  70
     2048
  0
LAYER
  2
0
  70
    0
  62
     7
  6
CONTINUOUS
  0
LAYER
   2
C7
  70
     64
  62
7
  6
CONTINUOUS
  0
LAYER
   2
C18
  70
     64
  62
18
  6
CONTINUOUS
  0
ENDTAB
  0
ENDSEC
  0
SECTION
  2
ENTITIES
  0
POLYLINE
  8
C7
  66
1
  10
0.000000
  20
612.000000
  0
VERTEX
  8
C7
  10
0.000000
  20
612.000000
  0
SEQEND
  8
C7
  0
POLYLINE
  8
C7
  66
1
  10
0.000000
  20
612.000000
  0
VERTEX
  8
C7
  10
0.000000
  20
612.000000
  0
VERTEX
  8
C7
  10
0.000000
  20
0.000000
  0
VERTEX
  8
C7
  10
792.000000
  20
0.000000
  0
VERTEX
  8
C7
  10
792.000000
  20
612.000000
  0
VERTEX
  8
C7
  10
0.000000
  20
612.000000
  0
SEQEND
  8
C7
  0
POLYLINE
  8
C7
  66
1
  10
346.128845
  20
540.029297
  0
VERTEX
  8
C7
  10
346.128845
  20
540.029297
  0
VERTEX
  8
C7
  10
345.526300
  20
539.820400
  0
VERTEX
  8
C7
  10
344.970300
  20
539.511400
  0
VERTEX
  8
C7
  10
344.461600
  20
539.111700
  0
VERTEX
  8
C7
  10
344.001200
  20
538.630500
  0
VERTEX
  8
C7
  10
343.589900
  20
538.077300
  0
VERTEX
  8
C7
  10
343.228700
  20
537.461300
  0
VERTEX
  8
C7
  10
342.918500
  20
536.792000
  0
VERTEX
  8
C7
  10
342.660300
  20
536.078700
  0
VERTEX
  8
C7
  10
342.454900
  20
535.330700
  0
VERTEX
  8
C7
  10
342.303300
  20
534.557400
  0
VERTEX
  8
C7
  10
342.206500
  20
533.768100
  0
VERTEX
  8
C7
  10
342.165200
  20
532.972300
  0
VERTEX
  8
C7
  10
342.180500
  20
532.179200
  0
VERTEX
  8
C7
  10
342.253300
  20
531.398200
  0
VERTEX
  8
C7
  10
342.384500
  20
530.638700
  0
VERTEX
  8
C7
  10
342.575000
  20
529.910000
  0
VERTEX
  8
C7
  10
342.825800
  20
529.221500
  0
VERTEX
  8
C7
  10
343.137700
  20
528.582600
  0
VERTEX
  8
C7
  10
343.511700
  20
528.002500
  0
VERTEX
  8
C7
  10
343.948700
  20
527.490600
  0
VERTEX
  8
C7
  10
344.449700
  20
527.056400
  0
VERTEX
  8
C7
  10
345.015500
  20
526.709100
  0
VERTEX
  8
C7
  10
345.647100
  20
526.458100
  0
VERTEX
  8
C7
  10
346.345400
  20
526.312700
  0
VERTEX
  8
C7
  10
347.111400
  20
526.282400
  0
VERTEX
  8
C7
  10
347.945900
  20
526.376500
  0
VERTEX
  8
C7
  10
348.622400
  20
526.562600
  0
VERTEX
  8
C7
  10
349.227300
  20
526.853300
  0
VERTEX
  8
C7
  10
349.761800
  20
527.238700
  0
VERTEX
  8
C7
  10
350.227700
  20
527.709300
  0
VERTEX
  8
C7
  10
350.626200
  20
528.255400
  0
VERTEX
  8
C7
  10
350.959100
  20
528.867300
  0
VERTEX
  8
C7
  10
351.227700
  20
529.535200
  0
VERTEX
  8
C7
  10
351.433600
  20
530.249700
  0
VERTEX
  8
C7
  10
351.578300
  20
531.000900
  0
VERTEX
  8
C7
  10
351.663200
  20
531.779200
  0
VERTEX
  8
C7
  10
351.689900
  20
532.575000
  0
VERTEX
  8
C7
  10
351.660000
  20
533.378600
  0
VERTEX
  8
C7
  10
351.574800
  20
534.180200
  0
VERTEX
  8
C7
  10
351.435900
  20
534.970300
  0
VERTEX
  8
C7
  10
351.244900
  20
535.739200
  0
VERTEX
  8
C7
  10
351.003100
  20
536.477100
  0
VERTEX
  8
C7
  10
350.712200
  20
537.174500
  0
VERTEX
  8
C7
  10
350.373500
  20
537.821600
  0
VERTEX
  8
C7
  10
349.988800
  20
538.408800
  0
VERTEX
  8
C7
  10
349.559300
  20
538.926400
  0
VERTEX
  8
C7
  10
349.086700
  20
539.364800
  0
VERTEX
  8
C7
  10
348.572400
  20
539.714200
  0
VERTEX
  8
C7
  10
348.017900
  20
539.965000
  0
VERTEX
  8
C7
  10
347.424900
  20
540.107600
  0
VERTEX
  8
C7
  10
346.794600
  20
540.132200
  0
VERTEX
  8
C7
  10
346.128800
  20
540.029300
  0
SEQEND
  8
C7
  0
POLYLINE
  8
C7
  66
1
  10
365.000000
  20
522.000000
  0
VERTEX
  8
C7
  10
365.000000
  20
522.000000
  0
VERTEX
  8
C7
  10
365.000000
  20
541.000000
  0
VERTEX
  8
C7
  10
364.331400
  20
540.594600
  0
VERTEX
  8
C7
  10
363.702700
  20
540.122800
  0
VERTEX
  8
C7
  10
363.115000
  20
539.589900
  0
VERTEX
  8
C7
  10
362.569300
  20
539.001300
  0
VERTEX
  8
C7
  10
362.066800
  20
538.362200
  0
VERTEX
  8
C7
  10
361.608600
  20
537.677900
  0
VERTEX
  8
C7
  10
361.195900
  20
536.953900
  0
VERTEX
  8
C7
  10
360.829700
  20
536.195400
  0
VERTEX
  8
C7
  10
360.511100
  20
535.407900
  0
VERTEX
  8
C7
  10
360.241400
  20
534.596500
  0
VERTEX
  8
C7
  10
360.021500
  20
533.766600
  0
VERTEX
  8
C7
  10
359.852600
  20
532.923700
  0
VERTEX
  8
C7
  10
359.735900
  20
532.072900
  0
VERTEX
  8
C7
  10
359.672400
  20
531.219600
  0
VERTEX
  8
C7
  10
359.663300
  20
530.369300
  0
VERTEX
  8
C7
  10
359.709600
  20
529.527100
  0
VERTEX
  8
C7
  10
359.812600
  20
528.698400
  0
VERTEX
  8
C7
  10
359.973200
  20
527.888600
  0
VERTEX
  8
C7
  10
360.192700
  20
527.102900
  0
VERTEX
  8
C7
  10
360.472200
  20
526.346800
  0
VERTEX
  8
C7
  10
360.812700
  20
525.625500
  0
VERTEX
  8
C7
  10
361.215400
  20
524.944400
  0
VERTEX
  8
C7
  10
361.681400
  20
524.308800
  0
VERTEX
  8
C7
  10
362.211800
  20
523.724000
  0
VERTEX
  8
C7
  10
362.807700
  20
523.195400
  0
VERTEX
  8
C7
  10
363.470300
  20
522.728300
  0
VERTEX
  8
C7
  10
364.200700
  20
522.328100
  0
VERTEX
  8
C7
  10
365.000000
  20
522.000000
  0
SEQEND
  8
C7
  0
POLYLINE
  8
C7
  66
1
  10
367.000000
  20
535.000000
  0
VERTEX
  8
C7
  10
367.000000
  20
535.000000
  0
VERTEX
  8
C7
  10
372.000000
  20
538.000000
  0
VERTEX
  8
C7
  10
365.000000
  20
526.000000
  0
VERTEX
  8
C7
  10
375.000000
  20
526.000000
  0
VERTEX
  8
C7
  10
375.000000
  20
529.000000
  0
VERTEX
  8
C7
  10
370.000000
  20
529.000000
  0
VERTEX
  8
C7
  10
370.730900
  20
529.773200
  0
VERTEX
  8
C7
  10
371.472000
  20
530.552600
  0
VERTEX
  8
C7
  10
372.195300
  20
531.352500
  0
VERTEX
  8
C7
  10
372.872600
  20
532.187400
  0
VERTEX
  8
C7
  10
373.476000
  20
533.071800
  0
VERTEX
  8
C7
  10
373.977600
  20
534.020100
  0
SEQEND
  8
C7
  0
POLYLINE
  8
C7
  66
1
  10
373.977600
  20
534.020000
  0
VERTEX
  8
C7
  10
373.977600
  20
534.020000
  0
VERTEX
  8
C7
  10
374.255000
  20
534.756100
  0
VERTEX
  8
C7
  10
374.416900
  20
535.453000
  0
VERTEX
  8
C7
  10
374.472300
  20
536.108700
  0
VERTEX
  8
C7
  10
374.430100
  20
536.720900
  0
VERTEX
  8
C7
  10
374.299400
  20
537.287700
  0
VERTEX
  8
C7
  10
374.089200
  20
537.807000
  0
VERTEX
  8
C7
  10
373.808300
  20
538.276700
  0
VERTEX
  8
C7
  10
373.465800
  20
538.694600
  0
VERTEX
  8
C7
  10
373.070600
  20
539.058800
  0
VERTEX
  8
C7
  10
372.631800
  20
539.367000
  0
VERTEX
  8
C7
  10
372.158300
  20
539.617400
  0
VERTEX
  8
C7
  10
371.659100
  20
539.807600
  0
VERTEX
  8
C7
  10
371.143200
  20
539.935800
  0
VERTEX
  8
C7
  10
370.619500
  20
539.999700
  0
VERTEX
  8
C7
  10
370.097100
  20
539.997400
  0
VERTEX
  8
C7
  10
369.584900
  20
539.926600
  0
VERTEX
  8
C7
  10
369.091900
  20
539.785400
  0
VERTEX
  8
C7
  10
368.627000
  20
539.571700
  0
VERTEX
  8
C7
  10
368.199300
  20
539.283300
  0
VERTEX
  8
C7
  10
367.817700
  20
538.918200
  0
VERTEX
  8
C7
  10
367.491300
  20
538.474300
  0
VERTEX
  8
C7
  10
367.228900
  20
537.949500
  0
VERTEX
  8
C7
  10
367.039600
  20
537.341800
  0
VERTEX
  8
C7
  10
366.932400
  20
536.649000
  0
VERTEX
  8
C7
  10
366.916200
  20
535.869100
  0
VERTEX
  8
C7
  10
367.000000
  20
535.000000
  0
SEQEND
  8
C7
  0
POLYLINE
  8
C7
  66
1
  10
380.064819
  20
540.199097
  0
VERTEX
  8
C7
  10
380.064819
  20
540.199097
  0
VERTEX
  8
C7
  10
379.401500
  20
540.055600
  0
VERTEX
  8
C7
  10
378.794200
  20
539.806800
  0
VERTEX
  8
C7
  10
378.242700
  20
539.461900
  0
VERTEX
  8
C7
  10
377.747000
  20
539.030200
  0
VERTEX
  8
C7
  10
377.307200
  20
538.521000
  0
VERTEX
  8
C7
  10
376.923300
  20
537.943700
  0
VERTEX
  8
C7
  10
376.595200
  20
537.307600
  0
VERTEX
  8
C7
  10
376.322900
  20
536.622100
  0
VERTEX
  8
C7
  10
376.106400
  20
535.896500
  0
VERTEX
  8
C7
  10
375.945700
  20
535.140100
  0
VERTEX
  8
C7
  10
375.840900
  20
534.362200
  0
VERTEX
  8
C7
  10
375.791900
  20
533.572200
  0
VERTEX
  8
C7
  10
375.798600
  20
532.779400
  0
VERTEX
  8
C7
  10
375.861200
  20
531.993200
  0
VERTEX
  8
C7
  10
375.979500
  20
531.222800
  0
VERTEX
  8
C7
  10
376.153600
  20
530.477600
  0
VERTEX
  8
C7
  10
376.383500
  20
529.767000
  0
VERTEX
  8
C7
  10
376.669200
  20
529.100300
  0
VERTEX
  8
C7
  10
377.010600
  20
528.486800
  0
VERTEX
  8
C7
  10
377.407800
  20
527.935800
  0
VERTEX
  8
C7
  10
377.860700
  20
527.456700
  0
VERTEX
  8
C7
  10
378.369400
  20
527.058800
  0
VERTEX
  8
C7
  10
378.933800
  20
526.751400
  0
VERTEX
  8
C7
  10
379.553900
  20
526.544000
  0
VERTEX
  8
C7
  10
380.229800
  20
526.445700
  0
VERTEX
  8
C7
  10
380.961400
  20
526.466000
  0
VERTEX
  8
C7
  10
381.654700
  20
526.597400
  0
VERTEX
  8
C7
  10
382.288900
  20
526.828700
  0
VERTEX
  8
C7
  10
382.864500
  20
527.151300
  0
VERTEX
  8
C7
  10
383.381900
  20
527.556800
  0
VERTEX
  8
C7
  10
383.841300
  20
528.036600
  0
VERTEX
  8
C7
  10
384.243200
  20
528.582300
  0
VERTEX
  8
C7
  10
384.587900
  20
529.185300
  0
VERTEX
  8
C7
  10
384.875900
  20
529.837200
  0
VERTEX
  8
C7
  10
385.107500
  20
530.529400
  0
VERTEX
  8
C7
  10
385.283000
  20
531.253500
  0
VERTEX
  8
C7
  10
385.403000
  20
532.000900
  0
VERTEX
  8
C7
  10
385.467700
  20
532.763200
  0
VERTEX
  8
C7
  10
385.477500
  20
533.531800
  0
VERTEX
  8
C7
  10
385.432800
  20
534.298200
  0
VERTEX
  8
C7
  10
385.334000
  20
535.054100
  0
VERTEX
  8
C7
  10
385.181400
  20
535.790700
  0
VERTEX
  8
C7
  10
384.975500
  20
536.499700
  0
VERTEX
  8
C7
  10
384.716600
  20
537.172600
  0
VERTEX
  8
C7
  10
384.405100
  20
537.800800
  0
VERTEX
  8
C7
  10
384.041400
  20
538.375800
  0
VERTEX
  8
C7
  10
383.625800
  20
538.889200
  0
VERTEX
  8
C7
  10
383.158800
  20
539.332500
  0
VERTEX
  8
C7
  10
382.640600
  20
539.697100
  0
VERTEX
  8
C7
  10
382.071800
  20
539.974600
  0
VERTEX
  8
C7
  10
381.452600
  20
540.156400
  0
VERTEX
  8
C7
  10
380.783500
  20
540.234000
  0
VERTEX
  8
C7
  10
380.064800
  20
540.199100
  0
SEQEND
  8
C7
  0
POLYLINE
  8
C7
  66
1
  10
386.000000
  20
536.000000
  0
VERTEX
  8
C7
  10
386.000000
  20
536.000000
  0
VERTEX
  8
C7
  10
392.000000
  20
538.000000
  0
VERTEX
  8
C7
  10
389.000000
  20
532.000000
  0
VERTEX
  8
C7
  10
393.000000
  20
532.000000
  0
VERTEX
  8
C7
  10
392.000000
  20
528.000000
  0
VERTEX
  8
C7
  10
390.000000
  20
528.000000
  0
VERTEX
  8
C7
  10
386.000000
  20
531.000000
  0
VERTEX
  8
C7
  10
386.261400
  20
530.302600
  0
VERTEX
  8
C7
  10
386.611200
  20
529.625800
  0
VERTEX
  8
C7
  10
387.039000
  20
528.980200
  0
VERTEX
  8
C7
  10
387.534200
  20
528.376400
  0
VERTEX
  8
C7
  10
388.086500
  20
527.825000
  0
VERTEX
  8
C7
  10
388.685400
  20
527.336500
  0
VERTEX
  8
C7
  10
389.320400
  20
526.921600
  0
VERTEX
  8
C7
  10
389.981100
  20
526.590800
  0
VERTEX
  8
C7
  10
390.657000
  20
526.354800
  0
VERTEX
  8
C7
  10
391.337600
  20
526.224100
  0
VERTEX
  8
C7
  10
392.012600
  20
526.209300
  0
VERTEX
  8
C7
  10
392.671400
  20
526.321000
  0
VERTEX
  8
C7
  10
393.303600
  20
526.569900
  0
VERTEX
  8
C7
  10
393.898700
  20
526.966400
  0
VERTEX
  8
C7
  10
394.446300
  20
527.521200
  0
VERTEX
  8
C7
  10
394.935900
  20
528.244900
  0
VERTEX
  8
C7
  10
395.357200
  20
529.148100
  0
VERTEX
  8
C7
  10
395.606500
  20
529.900300
  0
VERTEX
  8
C7
  10
395.782400
  20
530.660900
  0
VERTEX
  8
C7
  10
395.888400
  20
531.424600
  0
VERTEX
  8
C7
  10
395.927900
  20
532.186000
  0
VERTEX
  8
C7
  10
395.904400
  20
532.939900
  0
VERTEX
  8
C7
  10
395.821400
  20
533.680900
  0
VERTEX
  8
C7
  10
395.682300
  20
534.403800
  0
VERTEX
  8
C7
  10
395.490800
  20
535.103200
  0
VERTEX
  8
C7
  10
395.250200
  20
535.773900
  0
VERTEX
  8
C7
  10
394.964100
  20
536.410500
  0
VERTEX
  8
C7
  10
394.636000
  20
537.007700
  0
VERTEX
  8
C7
  10
394.269200
  20
537.560300
  0
VERTEX
  8
C7
  10
393.867300
  20
538.062900
  0
VERTEX
  8
C7
  10
393.433900
  20
538.510200
  0
VERTEX
  8
C7
  10
392.972300
  20
538.897000
  0
VERTEX
  8
C7
  10
392.486100
  20
539.217800
  0
VERTEX
  8
C7
  10
391.978800
  20
539.467500
  0
VERTEX
  8
C7
  10
391.453800
  20
539.640800
  0
VERTEX
  8
C7
  10
390.914700
  20
539.732200
  0
VERTEX
  8
C7
  10
390.364800
  20
539.736500
  0
VERTEX
  8
C7
  10
389.807800
  20
539.648500
  0
VERTEX
  8
C7
  10
389.247000
  20
539.462800
  0
VERTEX
  8
C7
  10
388.686100
  20
539.174100
  0
VERTEX
  8
C7
  10
388.128400
  20
538.777000
  0
VERTEX
  8
C7
  10
387.577400
  20
538.266400
  0
VERTEX
  8
C7
  10
387.036700
  20
537.636900
  0
VERTEX
  8
C7
  10
386.509700
  20
536.883200
  0
VERTEX
  8
C7
  10
386.000000
  20
536.000000
  0
SEQEND
  8
C7
  0
POLYLINE
  8
C7
  66
1
  10
405.000000
  20
535.000000
  0
VERTEX
  8
C7
  10
405.000000
  20
535.000000
  0
VERTEX
  8
C7
  10
409.000000
  20
537.000000
  0
VERTEX
  8
C7
  10
402.000000
  20
526.000000
  0
VERTEX
  8
C7
  10
411.000000
  20
526.000000
  0
VERTEX
  8
C7
  10
411.000000
  20
529.000000
  0
VERTEX
  8
C7
  10
407.000000
  20
529.000000
  0
VERTEX
  8
C7
  10
407.628000
  20
529.759000
  0
VERTEX
  8
C7
  10
408.269200
  20
530.525100
  0
VERTEX
  8
C7
  10
408.882500
  20
531.316100
  0
VERTEX
  8
C7
  10
409.427100
  20
532.149700
  0
VERTEX
  8
C7
  10
409.861800
  20
533.043900
  0
VERTEX
  8
C7
  10
410.171700
  20
533.915100
  0
VERTEX
  8
C7
  10
410.391300
  20
534.716000
  0
VERTEX
  8
C7
  10
410.526400
  20
535.448300
  0
VERTEX
  8
C7
  10
410.582800
  20
536.114300
  0
VERTEX
  8
C7
  10
410.566400
  20
536.716000
  0
VERTEX
  8
C7
  10
410.482900
  20
537.255300
  0
VERTEX
  8
C7
  10
410.338200
  20
537.734400
  0
VERTEX
  8
C7
  10
410.138000
  20
538.155300
  0
VERTEX
  8
C7
  10
409.888200
  20
538.520000
  0
VERTEX
  8
C7
  10
409.594600
  20
538.830700
  0
VERTEX
  8
C7
  10
409.262900
  20
539.089300
  0
VERTEX
  8
C7
  10
408.899000
  20
539.297800
  0
VERTEX
  8
C7
  10
408.508700
  20
539.458400
  0
VERTEX
  8
C7
  10
408.097900
  20
539.573100
  0
VERTEX
  8
C7
  10
407.672200
  20
539.643900
  0
VERTEX
  8
C7
  10
407.237600
  20
539.672900
  0
VERTEX
  8
C7
  10
406.799800
  20
539.662100
  0
VERTEX
  8
C7
  10
406.364700
  20
539.613600
  0
VERTEX
  8
C7
  10
405.938000
  20
539.529400
  0
VERTEX
  8
C7
  10
405.525500
  20
539.411600
  0
VERTEX
  8
C7
  10
405.133200
  20
539.262200
  0
VERTEX
  8
C7
  10
404.766700
  20
539.083200
  0
VERTEX
  8
C7
  10
404.431900
  20
538.876800
  0
VERTEX
  8
C7
  10
404.134500
  20
538.644900
  0
VERTEX
  8
C7
  10
403.880500
  20
538.389600
  0
VERTEX
  8
C7
  10
403.675600
  20
538.112900
  0
VERTEX
  8
C7
  10
403.525700
  20
537.817000
  0
VERTEX
  8
C7
  10
403.436400
  20
537.503700
  0
VERTEX
  8
C7
  10
403.413700
  20
537.175300
  0
VERTEX
  8
C7
  10
403.463300
  20
536.833700
  0
VERTEX
  8
C7
  10
403.591100
  20
536.481000
  0
VERTEX
  8
C7
  10
403.802800
  20
536.119200
  0
VERTEX
  8
C7
  10
404.104400
  20
535.750400
  0
VERTEX
  8
C7
  10
404.501500
  20
535.376700
  0
VERTEX
  8
C7
  10
405.000000
  20
535.000000
  0
SEQEND
  8
C7
  0
POLYLINE
  8
C7
  66
1
  10
444.000000
  20
541.000000
  0
VERTEX
  8
C7
  10
444.000000
  20
541.000000
  0
VERTEX
  8
C7
  10
444.000000
  20
522.000000
  0
VERTEX
  8
C7
  10
444.750400
  20
522.476600
  0
VERTEX
  8
C7
  10
445.440900
  20
523.014300
  0
VERTEX
  8
C7
  10
446.071300
  20
523.607800
  0
VERTEX
  8
C7
  10
446.641600
  20
524.252200
  0
VERTEX
  8
C7
  10
447.152000
  20
524.942300
  0
VERTEX
  8
C7
  10
447.602200
  20
525.673100
  0
VERTEX
  8
C7
  10
447.992500
  20
526.439400
  0
VERTEX
  8
C7
  10
448.322700
  20
527.236200
  0
VERTEX
  8
C7
  10
448.592900
  20
528.058500
  0
VERTEX
  8
C7
  10
448.803000
  20
528.901100
  0
VERTEX
  8
C7
  10
448.953100
  20
529.758900
  0
VERTEX
  8
C7
  10
449.043200
  20
530.626900
  0
VERTEX
  8
C7
  10
449.073200
  20
531.499900
  0
VERTEX
  8
C7
  10
449.043200
  20
532.373000
  0
VERTEX
  8
C7
  10
448.953100
  20
533.241000
  0
VERTEX
  8
C7
  10
448.803000
  20
534.098800
  0
VERTEX
  8
C7
  10
448.592900
  20
534.941300
  0
VERTEX
  8
C7
  10
448.322700
  20
535.763600
  0
VERTEX
  8
C7
  10
447.992500
  20
536.560400
  0
VERTEX
  8
C7
  10
447.602200
  20
537.326800
  0
VERTEX
  8
C7
  10
447.152000
  20
538.057500
  0
VERTEX
  8
C7
  10
446.641600
  20
538.747700
  0
VERTEX
  8
C7
  10
446.071300
  20
539.392000
  0
VERTEX
  8
C7
  10
445.440900
  20
539.985600
  0
VERTEX
  8
C7
  10
444.750400
  20
540.523300
  0
VERTEX
  8
C7
  10
444.000000
  20
541.000000
  0
SEQEND
  8
C7
  0
POLYLINE
  8
C7
  66
1
  10
352.000000
  20
540.000000
  0
VERTEX
  8
C7
  10
352.000000
  20
540.000000
  0
VERTEX
  8
C7
  10
355.000000
  20
535.000000
  0
VERTEX
  8
C7
  10
355.000000
  20
540.000000
  0
VERTEX
  8
C7
  10
352.000000
  20
540.000000
  0
SEQEND
  8
C7
  0
POLYLINE
  8
C7
  66
1
  10
356.000000
  20
540.000000
  0
VERTEX
  8
C7
  10
356.000000
  20
540.000000
  0
VERTEX
  8
C7
  10
356.000000
  20
535.000000
  0
VERTEX
  8
C7
  10
359.000000
  20
540.000000
  0
VERTEX
  8
C7
  10
356.000000
  20
540.000000
  0
SEQEND
  8
C7
  0
POLYLINE
  8
C7
  66
1
  10
345.000000
  20
537.000000
  0
VERTEX
  8
C7
  10
345.000000
  20
537.000000
  0
VERTEX
  8
C7
  10
345.000000
  20
536.000000
  0
VERTEX
  8
C7
  10
348.000000
  20
535.000000
  0
VERTEX
  8
C7
  10
348.000000
  20
538.000000
  0
VERTEX
  8
C7
  10
345.000000
  20
537.000000
  0
SEQEND
  8
C7
  0
POLYLINE
  8
C7
  66
1
  10
380.000000
  20
538.000000
  0
VERTEX
  8
C7
  10
380.000000
  20
538.000000
  0
VERTEX
  8
C7
  10
380.000000
  20
528.000000
  0
VERTEX
  8
C7
  10
380.779900
  20
528.836200
  0
VERTEX
  8
C7
  10
381.406000
  20
529.662900
  0
VERTEX
  8
C7
  10
381.889500
  20
530.488100
  0
VERTEX
  8
C7
  10
382.242000
  20
531.319900
  0
VERTEX
  8
C7
  10
382.474900
  20
532.166200
  0
VERTEX
  8
C7
  10
382.599500
  20
533.035100
  0
VERTEX
  8
C7
  10
382.627400
  20
533.934700
  0
VERTEX
  8
C7
  10
382.570000
  20
534.872900
  0
VERTEX
  8
C7
  10
382.438600
  20
535.857900
  0
VERTEX
  8
C7
  10
382.244800
  20
536.897500
  0
VERTEX
  8
C7
  10
382.000000
  20
538.000000
  0
VERTEX
  8
C7
  10
380.000000
  20
538.000000
  0
SEQEND
  8
C7
  0
POLYLINE
  8
C7
  66
1
  10
413.000000
  20
537.000000
  0
VERTEX
  8
C7
  10
413.000000
  20
537.000000
  0
VERTEX
  8
C7
  10
413.000000
  20
526.000000
  0
VERTEX
  8
C7
  10
415.000000
  20
526.000000
  0
VERTEX
  8
C7
  10
418.000000
  20
534.000000
  0
VERTEX
  8
C7
  10
418.000000
  20
526.000000
  0
VERTEX
  8
C7
  10
421.000000
  20
526.000000
  0
VERTEX
  8
C7
  10
421.000000
  20
534.000000
  0
VERTEX
  8
C7
  10
424.000000
  20
534.000000
  0
VERTEX
  8
C7
  10
424.000000
  20
526.000000
  0
VERTEX
  8
C7
  10
427.000000
  20
526.000000
  0
VERTEX
  8
C7
  10
426.976500
  20
527.291100
  0
VERTEX
  8
C7
  10
426.907700
  20
528.476500
  0
VERTEX
  8
C7
  10
426.793400
  20
529.560800
  0
VERTEX
  8
C7
  10
426.632800
  20
530.548400
  0
VERTEX
  8
C7
  10
426.425600
  20
531.444000
  0
VERTEX
  8
C7
  10
426.171400
  20
532.252100
  0
VERTEX
  8
C7
  10
425.869500
  20
532.977100
  0
VERTEX
  8
C7
  10
425.519600
  20
533.623700
  0
VERTEX
  8
C7
  10
425.121200
  20
534.196400
  0
VERTEX
  8
C7
  10
424.673700
  20
534.699600
  0
VERTEX
  8
C7
  10
424.176800
  20
535.138000
  0
VERTEX
  8
C7
  10
423.630000
  20
535.516100
  0
VERTEX
  8
C7
  10
423.032700
  20
535.838400
  0
VERTEX
  8
C7
  10
422.384600
  20
536.109500
  0
VERTEX
  8
C7
  10
421.685100
  20
536.333900
  0
VERTEX
  8
C7
  10
420.933700
  20
536.516100
  0
VERTEX
  8
C7
  10
420.130100
  20
536.660600
  0
VERTEX
  8
C7
  10
419.273600
  20
536.772100
  0
VERTEX
  8
C7
  10
418.363900
  20
536.855000
  0
VERTEX
  8
C7
  10
417.400500
  20
536.913900
  0
VERTEX
  8
C7
  10
416.382800
  20
536.953300
  0
VERTEX
  8
C7
  10
415.310500
  20
536.977700
  0
VERTEX
  8
C7
  10
414.183000
  20
536.991800
  0
VERTEX
  8
C7
  10
413.000000
  20
537.000000
  0
SEQEND
  8
C7
  0
POLYLINE
  8
C7
  66
1
  10
428.000000
  20
537.000000
  0
VERTEX
  8
C7
  10
428.000000
  20
537.000000
  0
VERTEX
  8
C7
  10
428.000000
  20
526.000000
  0
VERTEX
  8
C7
  10
431.000000
  20
526.000000
  0
VERTEX
  8
C7
  10
431.000000
  20
534.000000
  0
VERTEX
  8
C7
  10
434.000000
  20
534.000000
  0
VERTEX
  8
C7
  10
434.000000
  20
526.000000
  0
VERTEX
  8
C7
  10
437.000000
  20
526.000000
  0
VERTEX
  8
C7
  10
437.000000
  20
534.000000
  0
VERTEX
  8
C7
  10
440.000000
  20
534.000000
  0
VERTEX
  8
C7
  10
440.000000
  20
526.000000
  0
VERTEX
  8
C7
  10
442.000000
  20
526.000000
  0
VERTEX
  8
C7
  10
441.981600
  20
527.287800
  0
VERTEX
  8
C7
  10
441.926000
  20
528.470900
  0
VERTEX
  8
C7
  10
441.832300
  20
529.553500
  0
VERTEX
  8
C7
  10
441.699200
  20
530.540300
  0
VERTEX
  8
C7
  10
441.526000
  20
531.435600
  0
VERTEX
  8
C7
  10
441.311300
  20
532.243900
  0
VERTEX
  8
C7
  10
441.054300
  20
532.969600
  0
VERTEX
  8
C7
  10
440.754000
  20
533.617300
  0
VERTEX
  8
C7
  10
440.409100
  20
534.191300
  0
VERTEX
  8
C7
  10
440.018800
  20
534.696100
  0
VERTEX
  8
C7
  10
439.582000
  20
535.136300
  0
VERTEX
  8
C7
  10
439.097600
  20
535.516200
  0
VERTEX
  8
C7
  10
438.564600
  20
535.840300
  0
VERTEX
  8
C7
  10
437.982000
  20
536.113000
  0
VERTEX
  8
C7
  10
437.348700
  20
536.338900
  0
VERTEX
  8
C7
  10
436.663700
  20
536.522300
  0
VERTEX
  8
C7
  10
435.925900
  20
536.667800
  0
VERTEX
  8
C7
  10
435.134300
  20
536.779800
  0
VERTEX
  8
C7
  10
434.288000
  20
536.862700
  0
VERTEX
  8
C7
  10
433.385700
  20
536.921100
  0
VERTEX
  8
C7
  10
432.426500
  20
536.959300
  0
VERTEX
  8
C7
  10
431.409400
  20
536.981800
  0
VERTEX
  8
C7
  10
430.333300
  20
536.993100
  0
VERTEX
  8
C7
  10
429.197200
  20
536.997700
  0
VERTEX
  8
C7
  10
428.000000
  20
537.000000
  0
SEQEND
  8
C7
  0
POLYLINE
  8
C7
  66
1
  10
328.000000
  20
536.000000
  0
VERTEX
  8
C7
  10
328.000000
  20
536.000000
  0
VERTEX
  8
C7
  10
328.000000
  20
532.000000
  0
VERTEX
  8
C7
  10
301.000000
  20
532.000000
  0
VERTEX
  8
C7
  10
301.000000
  20
531.000000
  0
VERTEX
  8
C7
  10
328.000000
  20
531.000000
  0
VERTEX
  8
C7
  10
328.006400
  20
530.123300
  0
VERTEX
  8
C7
  10
328.025000
  20
529.223800
  0
VERTEX
  8
C7
  10
328.054500
  20
528.302900
  0
VERTEX
  8
C7
  10
328.094000
  20
527.361900
  0
VERTEX
  8
C7
  10
328.142300
  20
526.402100
  0
VERTEX
  8
C7
  10
328.198300
  20
525.424900
  0
VERTEX
  8
C7
  10
328.260900
  20
524.431600
  0
VERTEX
  8
C7
  10
328.328900
  20
523.423600
  0
VERTEX
  8
C7
  10
328.401300
  20
522.402100
  0
VERTEX
  8
C7
  10
328.476900
  20
521.368700
  0
VERTEX
  8
C7
  10
328.554600
  20
520.324500
  0
VERTEX
  8
C7
  10
328.633400
  20
519.271000
  0
VERTEX
  8
C7
  10
328.712000
  20
518.209500
  0
VERTEX
  8
C7
  10
328.789500
  20
517.141300
  0
VERTEX
  8
C7
  10
328.864600
  20
516.067800
  0
VERTEX
  8
C7
  10
328.936300
  20
514.990300
  0
VERTEX
  8
C7
  10
329.003500
  20
513.910200
  0
VERTEX
  8
C7
  10
329.065000
  20
512.828800
  0
VERTEX
  8
C7
  10
329.119700
  20
511.747500
  0
VERTEX
  8
C7
  10
329.166600
  20
510.667500
  0
VERTEX
  8
C7
  10
329.204500
  20
509.590300
  0
VERTEX
  8
C7
  10
329.232300
  20
508.517200
  0
VERTEX
  8
C7
  10
329.248900
  20
507.449500
  0
VERTEX
  8
C7
  10
329.253100
  20
506.388600
  0
VERTEX
  8
C7
  10
329.243900
  20
505.335800
  0
VERTEX
  8
C7
  10
329.220200
  20
504.292400
  0
VERTEX
  8
C7
  10
329.180800
  20
503.259900
  0
VERTEX
  8
C7
  10
329.124700
  20
502.239500
  0
VERTEX
  8
C7
  10
329.050700
  20
501.232700
  0
VERTEX
  8
C7
  10
328.957700
  20
500.240600
  0
VERTEX
  8
C7
  10
328.844600
  20
499.264800
  0
VERTEX
  8
C7
  10
328.710200
  20
498.306500
  0
VERTEX
  8
C7
  10
328.553600
  20
497.367000
  0
VERTEX
  8
C7
  10
328.373500
  20
496.447800
  0
VERTEX
  8
C7
  10
328.168900
  20
495.550100
  0
VERTEX
  8
C7
  10
327.938600
  20
494.675400
  0
VERTEX
  8
C7
  10
327.681500
  20
493.824900
  0
VERTEX
  8
C7
  10
327.396600
  20
493.000000
  0
VERTEX
  8
C7
  10
327.006500
  20
492.075100
  0
VERTEX
  8
C7
  10
326.535600
  20
491.178600
  0
VERTEX
  8
C7
  10
325.993100
  20
490.308700
  0
VERTEX
  8
C7
  10
325.388500
  20
489.463600
  0
VERTEX
  8
C7
  10
324.731300
  20
488.641600
  0
VERTEX
  8
C7
  10
324.030800
  20
487.841100
  0
VERTEX
  8
C7
  10
323.296500
  20
487.060300
  0
VERTEX
  8
C7
  10
322.537800
  20
486.297400
  0
VERTEX
  8
C7
  10
321.764000
  20
485.550700
  0
VERTEX
  8
C7
  10
320.984700
  20
484.818500
  0
VERTEX
  8
C7
  10
320.209200
  20
484.099000
  0
VERTEX
  8
C7
  10
319.447000
  20
483.390600
  0
VERTEX
  8
C7
  10
318.707400
  20
482.691500
  0
VERTEX
  8
C7
  10
318.000000
  20
482.000000
  0
VERTEX
  8
C7
  10
317.335300
  20
481.322300
  0
VERTEX
  8
C7
  10
316.666100
  20
480.617900
  0
VERTEX
  8
C7
  10
315.991800
  20
479.891300
  0
VERTEX
  8
C7
  10
315.311700
  20
479.147100
  0
VERTEX
  8
C7
  10
314.625300
  20
478.390000
  0
VERTEX
  8
C7
  10
313.932000
  20
477.624700
  0
VERTEX
  8
C7
  10
313.231000
  20
476.855600
  0
VERTEX
  8
C7
  10
312.521800
  20
476.087600
  0
VERTEX
  8
C7
  10
311.803700
  20
475.325100
  0
VERTEX
  8
C7
  10
311.076200
  20
474.572900
  0
VERTEX
  8
C7
  10
310.338600
  20
473.835600
  0
VERTEX
  8
C7
  10
309.590300
  20
473.117800
  0
VERTEX
  8
C7
  10
308.830700
  20
472.424000
  0
VERTEX
  8
C7
  10
308.059100
  20
471.759100
  0
VERTEX
  8
C7
  10
307.274900
  20
471.127500
  0
VERTEX
  8
C7
  10
306.477500
  20
470.533900
  0
VERTEX
  8
C7
  10
305.666300
  20
469.983000
  0
VERTEX
  8
C7
  10
304.840700
  20
469.479400
  0
VERTEX
  8
C7
  10
304.000000
  20
469.027700
  0
VERTEX
  8
C7
  10
303.281700
  20
468.691100
  0
VERTEX
  8
C7
  10
302.531000
  20
468.382300
  0
VERTEX
  8
C7
  10
301.749300
  20
468.100300
  0
VERTEX
  8
C7
  10
300.938000
  20
467.844100
  0
VERTEX
  8
C7
  10
300.098700
  20
467.613000
  0
VERTEX
  8
C7
  10
299.232700
  20
467.405800
  0
VERTEX
  8
C7
  10
298.341600
  20
467.221600
  0
VERTEX
  8
C7
  10
297.426800
  20
467.059600
  0
VERTEX
  8
C7
  10
296.489700
  20
466.918700
  0
VERTEX
  8
C7
  10
295.531900
  20
466.798100
  0
VERTEX
  8
C7
  10
294.554700
  20
466.696700
  0
VERTEX
  8
C7
  10
293.559600
  20
466.613700
  0
VERTEX
  8
C7
  10
292.548100
  20
466.548000
  0
VERTEX
  8
C7
  10
291.521700
  20
466.498800
  0
VERTEX
  8
C7
  10
290.481700
  20
466.465200
  0
VERTEX
  8
C7
  10
289.429700
  20
466.446100
  0
VERTEX
  8
C7
  10
288.367100
  20
466.440600
  0
VERTEX
  8
C7
  10
287.295400
  20
466.447800
  0
VERTEX
  8
C7
  10
286.216000
  20
466.466700
  0
VERTEX
  8
C7
  10
285.130400
  20
466.496500
  0
VERTEX
  8
C7
  10
284.040000
  20
466.536100
  0
VERTEX
  8
C7
  10
282.946300
  20
466.584600
  0
VERTEX
  8
C7
  10
281.850800
  20
466.641100
  0
VERTEX
  8
C7
  10
280.754900
  20
466.704600
  0
VERTEX
  8
C7
  10
279.660000
  20
466.774200
  0
VERTEX
  8
C7
  10
278.567700
  20
466.848900
  0
VERTEX
  8
C7
  10
277.479400
  20
466.927900
  0
VERTEX
  8
C7
  10
276.396500
  20
467.010100
  0
VERTEX
  8
C7
  10
275.320500
  20
467.094600
  0
VERTEX
  8
C7
  10
274.252900
  20
467.180500
  0
VERTEX
  8
C7
  10
273.195100
  20
467.266900
  0
VERTEX
  8
C7
  10
272.148600
  20
467.352700
  0
VERTEX
  8
C7
  10
271.114800
  20
467.437100
  0
VERTEX
  8
C7
  10
270.095100
  20
467.519100
  0
VERTEX
  8
C7
  10
269.091200
  20
467.597700
  0
VERTEX
  8
C7
  10
268.104300
  20
467.672100
  0
VERTEX
  8
C7
  10
267.136000
  20
467.741200
  0
VERTEX
  8
C7
  10
266.187700
  20
467.804200
  0
VERTEX
  8
C7
  10
265.260900
  20
467.860100
  0
VERTEX
  8
C7
  10
264.357000
  20
467.907900
  0
VERTEX
  8
C7
  10
263.477500
  20
467.946800
  0
VERTEX
  8
C7
  10
262.623900
  20
467.975700
  0
VERTEX
  8
C7
  10
261.797500
  20
467.993700
  0
VERTEX
  8
C7
  10
261.000000
  20
468.000000
  0
VERTEX
  8
C7
  10
288.000000
  20
496.000000
  0
VERTEX
  8
C7
  10
287.264200
  20
495.468600
  0
VERTEX
  8
C7
  10
286.538900
  20
494.919300
  0
VERTEX
  8
C7
  10
285.823300
  20
494.353300
  0
VERTEX
  8
C7
  10
285.117100
  20
493.771500
  0
VERTEX
  8
C7
  10
284.419600
  20
493.174900
  0
VERTEX
  8
C7
  10
283.730100
  20
492.564800
  0
VERTEX
  8
C7
  10
283.048300
  20
491.942000
  0
VERTEX
  8
C7
  10
282.373400
  20
491.307800
  0
VERTEX
  8
C7
  10
281.704900
  20
490.663100
  0
VERTEX
  8
C7
  10
281.042200
  20
490.008900
  0
VERTEX
  8
C7
  10
280.384900
  20
489.346500
  0
VERTEX
  8
C7
  10
279.732200
  20
488.676700
  0
VERTEX
  8
C7
  10
279.083600
  20
488.000700
  0
VERTEX
  8
C7
  10
278.438600
  20
487.319600
  0
VERTEX
  8
C7
  10
277.796600
  20
486.634300
  0
VERTEX
  8
C7
  10
277.157000
  20
485.946000
  0
VERTEX
  8
C7
  10
276.519300
  20
485.255700
  0
VERTEX
  8
C7
  10
275.882800
  20
484.564500
  0
VERTEX
  8
C7
  10
275.247000
  20
483.873500
  0
VERTEX
  8
C7
  10
274.611400
  20
483.183600
  0
VERTEX
  8
C7
  10
273.975300
  20
482.495900
  0
VERTEX
  8
C7
  10
273.338200
  20
481.811600
  0
VERTEX
  8
C7
  10
272.699500
  20
481.131600
  0
VERTEX
  8
C7
  10
272.058600
  20
480.457100
  0
VERTEX
  8
C7
  10
271.415100
  20
479.789100
  0
VERTEX
  8
C7
  10
270.768200
  20
479.128600
  0
VERTEX
  8
C7
  10
270.117500
  20
478.476700
  0
VERTEX
  8
C7
  10
269.462300
  20
477.834500
  0
VERTEX
  8
C7
  10
268.802100
  20
477.203000
  0
VERTEX
  8
C7
  10
268.136400
  20
476.583200
  0
VERTEX
  8
C7
  10
267.464500
  20
475.976400
  0
VERTEX
  8
C7
  10
266.785800
  20
475.383400
  0
VERTEX
  8
C7
  10
266.099900
  20
474.805400
  0
VERTEX
  8
C7
  10
265.406100
  20
474.243400
  0
VERTEX
  8
C7
  10
264.703900
  20
473.698500
  0
VERTEX
  8
C7
  10
263.992700
  20
473.171800
  0
VERTEX
  8
C7
  10
263.271900
  20
472.664200
  0
VERTEX
  8
C7
  10
262.541000
  20
472.176900
  0
VERTEX
  8
C7
  10
261.799300
  20
471.710900
  0
VERTEX
  8
C7
  10
261.046300
  20
471.267300
  0
VERTEX
  8
C7
  10
260.281500
  20
470.847200
  0
VERTEX
  8
C7
  10
259.504300
  20
470.451500
  0
VERTEX
  8
C7
  10
258.714000
  20
470.081400
  0
VERTEX
  8
C7
  10
257.910200
  20
469.737900
  0
VERTEX
  8
C7
  10
257.092300
  20
469.422100
  0
VERTEX
  8
C7
  10
256.259600
  20
469.135000
  0
VERTEX
  8
C7
  10
255.411600
  20
468.877700
  0
VERTEX
  8
C7
  10
254.547800
  20
468.651300
  0
VERTEX
  8
C7
  10
253.667600
  20
468.456800
  0
VERTEX
  8
C7
  10
252.770300
  20
468.295200
  0
VERTEX
  8
C7
  10
251.855500
  20
468.167700
  0
VERTEX
  8
C7
  10
250.922600
  20
468.075300
  0
VERTEX
  8
C7
  10
249.970900
  20
468.019000
  0
VERTEX
  8
C7
  10
249.000000
  20
468.000000
  0
VERTEX
  8
C7
  10
249.000000
  20
495.000000
  0
VERTEX
  8
C7
  10
248.000000
  20
495.000000
  0
VERTEX
  8
C7
  10
248.000000
  20
468.000000
  0
VERTEX
  8
C7
  10
215.000000
  20
468.000000
  0
VERTEX
  8
C7
  10
243.000000
  20
497.000000
  0
VERTEX
  8
C7
  10
242.236400
  20
496.446700
  0
VERTEX
  8
C7
  10
241.483400
  20
495.871000
  0
VERTEX
  8
C7
  10
240.740300
  20
495.274400
  0
VERTEX
  8
C7
  10
240.006500
  20
494.657900
  0
VERTEX
  8
C7
  10
239.281400
  20
494.022900
  0
VERTEX
  8
C7
  10
238.564500
  20
493.370700
  0
VERTEX
  8
C7
  10
237.855000
  20
492.702400
  0
VERTEX
  8
C7
  10
237.152400
  20
492.019400
  0
VERTEX
  8
C7
  10
236.456000
  20
491.322800
  0
VERTEX
  8
C7
  10
235.765300
  20
490.614100
  0
VERTEX
  8
C7
  10
235.079700
  20
489.894400
  0
VERTEX
  8
C7
  10
234.398500
  20
489.165000
  0
VERTEX
  8
C7
  10
233.721100
  20
488.427100
  0
VERTEX
  8
C7
  10
233.046900
  20
487.682100
  0
VERTEX
  8
C7
  10
232.375400
  20
486.931200
  0
VERTEX
  8
C7
  10
231.705800
  20
486.175600
  0
VERTEX
  8
C7
  10
231.037600
  20
485.416600
  0
VERTEX
  8
C7
  10
230.370200
  20
484.655400
  0
VERTEX
  8
C7
  10
229.703000
  20
483.893400
  0
VERTEX
  8
C7
  10
229.035300
  20
483.131800
  0
VERTEX
  8
C7
  10
228.366600
  20
482.371800
  0
VERTEX
  8
C7
  10
227.696200
  20
481.614800
  0
VERTEX
  8
C7
  10
227.023600
  20
480.861900
  0
VERTEX
  8
C7
  10
226.348000
  20
480.114400
  0
VERTEX
  8
C7
  10
225.669000
  20
479.373700
  0
VERTEX
  8
C7
  10
224.985900
  20
478.640900
  0
VERTEX
  8
C7
  10
224.298000
  20
477.917300
  0
VERTEX
  8
C7
  10
223.604800
  20
477.204200
  0
VERTEX
  8
C7
  10
222.905700
  20
476.502900
  0
VERTEX
  8
C7
  10
222.200100
  20
475.814500
  0
VERTEX
  8
C7
  10
221.487300
  20
475.140400
  0
VERTEX
  8
C7
  10
220.766700
  20
474.481900
  0
VERTEX
  8
C7
  10
220.037800
  20
473.840100
  0
VERTEX
  8
C7
  10
219.299900
  20
473.216300
  0
VERTEX
  8
C7
  10
218.552400
  20
472.611900
  0
VERTEX
  8
C7
  10
217.794600
  20
472.028100
  0
VERTEX
  8
C7
  10
217.026100
  20
471.466100
  0
VERTEX
  8
C7
  10
216.246200
  20
470.927200
  0
VERTEX
  8
C7
  10
215.454200
  20
470.412600
  0
VERTEX
  8
C7
  10
214.649600
  20
469.923600
  0
VERTEX
  8
C7
  10
213.831700
  20
469.461600
  0
VERTEX
  8
C7
  10
213.000000
  20
469.027700
  0
VERTEX
  8
C7
  10
212.281700
  20
468.691100
  0
VERTEX
  8
C7
  10
211.531000
  20
468.382300
  0
VERTEX
  8
C7
  10
210.749300
  20
468.100300
  0
VERTEX
  8
C7
  10
209.938000
  20
467.844100
  0
VERTEX
  8
C7
  10
209.098700
  20
467.613000
  0
VERTEX
  8
C7
  10
208.232700
  20
467.405800
  0
VERTEX
  8
C7
  10
207.341600
  20
467.221600
  0
VERTEX
  8
C7
  10
206.426800
  20
467.059600
  0
VERTEX
  8
C7
  10
205.489700
  20
466.918700
  0
VERTEX
  8
C7
  10
204.531900
  20
466.798100
  0
VERTEX
  8
C7
  10
203.554700
  20
466.696700
  0
VERTEX
  8
C7
  10
202.559600
  20
466.613700
  0
VERTEX
  8
C7
  10
201.548100
  20
466.548000
  0
VERTEX
  8
C7
  10
200.521700
  20
466.498800
  0
VERTEX
  8
C7
  10
199.481700
  20
466.465200
  0
VERTEX
  8
C7
  10
198.429700
  20
466.446100
  0
VERTEX
  8
C7
  10
197.367100
  20
466.440600
  0
VERTEX
  8
C7
  10
196.295400
  20
466.447800
  0
VERTEX
  8
C7
  10
195.216000
  20
466.466700
  0
VERTEX
  8
C7
  10
194.130400
  20
466.496500
  0
VERTEX
  8
C7
  10
193.040000
  20
466.536100
  0
VERTEX
  8
C7
  10
191.946300
  20
466.584600
  0
VERTEX
  8
C7
  10
190.850800
  20
466.641100
  0
VERTEX
  8
C7
  10
189.754900
  20
466.704600
  0
VERTEX
  8
C7
  10
188.660000
  20
466.774200
  0
VERTEX
  8
C7
  10
187.567700
  20
466.848900
  0
VERTEX
  8
C7
  10
186.479400
  20
466.927900
  0
VERTEX
  8
C7
  10
185.396500
  20
467.010100
  0
VERTEX
  8
C7
  10
184.320500
  20
467.094600
  0
VERTEX
  8
C7
  10
183.252900
  20
467.180500
  0
VERTEX
  8
C7
  10
182.195100
  20
467.266900
  0
VERTEX
  8
C7
  10
181.148600
  20
467.352700
  0
VERTEX
  8
C7
  10
180.114800
  20
467.437100
  0
VERTEX
  8
C7
  10
179.095100
  20
467.519100
  0
VERTEX
  8
C7
  10
178.091200
  20
467.597700
  0
VERTEX
  8
C7
  10
177.104300
  20
467.672100
  0
VERTEX
  8
C7
  10
176.136000
  20
467.741200
  0
VERTEX
  8
C7
  10
175.187700
  20
467.804200
  0
VERTEX
  8
C7
  10
174.260900
  20
467.860100
  0
VERTEX
  8
C7
  10
173.357000
  20
467.907900
  0
VERTEX
  8
C7
  10
172.477500
  20
467.946800
  0
VERTEX
  8
C7
  10
171.623900
  20
467.975700
  0
VERTEX
  8
C7
  10
170.797500
  20
467.993700
  0
VERTEX
  8
C7
  10
170.000000
  20
468.000000
  0
VERTEX
  8
C7
  10
197.000000
  20
496.000000
  0
VERTEX
  8
C7
  10
196.244200
  20
495.452100
  0
VERTEX
  8
C7
  10
195.499200
  20
494.881800
  0
VERTEX
  8
C7
  10
194.764100
  20
494.290500
  0
VERTEX
  8
C7
  10
194.038400
  20
493.679300
  0
VERTEX
  8
C7
  10
193.321400
  20
493.049600
  0
VERTEX
  8
C7
  10
192.612600
  20
492.402800
  0
VERTEX
  8
C7
  10
191.911200
  20
491.740000
  0
VERTEX
  8
C7
  10
191.216700
  20
491.062600
  0
VERTEX
  8
C7
  10
190.528300
  20
490.371900
  0
VERTEX
  8
C7
  10
189.845600
  20
489.669200
  0
VERTEX
  8
C7
  10
189.167800
  20
488.955900
  0
VERTEX
  8
C7
  10
188.494300
  20
488.233100
  0
VERTEX
  8
C7
  10
187.824500
  20
487.502200
  0
VERTEX
  8
C7
  10
187.157700
  20
486.764500
  0
VERTEX
  8
C7
  10
186.493400
  20
486.021300
  0
VERTEX
  8
C7
  10
185.830800
  20
485.274000
  0
VERTEX
  8
C7
  10
185.169400
  20
484.523700
  0
VERTEX
  8
C7
  10
184.508600
  20
483.771800
  0
VERTEX
  8
C7
  10
183.847600
  20
483.019600
  0
VERTEX
  8
C7
  10
183.185900
  20
482.268400
  0
VERTEX
  8
C7
  10
182.522800
  20
481.519600
  0
VERTEX
  8
C7
  10
181.857700
  20
480.774300
  0
VERTEX
  8
C7
  10
181.190000
  20
480.033900
  0
VERTEX
  8
C7
  10
180.519000
  20
479.299700
  0
VERTEX
  8
C7
  10
179.844100
  20
478.573100
  0
VERTEX
  8
C7
  10
179.164700
  20
477.855200
  0
VERTEX
  8
C7
  10
178.480100
  20
477.147400
  0
VERTEX
  8
C7
  10
177.789700
  20
476.451100
  0
VERTEX
  8
C7
  10
177.092900
  20
475.767400
  0
VERTEX
  8
C7
  10
176.389000
  20
475.097800
  0
VERTEX
  8
C7
  10
175.677500
  20
474.443400
  0
VERTEX
  8
C7
  10
174.957600
  20
473.805700
  0
VERTEX
  8
C7
  10
174.228800
  20
473.185800
  0
VERTEX
  8
C7
  10
173.490300
  20
472.585200
  0
VERTEX
  8
C7
  10
172.741700
  20
472.005000
  0
VERTEX
  8
C7
  10
171.982200
  20
471.446700
  0
VERTEX
  8
C7
  10
171.211300
  20
470.911500
  0
VERTEX
  8
C7
  10
170.428200
  20
470.400700
  0
VERTEX
  8
C7
  10
169.632400
  20
469.915600
  0
VERTEX
  8
C7
  10
168.823200
  20
469.457500
  0
VERTEX
  8
C7
  10
168.000000
  20
469.027700
  0
VERTEX
  8
C7
  10
167.281700
  20
468.691100
  0
VERTEX
  8
C7
  10
166.531000
  20
468.382300
  0
VERTEX
  8
C7
  10
165.749300
  20
468.100300
  0
VERTEX
  8
C7
  10
164.938000
  20
467.844100
  0
VERTEX
  8
C7
  10
164.098700
  20
467.613000
  0
VERTEX
  8
C7
  10
163.232700
  20
467.405800
  0
VERTEX
  8
C7
  10
162.341600
  20
467.221600
  0
VERTEX
  8
C7
  10
161.426800
  20
467.059600
  0
VERTEX
  8
C7
  10
160.489700
  20
466.918700
  0
VERTEX
  8
C7
  10
159.531900
  20
466.798100
  0
VERTEX
  8
C7
  10
158.554700
  20
466.696700
  0
VERTEX
  8
C7
  10
157.559600
  20
466.613700
  0
VERTEX
  8
C7
  10
156.548100
  20
466.548000
  0
VERTEX
  8
C7
  10
155.521700
  20
466.498800
  0
VERTEX
  8
C7
  10
154.481700
  20
466.465200
  0
VERTEX
  8
C7
  10
153.429700
  20
466.446100
  0
VERTEX
  8
C7
  10
152.367100
  20
466.440600
  0
VERTEX
  8
C7
  10
151.295400
  20
466.447800
  0
VERTEX
  8
C7
  10
150.216000
  20
466.466700
  0
VERTEX
  8
C7
  10
149.130400
  20
466.496500
  0
VERTEX
  8
C7
  10
148.040000
  20
466.536100
  0
VERTEX
  8
C7
  10
146.946300
  20
466.584600
  0
VERTEX
  8
C7
  10
145.850800
  20
466.641100
  0
VERTEX
  8
C7
  10
144.754900
  20
466.704600
  0
VERTEX
  8
C7
  10
143.660000
  20
466.774200
  0
VERTEX
  8
C7
  10
142.567700
  20
466.848900
  0
VERTEX
  8
C7
  10
141.479400
  20
466.927900
  0
VERTEX
  8
C7
  10
140.396500
  20
467.010100
  0
VERTEX
  8
C7
  10
139.320500
  20
467.094600
  0
VERTEX
  8
C7
  10
138.252900
  20
467.180500
  0
VERTEX
  8
C7
  10
137.195100
  20
467.266900
  0
VERTEX
  8
C7
  10
136.148600
  20
467.352700
  0
VERTEX
  8
C7
  10
135.114800
  20
467.437100
  0
VERTEX
  8
C7
  10
134.095100
  20
467.519100
  0
VERTEX
  8
C7
  10
133.091200
  20
467.597700
  0
VERTEX
  8
C7
  10
132.104300
  20
467.672100
  0
VERTEX
  8
C7
  10
131.136000
  20
467.741200
  0
VERTEX
  8
C7
  10
130.187700
  20
467.804200
  0
VERTEX
  8
C7
  10
129.260900
  20
467.860100
  0
VERTEX
  8
C7
  10
128.357000
  20
467.907900
  0
VERTEX
  8
C7
  10
127.477500
  20
467.946800
  0
VERTEX
  8
C7
  10
126.623900
  20
467.975700
  0
VERTEX
  8
C7
  10
125.797500
  20
467.993700
  0
VERTEX
  8
C7
  10
125.000000
  20
468.000000
  0
VERTEX
  8
C7
  10
152.000000
  20
496.000000
  0
VERTEX
  8
C7
  10
123.000000
  20
469.027771
  0
VERTEX
  8
C7
  10
101.000000
  20
468.000000
  0
VERTEX
  8
C7
  10
101.000000
  20
467.000000
  0
VERTEX
  8
C7
  10
105.000000
  20
467.000000
  0
VERTEX
  8
C7
  10
103.000000
  20
453.000000
  0
VERTEX
  8
C7
  10
103.552100
  20
452.583900
  0
VERTEX
  8
C7
  10
104.051700
  20
452.089700
  0
VERTEX
  8
C7
  10
104.501100
  20
451.522000
  0
VERTEX
  8
C7
  10
104.902500
  20
450.885500
  0
VERTEX
  8
C7
  10
105.258300
  20
450.184800
  0
VERTEX
  8
C7
  10
105.570800
  20
449.424600
  0
VERTEX
  8
C7
  10
105.842200
  20
448.609500
  0
VERTEX
  8
C7
  10
106.074900
  20
447.744200
  0
VERTEX
  8
C7
  10
106.271100
  20
446.833400
  0
VERTEX
  8
C7
  10
106.433200
  20
445.881600
  0
VERTEX
  8
C7
  10
106.563400
  20
444.893500
  0
VERTEX
  8
C7
  10
106.664000
  20
443.873800
  0
VERTEX
  8
C7
  10
106.737300
  20
442.827200
  0
VERTEX
  8
C7
  10
106.785700
  20
441.758200
  0
VERTEX
  8
C7
  10
106.811300
  20
440.671500
  0
VERTEX
  8
C7
  10
106.816600
  20
439.571800
  0
VERTEX
  8
C7
  10
106.803800
  20
438.463800
  0
VERTEX
  8
C7
  10
106.775100
  20
437.352000
  0
VERTEX
  8
C7
  10
106.733000
  20
436.241100
  0
VERTEX
  8
C7
  10
106.679600
  20
435.135800
  0
VERTEX
  8
C7
  10
106.617300
  20
434.040800
  0
VERTEX
  8
C7
  10
106.548400
  20
432.960600
  0
VERTEX
  8
C7
  10
106.475200
  20
431.899900
  0
VERTEX
  8
C7
  10
106.399900
  20
430.863500
  0
VERTEX
  8
C7
  10
106.324900
  20
429.855800
  0
VERTEX
  8
C7
  10
106.252500
  20
428.881600
  0
VERTEX
  8
C7
  10
106.184900
  20
427.945600
  0
VERTEX
  8
C7
  10
106.124400
  20
427.052300
  0
VERTEX
  8
C7
  10
106.073400
  20
426.206400
  0
VERTEX
  8
C7
  10
106.034100
  20
425.412700
  0
VERTEX
  8
C7
  10
106.008900
  20
424.675600
  0
VERTEX
  8
C7
  10
106.000000
  20
424.000000
  0
VERTEX
  8
C7
  10
106.000000
  20
336.000000
  0
VERTEX
  8
C7
  10
107.000000
  20
336.000000
  0
VERTEX
  8
C7
  10
107.000000
  20
424.000000
  0
VERTEX
  8
C7
  10
107.000000
  20
467.000000
  0
VERTEX
  8
C7
  10
199.000000
  20
467.000000
  0
VERTEX
  8
C7
  10
198.000000
  20
443.000000
  0
VERTEX
  8
C7
  10
198.000000
  20
397.000000
  0
VERTEX
  8
C7
  10
198.000000
  20
246.000000
  0
VERTEX
  8
C7
  10
198.000000
  20
193.000000
  0
VERTEX
  8
C7
  10
199.027786
  20
172.317902
  0
VERTEX
  8
C7
  10
212.000000
  20
170.000000
  0
VERTEX
  8
C7
  10
249.000000
  20
170.000000
  0
VERTEX
  8
C7
  10
249.000000
  20
117.000000
  0
VERTEX
  8
C7
  10
250.000000
  20
117.000000
  0
VERTEX
  8
C7
  10
250.000000
  20
121.000000
  0
VERTEX
  8
C7
  10
314.000000
  20
121.000000
  0
VERTEX
  8
C7
  10
314.000000
  20
122.000000
  0
VERTEX
  8
C7
  10
271.000763
  20
122.004631
  0
VERTEX
  8
C7
  10
250.000000
  20
122.000000
  0
VERTEX
  8
C7
  10
250.000000
  20
170.000000
  0
VERTEX
  8
C7
  10
537.000000
  20
170.000000
  0
VERTEX
  8
C7
  10
537.000000
  20
122.000000
  0
VERTEX
  8
C7
  10
515.999207
  20
122.004631
  0
VERTEX
  8
C7
  10
473.000000
  20
122.000000
  0
VERTEX
  8
C7
  10
473.000000
  20
121.000000
  0
VERTEX
  8
C7
  10
537.000000
  20
121.000000
  0
VERTEX
  8
C7
  10
537.000000
  20
117.000000
  0
VERTEX
  8
C7
  10
538.000000
  20
117.000000
  0
VERTEX
  8
C7
  10
538.000000
  20
170.000000
  0
VERTEX
  8
C7
  10
575.000000
  20
170.000000
  0
VERTEX
  8
C7
  10
575.778300
  20
169.984700
  0
VERTEX
  8
C7
  10
576.628000
  20
169.946100
  0
VERTEX
  8
C7
  10
577.535500
  20
169.895200
  0
VERTEX
  8
C7
  10
578.487100
  20
169.843000
  0
VERTEX
  8
C7
  10
579.469200
  20
169.800400
  0
VERTEX
  8
C7
  10
580.468300
  20
169.778500
  0
VERTEX
  8
C7
  10
581.470600
  20
169.788100
  0
VERTEX
  8
C7
  10
582.462500
  20
169.840200
  0
VERTEX
  8
C7
  10
583.430500
  20
169.945900
  0
VERTEX
  8
C7
  10
584.360900
  20
170.116000
  0
VERTEX
  8
C7
  10
585.240000
  20
170.361600
  0
VERTEX
  8
C7
  10
586.054400
  20
170.693600
  0
VERTEX
  8
C7
  10
586.790200
  20
171.123000
  0
VERTEX
  8
C7
  10
587.434000
  20
171.660800
  0
VERTEX
  8
C7
  10
587.972200
  20
172.317900
  0
VERTEX
  8
C7
  10
588.342900
  20
172.932800
  0
VERTEX
  8
C7
  10
588.674800
  20
173.604100
  0
VERTEX
  8
C7
  10
588.969500
  20
174.328400
  0
VERTEX
  8
C7
  10
589.228600
  20
175.102400
  0
VERTEX
  8
C7
  10
589.454000
  20
175.922800
  0
VERTEX
  8
C7
  10
589.647200
  20
176.786300
  0
VERTEX
  8
C7
  10
589.810200
  20
177.689600
  0
VERTEX
  8
C7
  10
589.944500
  20
178.629300
  0
VERTEX
  8
C7
  10
590.051800
  20
179.602100
  0
VERTEX
  8
C7
  10
590.134000
  20
180.604800
  0
VERTEX
  8
C7
  10
590.192600
  20
181.634000
  0
VERTEX
  8
C7
  10
590.229500
  20
182.686300
  0
VERTEX
  8
C7
  10
590.246300
  20
183.758600
  0
VERTEX
  8
C7
  10
590.244700
  20
184.847400
  0
VERTEX
  8
C7
  10
590.226500
  20
185.949500
  0
VERTEX
  8
C7
  10
590.193400
  20
187.061500
  0
VERTEX
  8
C7
  10
590.147100
  20
188.180100
  0
VERTEX
  8
C7
  10
590.089300
  20
189.302100
  0
VERTEX
  8
C7
  10
590.021600
  20
190.424000
  0
VERTEX
  8
C7
  10
589.946000
  20
191.542700
  0
VERTEX
  8
C7
  10
589.864000
  20
192.654700
  0
VERTEX
  8
C7
  10
589.777300
  20
193.756800
  0
VERTEX
  8
C7
  10
589.687700
  20
194.845600
  0
VERTEX
  8
C7
  10
589.596900
  20
195.917800
  0
VERTEX
  8
C7
  10
589.506700
  20
196.970200
  0
VERTEX
  8
C7
  10
589.418600
  20
197.999400
  0
VERTEX
  8
C7
  10
589.334500
  20
199.002000
  0
VERTEX
  8
C7
  10
589.256000
  20
199.974800
  0
VERTEX
  8
C7
  10
589.184900
  20
200.914500
  0
VERTEX
  8
C7
  10
589.122900
  20
201.817800
  0
VERTEX
  8
C7
  10
589.071700
  20
202.681300
  0
VERTEX
  8
C7
  10
589.033000
  20
203.501700
  0
VERTEX
  8
C7
  10
589.008500
  20
204.275700
  0
VERTEX
  8
C7
  10
589.000000
  20
205.000000
  0
VERTEX
  8
C7
  10
693.000000
  20
205.000000
  0
VERTEX
  8
C7
  10
693.000000
  20
206.000000
  0
VERTEX
  8
C7
  10
689.000000
  20
206.000000
  0
VERTEX
  8
C7
  10
691.000000
  20
219.000000
  0
VERTEX
  8
C7
  10
690.345800
  20
219.493900
  0
VERTEX
  8
C7
  10
689.776100
  20
220.066400
  0
VERTEX
  8
C7
  10
689.285700
  20
220.710800
  0
VERTEX
  8
C7
  10
688.869100
  20
221.420700
  0
VERTEX
  8
C7
  10
688.521200
  20
222.189500
  0
VERTEX
  8
C7
  10
688.236700
  20
223.010900
  0
VERTEX
  8
C7
  10
688.010300
  20
223.878300
  0
VERTEX
  8
C7
  10
687.836700
  20
224.785200
  0
VERTEX
  8
C7
  10
687.710600
  20
225.725200
  0
VERTEX
  8
C7
  10
687.626900
  20
226.691700
  0
VERTEX
  8
C7
  10
687.580100
  20
227.678300
  0
VERTEX
  8
C7
  10
687.565100
  20
228.678500
  0
VERTEX
  8
C7
  10
687.576500
  20
229.685800
  0
VERTEX
  8
C7
  10
687.609100
  20
230.693600
  0
VERTEX
  8
C7
  10
687.657700
  20
231.695600
  0
VERTEX
  8
C7
  10
687.716800
  20
232.685300
  0
VERTEX
  8
C7
  10
687.781400
  20
233.656000
  0
VERTEX
  8
C7
  10
687.846000
  20
234.601400
  0
VERTEX
  8
C7
  10
687.905400
  20
235.515000
  0
VERTEX
  8
C7
  10
687.954400
  20
236.390300
  0
VERTEX
  8
C7
  10
687.987700
  20
237.220800
  0
VERTEX
  8
C7
  10
688.000000
  20
238.000000
  0
VERTEX
  8
C7
  10
688.000000
  20
292.000000
  0
VERTEX
  8
C7
  10
687.000000
  20
292.000000
  0
VERTEX
  8
C7
  10
687.000000
  20
206.000000
  0
VERTEX
  8
C7
  10
589.000000
  20
206.000000
  0
VERTEX
  8
C7
  10
589.000000
  20
403.000000
  0
VERTEX
  8
C7
  10
687.000000
  20
403.000000
  0
VERTEX
  8
C7
  10
687.000000
  20
317.000000
  0
VERTEX
  8
C7
  10
688.000000
  20
317.000000
  0
VERTEX
  8
C7
  10
688.000000
  20
370.000000
  0
VERTEX
  8
C7
  10
687.987700
  20
370.779100
  0
VERTEX
  8
C7
  10
687.954400
  20
371.609600
  0
VERTEX
  8
C7
  10
687.905400
  20
372.484800
  0
VERTEX
  8
C7
  10
687.846000
  20
373.398400
  0
VERTEX
  8
C7
  10
687.781400
  20
374.343800
  0
VERTEX
  8
C7
  10
687.716800
  20
375.314600
  0
VERTEX
  8
C7
  10
687.657700
  20
376.304200
  0
VERTEX
  8
C7
  10
687.609200
  20
377.306200
  0
VERTEX
  8
C7
  10
687.576500
  20
378.314100
  0
VERTEX
  8
C7
  10
687.565100
  20
379.321400
  0
VERTEX
  8
C7
  10
687.580100
  20
380.321500
  0
VERTEX
  8
C7
  10
687.626900
  20
381.308100
  0
VERTEX
  8
C7
  10
687.710700
  20
382.274700
  0
VERTEX
  8
C7
  10
687.836700
  20
383.214600
  0
VERTEX
  8
C7
  10
688.010300
  20
384.121600
  0
VERTEX
  8
C7
  10
688.236700
  20
384.989000
  0
VERTEX
  8
C7
  10
688.521300
  20
385.810400
  0
VERTEX
  8
C7
  10
688.869200
  20
386.579200
  0
VERTEX
  8
C7
  10
689.285700
  20
387.289100
  0
VERTEX
  8
C7
  10
689.776200
  20
387.933500
  0
VERTEX
  8
C7
  10
690.345800
  20
388.506000
  0
VERTEX
  8
C7
  10
691.000000
  20
389.000000
  0
VERTEX
  8
C7
  10
689.000000
  20
403.000000
  0
VERTEX
  8
C7
  10
693.000000
  20
403.000000
  0
VERTEX
  8
C7
  10
693.000000
  20
404.000000
  0
VERTEX
  8
C7
  10
688.000000
  20
404.000000
  0
VERTEX
  8
C7
  10
688.000000
  20
423.000000
  0
VERTEX
  8
C7
  10
687.000000
  20
423.000000
  0
VERTEX
  8
C7
  10
687.000000
  20
404.000000
  0
VERTEX
  8
C7
  10
589.000000
  20
404.000000
  0
VERTEX
  8
C7
  10
589.003100
  20
404.901900
  0
VERTEX
  8
C7
  10
589.012500
  20
405.812800
  0
VERTEX
  8
C7
  10
589.027600
  20
406.732500
  0
VERTEX
  8
C7
  10
589.048200
  20
407.660600
  0
VERTEX
  8
C7
  10
589.074000
  20
408.596900
  0
VERTEX
  8
C7
  10
589.104600
  20
409.541000
  0
VERTEX
  8
C7
  10
589.139800
  20
410.492500
  0
VERTEX
  8
C7
  10
589.179100
  20
411.451300
  0
VERTEX
  8
C7
  10
589.222300
  20
412.416900
  0
VERTEX
  8
C7
  10
589.269000
  20
413.389100
  0
VERTEX
  8
C7
  10
589.319000
  20
414.367500
  0
VERTEX
  8
C7
  10
589.371800
  20
415.351900
  0
VERTEX
  8
C7
  10
589.427100
  20
416.341900
  0
VERTEX
  8
C7
  10
589.484700
  20
417.337200
  0
VERTEX
  8
C7
  10
589.544200
  20
418.337500
  0
VERTEX
  8
C7
  10
589.605300
  20
419.342500
  0
VERTEX
  8
C7
  10
589.667700
  20
420.351900
  0
VERTEX
  8
C7
  10
589.730900
  20
421.365400
  0
VERTEX
  8
C7
  10
589.794800
  20
422.382600
  0
VERTEX
  8
C7
  10
589.858900
  20
423.403300
  0
VERTEX
  8
C7
  10
589.923000
  20
424.427100
  0
VERTEX
  8
C7
  10
589.986600
  20
425.453800
  0
VERTEX
  8
C7
  10
590.049600
  20
426.483000
  0
VERTEX
  8
C7
  10
590.111600
  20
427.514300
  0
VERTEX
  8
C7
  10
590.172200
  20
428.547600
  0
VERTEX
  8
C7
  10
590.231100
  20
429.582400
  0
VERTEX
  8
C7
  10
590.288000
  20
430.618500
  0
VERTEX
  8
C7
  10
590.342600
  20
431.655600
  0
VERTEX
  8
C7
  10
590.394500
  20
432.693300
  0
VERTEX
  8
C7
  10
590.443400
  20
433.731300
  0
VERTEX
  8
C7
  10
590.489000
  20
434.769400
  0
VERTEX
  8
C7
  10
590.531000
  20
435.807200
  0
VERTEX
  8
C7
  10
590.568900
  20
436.844300
  0
VERTEX
  8
C7
  10
590.602600
  20
437.880600
  0
VERTEX
  8
C7
  10
590.631700
  20
438.915600
  0
VERTEX
  8
C7
  10
590.655900
  20
439.949100
  0
VERTEX
  8
C7
  10
590.674700
  20
440.980800
  0
VERTEX
  8
C7
  10
590.688000
  20
442.010300
  0
VERTEX
  8
C7
  10
590.695300
  20
443.037300
  0
VERTEX
  8
C7
  10
590.696400
  20
444.061600
  0
VERTEX
  8
C7
  10
590.691000
  20
445.082700
  0
VERTEX
  8
C7
  10
590.678600
  20
446.100500
  0
VERTEX
  8
C7
  10
590.659000
  20
447.114600
  0
VERTEX
  8
C7
  10
590.631800
  20
448.124600
  0
VERTEX
  8
C7
  10
590.596800
  20
449.130300
  0
VERTEX
  8
C7
  10
590.553500
  20
450.131300
  0
VERTEX
  8
C7
  10
590.501700
  20
451.127400
  0
VERTEX
  8
C7
  10
590.441100
  20
452.118200
  0
VERTEX
  8
C7
  10
590.371200
  20
453.103400
  0
VERTEX
  8
C7
  10
590.291900
  20
454.082700
  0
VERTEX
  8
C7
  10
590.202700
  20
455.055800
  0
VERTEX
  8
C7
  10
590.103400
  20
456.022400
  0
VERTEX
  8
C7
  10
589.993600
  20
456.982200
  0
VERTEX
  8
C7
  10
589.872900
  20
457.934800
  0
VERTEX
  8
C7
  10
589.741200
  20
458.880000
  0
VERTEX
  8
C7
  10
589.597900
  20
459.817400
  0
VERTEX
  8
C7
  10
589.442900
  20
460.746800
  0
VERTEX
  8
C7
  10
589.275700
  20
461.667700
  0
VERTEX
  8
C7
  10
589.096100
  20
462.580000
  0
VERTEX
  8
C7
  10
588.903700
  20
463.483300
  0
VERTEX
  8
C7
  10
588.698200
  20
464.377200
  0
VERTEX
  8
C7
  10
588.479300
  20
465.261500
  0
VERTEX
  8
C7
  10
588.246700
  20
466.135800
  0
VERTEX
  8
C7
  10
588.000000
  20
467.000000
  0
VERTEX
  8
C7
  10
646.000000
  20
467.000000
  0
VERTEX
  8
C7
  10
646.000000
  20
468.000000
  0
VERTEX
  8
C7
  10
622.000000
  20
468.000000
  0
VERTEX
  8
C7
  10
649.000000
  20
496.000000
  0
VERTEX
  8
C7
  10
648.244200
  20
495.452100
  0
VERTEX
  8
C7
  10
647.499200
  20
494.881800
  0
VERTEX
  8
C7
  10
646.764100
  20
494.290400
  0
VERTEX
  8
C7
  10
646.038400
  20
493.679300
  0
VERTEX
  8
C7
  10
645.321400
  20
493.049600
  0
VERTEX
  8
C7
  10
644.612600
  20
492.402700
  0
VERTEX
  8
C7
  10
643.911200
  20
491.739900
  0
VERTEX
  8
C7
  10
643.216700
  20
491.062600
  0
VERTEX
  8
C7
  10
642.528300
  20
490.371900
  0
VERTEX
  8
C7
  10
641.845600
  20
489.669200
  0
VERTEX
  8
C7
  10
641.167800
  20
488.955800
  0
VERTEX
  8
C7
  10
640.494300
  20
488.233100
  0
VERTEX
  8
C7
  10
639.824500
  20
487.502200
  0
VERTEX
  8
C7
  10
639.157700
  20
486.764500
  0
VERTEX
  8
C7
  10
638.493400
  20
486.021300
  0
VERTEX
  8
C7
  10
637.830900
  20
485.273900
  0
VERTEX
  8
C7
  10
637.169500
  20
484.523700
  0
VERTEX
  8
C7
  10
636.508600
  20
483.771800
  0
VERTEX
  8
C7
  10
635.847600
  20
483.019600
  0
VERTEX
  8
C7
  10
635.185900
  20
482.268400
  0
VERTEX
  8
C7
  10
634.522800
  20
481.519600
  0
VERTEX
  8
C7
  10
633.857700
  20
480.774300
  0
VERTEX
  8
C7
  10
633.190000
  20
480.033900
  0
VERTEX
  8
C7
  10
632.519000
  20
479.299700
  0
VERTEX
  8
C7
  10
631.844100
  20
478.573100
  0
VERTEX
  8
C7
  10
631.164700
  20
477.855200
  0
VERTEX
  8
C7
  10
630.480100
  20
477.147500
  0
VERTEX
  8
C7
  10
629.789700
  20
476.451100
  0
VERTEX
  8
C7
  10
629.092900
  20
475.767400
  0
VERTEX
  8
C7
  10
628.389100
  20
475.097800
  0
VERTEX
  8
C7
  10
627.677500
  20
474.443400
  0
VERTEX
  8
C7
  10
626.957600
  20
473.805700
  0
VERTEX
  8
C7
  10
626.228800
  20
473.185800
  0
VERTEX
  8
C7
  10
625.490400
  20
472.585200
  0
VERTEX
  8
C7
  10
624.741700
  20
472.005100
  0
VERTEX
  8
C7
  10
623.982200
  20
471.446700
  0
VERTEX
  8
C7
  10
623.211300
  20
470.911500
  0
VERTEX
  8
C7
  10
622.428200
  20
470.400700
  0
VERTEX
  8
C7
  10
621.632400
  20
469.915600
  0
VERTEX
  8
C7
  10
620.823200
  20
469.457500
  0
VERTEX
  8
C7
  10
620.000000
  20
469.027700
  0
VERTEX
  8
C7
  10
619.281700
  20
468.691100
  0
VERTEX
  8
C7
  10
618.531000
  20
468.382300
  0
VERTEX
  8
C7
  10
617.749300
  20
468.100300
  0
VERTEX
  8
C7
  10
616.938000
  20
467.844100
  0
VERTEX
  8
C7
  10
616.098700
  20
467.613000
  0
VERTEX
  8
C7
  10
615.232800
  20
467.405800
  0
VERTEX
  8
C7
  10
614.341700
  20
467.221600
  0
VERTEX
  8
C7
  10
613.426900
  20
467.059600
  0
VERTEX
  8
C7
  10
612.489800
  20
466.918700
  0
VERTEX
  8
C7
  10
611.531900
  20
466.798100
  0
VERTEX
  8
C7
  10
610.554700
  20
466.696700
  0
VERTEX
  8
C7
  10
609.559700
  20
466.613700
  0
VERTEX
  8
C7
  10
608.548200
  20
466.548000
  0
VERTEX
  8
C7
  10
607.521700
  20
466.498800
  0
VERTEX
  8
C7
  10
606.481800
  20
466.465200
  0
VERTEX
  8
C7
  10
605.429800
  20
466.446100
  0
VERTEX
  8
C7
  10
604.367200
  20
466.440600
  0
VERTEX
  8
C7
  10
603.295400
  20
466.447800
  0
VERTEX
  8
C7
  10
602.216000
  20
466.466700
  0
VERTEX
  8
C7
  10
601.130400
  20
466.496500
  0
VERTEX
  8
C7
  10
600.040000
  20
466.536100
  0
VERTEX
  8
C7
  10
598.946400
  20
466.584600
  0
VERTEX
  8
C7
  10
597.850800
  20
466.641100
  0
VERTEX
  8
C7
  10
596.754900
  20
466.704600
  0
VERTEX
  8
C7
  10
595.660100
  20
466.774200
  0
VERTEX
  8
C7
  10
594.567800
  20
466.848900
  0
VERTEX
  8
C7
  10
593.479400
  20
466.927900
  0
VERTEX
  8
C7
  10
592.396500
  20
467.010100
  0
VERTEX
  8
C7
  10
591.320600
  20
467.094600
  0
VERTEX
  8
C7
  10
590.252900
  20
467.180500
  0
VERTEX
  8
C7
  10
589.195100
  20
467.266900
  0
VERTEX
  8
C7
  10
588.148600
  20
467.352700
  0
VERTEX
  8
C7
  10
587.114800
  20
467.437100
  0
VERTEX
  8
C7
  10
586.095100
  20
467.519100
  0
VERTEX
  8
C7
  10
585.091200
  20
467.597700
  0
VERTEX
  8
C7
  10
584.104300
  20
467.672100
  0
VERTEX
  8
C7
  10
583.136000
  20
467.741200
  0
VERTEX
  8
C7
  10
582.187700
  20
467.804200
  0
VERTEX
  8
C7
  10
581.260900
  20
467.860100
  0
VERTEX
  8
C7
  10
580.357000
  20
467.907900
  0
VERTEX
  8
C7
  10
579.477500
  20
467.946800
  0
VERTEX
  8
C7
  10
578.623900
  20
467.975700
  0
VERTEX
  8
C7
  10
577.797500
  20
467.993700
  0
VERTEX
  8
C7
  10
577.000000
  20
468.000000
  0
VERTEX
  8
C7
  10
604.000000
  20
496.000000
  0
VERTEX
  8
C7
  10
603.244200
  20
495.452100
  0
VERTEX
  8
C7
  10
602.499200
  20
494.881800
  0
VERTEX
  8
C7
  10
601.764100
  20
494.290400
  0
VERTEX
  8
C7
  10
601.038400
  20
493.679300
  0
VERTEX
  8
C7
  10
600.321400
  20
493.049600
  0
VERTEX
  8
C7
  10
599.612600
  20
492.402700
  0
VERTEX
  8
C7
  10
598.911200
  20
491.739900
  0
VERTEX
  8
C7
  10
598.216700
  20
491.062600
  0
VERTEX
  8
C7
  10
597.528300
  20
490.371900
  0
VERTEX
  8
C7
  10
596.845600
  20
489.669200
  0
VERTEX
  8
C7
  10
596.167800
  20
488.955800
  0
VERTEX
  8
C7
  10
595.494300
  20
488.233000
  0
VERTEX
  8
C7
  10
594.824500
  20
487.502200
  0
VERTEX
  8
C7
  10
594.157700
  20
486.764500
  0
VERTEX
  8
C7
  10
593.493400
  20
486.021300
  0
VERTEX
  8
C7
  10
592.830900
  20
485.273900
  0
VERTEX
  8
C7
  10
592.169500
  20
484.523600
  0
VERTEX
  8
C7
  10
591.508600
  20
483.771800
  0
VERTEX
  8
C7
  10
590.847600
  20
483.019600
  0
VERTEX
  8
C7
  10
590.185900
  20
482.268400
  0
VERTEX
  8
C7
  10
589.522800
  20
481.519500
  0
VERTEX
  8
C7
  10
588.857700
  20
480.774200
  0
VERTEX
  8
C7
  10
588.190000
  20
480.033900
  0
VERTEX
  8
C7
  10
587.519000
  20
479.299700
  0
VERTEX
  8
C7
  10
586.844100
  20
478.573000
  0
VERTEX
  8
C7
  10
586.164700
  20
477.855200
  0
VERTEX
  8
C7
  10
585.480100
  20
477.147400
  0
VERTEX
  8
C7
  10
584.789700
  20
476.451000
  0
VERTEX
  8
C7
  10
584.092900
  20
475.767400
  0
VERTEX
  8
C7
  10
583.389100
  20
475.097700
  0
VERTEX
  8
C7
  10
582.677500
  20
474.443400
  0
VERTEX
  8
C7
  10
581.957600
  20
473.805600
  0
VERTEX
  8
C7
  10
581.228800
  20
473.185800
  0
VERTEX
  8
C7
  10
580.490400
  20
472.585200
  0
VERTEX
  8
C7
  10
579.741700
  20
472.005000
  0
VERTEX
  8
C7
  10
578.982200
  20
471.446700
  0
VERTEX
  8
C7
  10
578.211300
  20
470.911500
  0
VERTEX
  8
C7
  10
577.428200
  20
470.400700
  0
VERTEX
  8
C7
  10
576.632400
  20
469.915600
  0
VERTEX
  8
C7
  10
575.823200
  20
469.457500
  0
VERTEX
  8
C7
  10
575.000000
  20
469.027700
  0
VERTEX
  8
C7
  10
574.281700
  20
468.691100
  0
VERTEX
  8
C7
  10
573.531000
  20
468.382300
  0
VERTEX
  8
C7
  10
572.749300
  20
468.100300
  0
VERTEX
  8
C7
  10
571.938000
  20
467.844100
  0
VERTEX
  8
C7
  10
571.098700
  20
467.613000
  0
VERTEX
  8
C7
  10
570.232800
  20
467.405800
  0
VERTEX
  8
C7
  10
569.341700
  20
467.221600
  0
VERTEX
  8
C7
  10
568.426900
  20
467.059600
  0
VERTEX
  8
C7
  10
567.489800
  20
466.918700
  0
VERTEX
  8
C7
  10
566.531900
  20
466.798100
  0
VERTEX
  8
C7
  10
565.554700
  20
466.696700
  0
VERTEX
  8
C7
  10
564.559700
  20
466.613700
  0
VERTEX
  8
C7
  10
563.548200
  20
466.548000
  0
VERTEX
  8
C7
  10
562.521700
  20
466.498800
  0
VERTEX
  8
C7
  10
561.481800
  20
466.465200
  0
VERTEX
  8
C7
  10
560.429800
  20
466.446100
  0
VERTEX
  8
C7
  10
559.367200
  20
466.440600
  0
VERTEX
  8
C7
  10
558.295400
  20
466.447800
  0
VERTEX
  8
C7
  10
557.216000
  20
466.466700
  0
VERTEX
  8
C7
  10
556.130400
  20
466.496500
  0
VERTEX
  8
C7
  10
555.040000
  20
466.536100
  0
VERTEX
  8
C7
  10
553.946400
  20
466.584600
  0
VERTEX
  8
C7
  10
552.850800
  20
466.641100
  0
VERTEX
  8
C7
  10
551.754900
  20
466.704600
  0
VERTEX
  8
C7
  10
550.660100
  20
466.774200
  0
VERTEX
  8
C7
  10
549.567800
  20
466.848900
  0
VERTEX
  8
C7
  10
548.479400
  20
466.927900
  0
VERTEX
  8
C7
  10
547.396500
  20
467.010100
  0
VERTEX
  8
C7
  10
546.320600
  20
467.094600
  0
VERTEX
  8
C7
  10
545.252900
  20
467.180500
  0
VERTEX
  8
C7
  10
544.195100
  20
467.266900
  0
VERTEX
  8
C7
  10
543.148600
  20
467.352700
  0
VERTEX
  8
C7
  10
542.114800
  20
467.437100
  0
VERTEX
  8
C7
  10
541.095100
  20
467.519100
  0
VERTEX
  8
C7
  10
540.091200
  20
467.597700
  0
VERTEX
  8
C7
  10
539.104300
  20
467.672100
  0
VERTEX
  8
C7
  10
538.136000
  20
467.741200
  0
VERTEX
  8
C7
  10
537.187700
  20
467.804200
  0
VERTEX
  8
C7
  10
536.260900
  20
467.860100
  0
VERTEX
  8
C7
  10
535.357000
  20
467.907900
  0
VERTEX
  8
C7
  10
534.477500
  20
467.946800
  0
VERTEX
  8
C7
  10
533.623900
  20
467.975700
  0
VERTEX
  8
C7
  10
532.797500
  20
467.993700
  0
VERTEX
  8
C7
  10
532.000000
  20
468.000000
  0
VERTEX
  8
C7
  10
559.000000
  20
496.000000
  0
VERTEX
  8
C7
  10
558.244200
  20
495.452100
  0
VERTEX
  8
C7
  10
557.499200
  20
494.881800
  0
VERTEX
  8
C7
  10
556.764100
  20
494.290400
  0
VERTEX
  8
C7
  10
556.038400
  20
493.679300
  0
VERTEX
  8
C7
  10
555.321400
  20
493.049600
  0
VERTEX
  8
C7
  10
554.612600
  20
492.402700
  0
VERTEX
  8
C7
  10
553.911200
  20
491.739900
  0
VERTEX
  8
C7
  10
553.216700
  20
491.062600
  0
VERTEX
  8
C7
  10
552.528300
  20
490.371900
  0
VERTEX
  8
C7
  10
551.845600
  20
489.669200
  0
VERTEX
  8
C7
  10
551.167800
  20
488.955800
  0
VERTEX
  8
C7
  10
550.494300
  20
488.233000
  0
VERTEX
  8
C7
  10
549.824500
  20
487.502200
  0
VERTEX
  8
C7
  10
549.157700
  20
486.764500
  0
VERTEX
  8
C7
  10
548.493400
  20
486.021300
  0
VERTEX
  8
C7
  10
547.830900
  20
485.273900
  0
VERTEX
  8
C7
  10
547.169500
  20
484.523600
  0
VERTEX
  8
C7
  10
546.508600
  20
483.771800
  0
VERTEX
  8
C7
  10
545.847600
  20
483.019600
  0
VERTEX
  8
C7
  10
545.185900
  20
482.268400
  0
VERTEX
  8
C7
  10
544.522800
  20
481.519500
  0
VERTEX
  8
C7
  10
543.857700
  20
480.774200
  0
VERTEX
  8
C7
  10
543.190000
  20
480.033900
  0
VERTEX
  8
C7
  10
542.519000
  20
479.299700
  0
VERTEX
  8
C7
  10
541.844100
  20
478.573000
  0
VERTEX
  8
C7
  10
541.164700
  20
477.855200
  0
VERTEX
  8
C7
  10
540.480100
  20
477.147400
  0
VERTEX
  8
C7
  10
539.789700
  20
476.451000
  0
VERTEX
  8
C7
  10
539.092900
  20
475.767400
  0
VERTEX
  8
C7
  10
538.389100
  20
475.097700
  0
VERTEX
  8
C7
  10
537.677500
  20
474.443400
  0
VERTEX
  8
C7
  10
536.957600
  20
473.805600
  0
VERTEX
  8
C7
  10
536.228800
  20
473.185800
  0
VERTEX
  8
C7
  10
535.490400
  20
472.585200
  0
VERTEX
  8
C7
  10
534.741700
  20
472.005000
  0
VERTEX
  8
C7
  10
533.982200
  20
471.446700
  0
VERTEX
  8
C7
  10
533.211300
  20
470.911500
  0
VERTEX
  8
C7
  10
532.428200
  20
470.400700
  0
VERTEX
  8
C7
  10
531.632400
  20
469.915600
  0
VERTEX
  8
C7
  10
530.823200
  20
469.457500
  0
VERTEX
  8
C7
  10
530.000000
  20
469.027700
  0
VERTEX
  8
C7
  10
529.283300
  20
468.691500
  0
VERTEX
  8
C7
  10
528.534700
  20
468.382400
  0
VERTEX
  8
C7
  10
527.755500
  20
468.099700
  0
VERTEX
  8
C7
  10
526.947100
  20
467.842300
  0
VERTEX
  8
C7
  10
526.110900
  20
467.609400
  0
VERTEX
  8
C7
  10
525.248400
  20
467.400000
  0
VERTEX
  8
C7
  10
524.360800
  20
467.213400
  0
VERTEX
  8
C7
  10
523.449700
  20
467.048400
  0
VERTEX
  8
C7
  10
522.516400
  20
466.904300
  0
VERTEX
  8
C7
  10
521.562400
  20
466.780200
  0
VERTEX
  8
C7
  10
520.589000
  20
466.675200
  0
VERTEX
  8
C7
  10
519.597600
  20
466.588200
  0
VERTEX
  8
C7
  10
518.589700
  20
466.518600
  0
VERTEX
  8
C7
  10
517.566700
  20
466.465300
  0
VERTEX
  8
C7
  10
516.529900
  20
466.427400
  0
VERTEX
  8
C7
  10
515.480700
  20
466.404100
  0
VERTEX
  8
C7
  10
514.420600
  20
466.394400
  0
VERTEX
  8
C7
  10
513.351000
  20
466.397400
  0
VERTEX
  8
C7
  10
512.273300
  20
466.412300
  0
VERTEX
  8
C7
  10
511.188900
  20
466.438100
  0
VERTEX
  8
C7
  10
510.099100
  20
466.474000
  0
VERTEX
  8
C7
  10
509.005400
  20
466.519000
  0
VERTEX
  8
C7
  10
507.909200
  20
466.572200
  0
VERTEX
  8
C7
  10
506.811900
  20
466.632800
  0
VERTEX
  8
C7
  10
505.714900
  20
466.699800
  0
VERTEX
  8
C7
  10
504.619600
  20
466.772300
  0
VERTEX
  8
C7
  10
503.527400
  20
466.849400
  0
VERTEX
  8
C7
  10
502.439700
  20
466.930200
  0
VERTEX
  8
C7
  10
501.358000
  20
467.013900
  0
VERTEX
  8
C7
  10
500.283500
  20
467.099500
  0
VERTEX
  8
C7
  10
499.217800
  20
467.186100
  0
VERTEX
  8
C7
  10
498.162200
  20
467.272800
  0
VERTEX
  8
C7
  10
497.118100
  20
467.358700
  0
VERTEX
  8
C7
  10
496.087000
  20
467.442900
  0
VERTEX
  8
C7
  10
495.070200
  20
467.524600
  0
VERTEX
  8
C7
  10
494.069200
  20
467.602700
  0
VERTEX
  8
C7
  10
493.085300
  20
467.676500
  0
VERTEX
  8
C7
  10
492.119900
  20
467.744900
  0
VERTEX
  8
C7
  10
491.174500
  20
467.807200
  0
VERTEX
  8
C7
  10
490.250500
  20
467.862300
  0
VERTEX
  8
C7
  10
489.349300
  20
467.909500
  0
VERTEX
  8
C7
  10
488.472200
  20
467.947700
  0
VERTEX
  8
C7
  10
487.620600
  20
467.976100
  0
VERTEX
  8
C7
  10
486.796100
  20
467.993800
  0
VERTEX
  8
C7
  10
486.000000
  20
468.000000
  0
VERTEX
  8
C7
  10
514.000000
  20
497.000000
  0
VERTEX
  8
C7
  10
484.000000
  20
469.027771
  0
VERTEX
  8
C7
  10
459.000000
  20
468.000000
  0
VERTEX
  8
C7
  10
459.006100
  20
469.279500
  0
VERTEX
  8
C7
  10
459.025200
  20
470.502600
  0
VERTEX
  8
C7
  10
459.057700
  20
471.672600
  0
VERTEX
  8
C7
  10
459.104500
  20
472.792600
  0
VERTEX
  8
C7
  10
459.166100
  20
473.866000
  0
VERTEX
  8
C7
  10
459.243400
  20
474.895900
  0
VERTEX
  8
C7
  10
459.337000
  20
475.885500
  0
VERTEX
  8
C7
  10
459.447600
  20
476.838200
  0
VERTEX
  8
C7
  10
459.575800
  20
477.757000
  0
VERTEX
  8
C7
  10
459.722500
  20
478.645300
  0
VERTEX
  8
C7
  10
459.888200
  20
479.506300
  0
VERTEX
  8
C7
  10
460.073600
  20
480.343200
  0
VERTEX
  8
C7
  10
460.279600
  20
481.159300
  0
VERTEX
  8
C7
  10
460.506600
  20
481.957700
  0
VERTEX
  8
C7
  10
460.755500
  20
482.741800
  0
VERTEX
  8
C7
  10
461.027000
  20
483.514700
  0
VERTEX
  8
C7
  10
461.321700
  20
484.279700
  0
VERTEX
  8
C7
  10
461.640200
  20
485.039900
  0
VERTEX
  8
C7
  10
461.983400
  20
485.798700
  0
VERTEX
  8
C7
  10
462.351900
  20
486.559300
  0
VERTEX
  8
C7
  10
462.746400
  20
487.324900
  0
VERTEX
  8
C7
  10
463.167600
  20
488.098700
  0
VERTEX
  8
C7
  10
463.616200
  20
488.883900
  0
VERTEX
  8
C7
  10
464.092900
  20
489.683900
  0
VERTEX
  8
C7
  10
464.598300
  20
490.501700
  0
VERTEX
  8
C7
  10
465.133200
  20
491.340800
  0
VERTEX
  8
C7
  10
465.698200
  20
492.204100
  0
VERTEX
  8
C7
  10
466.294100
  20
493.095200
  0
VERTEX
  8
C7
  10
466.921500
  20
494.017000
  0
VERTEX
  8
C7
  10
467.581200
  20
494.972900
  0
VERTEX
  8
C7
  10
468.273700
  20
495.966200
  0
VERTEX
  8
C7
  10
469.000000
  20
497.000000
  0
VERTEX
  8
C7
  10
459.000000
  20
488.000000
  0
VERTEX
  8
C7
  10
459.000000
  20
531.000000
  0
VERTEX
  8
C7
  10
486.000000
  20
531.000000
  0
VERTEX
  8
C7
  10
486.000000
  20
532.000000
  0
VERTEX
  8
C7
  10
459.000000
  20
532.000000
  0
VERTEX
  8
C7
  10
459.000000
  20
536.000000
  0
VERTEX
  8
C7
  10
458.000000
  20
536.000000
  0
VERTEX
  8
C7
  10
458.002700
  20
535.218600
  0
VERTEX
  8
C7
  10
458.010900
  20
534.427100
  0
VERTEX
  8
C7
  10
458.024000
  20
533.625800
  0
VERTEX
  8
C7
  10
458.041600
  20
532.815200
  0
VERTEX
  8
C7
  10
458.063500
  20
531.995500
  0
VERTEX
  8
C7
  10
458.089100
  20
531.167100
  0
VERTEX
  8
C7
  10
458.118100
  20
530.330400
  0
VERTEX
  8
C7
  10
458.150100
  20
529.485800
  0
VERTEX
  8
C7
  10
458.184700
  20
528.633500
  0
VERTEX
  8
C7
  10
458.221600
  20
527.774000
  0
VERTEX
  8
C7
  10
458.260300
  20
526.907600
  0
VERTEX
  8
C7
  10
458.300500
  20
526.034700
  0
VERTEX
  8
C7
  10
458.341700
  20
525.155600
  0
VERTEX
  8
C7
  10
458.383700
  20
524.270700
  0
VERTEX
  8
C7
  10
458.425900
  20
523.380400
  0
VERTEX
  8
C7
  10
458.468000
  20
522.485000
  0
VERTEX
  8
C7
  10
458.509600
  20
521.584800
  0
VERTEX
  8
C7
  10
458.550300
  20
520.680300
  0
VERTEX
  8
C7
  10
458.589800
  20
519.771800
  0
VERTEX
  8
C7
  10
458.627600
  20
518.859600
  0
VERTEX
  8
C7
  10
458.663400
  20
517.944100
  0
VERTEX
  8
C7
  10
458.696800
  20
517.025700
  0
VERTEX
  8
C7
  10
458.727300
  20
516.104800
  0
VERTEX
  8
C7
  10
458.754600
  20
515.181600
  0
VERTEX
  8
C7
  10
458.778400
  20
514.256600
  0
VERTEX
  8
C7
  10
458.798100
  20
513.330000
  0
VERTEX
  8
C7
  10
458.813500
  20
512.402400
  0
VERTEX
  8
C7
  10
458.824100
  20
511.474000
  0
VERTEX
  8
C7
  10
458.829600
  20
510.545100
  0
VERTEX
  8
C7
  10
458.829500
  20
509.616200
  0
VERTEX
  8
C7
  10
458.823500
  20
508.687600
  0
VERTEX
  8
C7
  10
458.811200
  20
507.759700
  0
VERTEX
  8
C7
  10
458.792200
  20
506.832800
  0
VERTEX
  8
C7
  10
458.766100
  20
505.907300
  0
VERTEX
  8
C7
  10
458.732500
  20
504.983500
  0
VERTEX
  8
C7
  10
458.691000
  20
504.061800
  0
VERTEX
  8
C7
  10
458.641300
  20
503.142600
  0
VERTEX
  8
C7
  10
458.582900
  20
502.226200
  0
VERTEX
  8
C7
  10
458.515600
  20
501.313000
  0
VERTEX
  8
C7
  10
458.438700
  20
500.403300
  0
VERTEX
  8
C7
  10
458.352100
  20
499.497600
  0
VERTEX
  8
C7
  10
458.255300
  20
498.596100
  0
VERTEX
  8
C7
  10
458.147900
  20
497.699200
  0
VERTEX
  8
C7
  10
458.029500
  20
496.807200
  0
VERTEX
  8
C7
  10
457.899700
  20
495.920700
  0
VERTEX
  8
C7
  10
457.758200
  20
495.039800
  0
VERTEX
  8
C7
  10
457.604500
  20
494.165000
  0
VERTEX
  8
C7
  10
457.438400
  20
493.296600
  0
VERTEX
  8
C7
  10
457.259300
  20
492.434900
  0
VERTEX
  8
C7
  10
457.066900
  20
491.580400
  0
VERTEX
  8
C7
  10
456.860700
  20
490.733400
  0
VERTEX
  8
C7
  10
456.640600
  20
489.894300
  0
VERTEX
  8
C7
  10
456.405900
  20
489.063400
  0
VERTEX
  8
C7
  10
456.156400
  20
488.241000
  0
VERTEX
  8
C7
  10
455.891600
  20
487.427600
  0
VERTEX
  8
C7
  10
455.611200
  20
486.623400
  0
VERTEX
  8
C7
  10
455.314700
  20
485.829000
  0
VERTEX
  8
C7
  10
455.001900
  20
485.044500
  0
VERTEX
  8
C7
  10
454.672200
  20
484.270400
  0
VERTEX
  8
C7
  10
454.325400
  20
483.507000
  0
VERTEX
  8
C7
  10
453.960900
  20
482.754700
  0
VERTEX
  8
C7
  10
453.578500
  20
482.013900
  0
VERTEX
  8
C7
  10
453.177800
  20
481.284900
  0
VERTEX
  8
C7
  10
452.758300
  20
480.568000
  0
VERTEX
  8
C7
  10
452.319600
  20
479.863700
  0
VERTEX
  8
C7
  10
451.861400
  20
479.172300
  0
VERTEX
  8
C7
  10
451.383400
  20
478.494100
  0
VERTEX
  8
C7
  10
450.885000
  20
477.829500
  0
VERTEX
  8
C7
  10
450.365900
  20
477.178900
  0
VERTEX
  8
C7
  10
449.825800
  20
476.542600
  0
VERTEX
  8
C7
  10
449.264200
  20
475.921000
  0
VERTEX
  8
C7
  10
448.680700
  20
475.314400
  0
VERTEX
  8
C7
  10
448.075000
  20
474.723200
  0
VERTEX
  8
C7
  10
447.446700
  20
474.147800
  0
VERTEX
  8
C7
  10
446.795300
  20
473.588500
  0
VERTEX
  8
C7
  10
446.120500
  20
473.045700
  0
VERTEX
  8
C7
  10
445.422000
  20
472.519800
  0
VERTEX
  8
C7
  10
444.699200
  20
472.011000
  0
VERTEX
  8
C7
  10
443.951900
  20
471.519800
  0
VERTEX
  8
C7
  10
443.179600
  20
471.046600
  0
VERTEX
  8
C7
  10
442.382000
  20
470.591600
  0
VERTEX
  8
C7
  10
441.558600
  20
470.155200
  0
VERTEX
  8
C7
  10
440.709100
  20
469.737800
  0
VERTEX
  8
C7
  10
439.833100
  20
469.339800
  0
VERTEX
  8
C7
  10
438.930200
  20
468.961600
  0
VERTEX
  8
C7
  10
438.000000
  20
468.603400
  0
SEQEND
  8
C7
  0
POLYLINE
  8
C7
  66
1
  10
438.000000
  20
468.603300
  0
VERTEX
  8
C7
  10
438.000000
  20
468.603300
  0
VERTEX
  8
C7
  10
437.199800
  20
468.325000
  0
VERTEX
  8
C7
  10
436.377000
  20
468.070900
  0
VERTEX
  8
C7
  10
435.532300
  20
467.840300
  0
VERTEX
  8
C7
  10
434.667000
  20
467.632100
  0
VERTEX
  8
C7
  10
433.782000
  20
467.445700
  0
VERTEX
  8
C7
  10
432.878400
  20
467.280000
  0
VERTEX
  8
C7
  10
431.957300
  20
467.134400
  0
VERTEX
  8
C7
  10
431.019800
  20
467.007800
  0
VERTEX
  8
C7
  10
430.066800
  20
466.899500
  0
VERTEX
  8
C7
  10
429.099400
  20
466.808600
  0
VERTEX
  8
C7
  10
428.118700
  20
466.734300
  0
VERTEX
  8
C7
  10
427.125700
  20
466.675700
  0
VERTEX
  8
C7
  10
426.121500
  20
466.631900
  0
VERTEX
  8
C7
  10
425.107100
  20
466.602200
  0
VERTEX
  8
C7
  10
424.083600
  20
466.585500
  0
VERTEX
  8
C7
  10
423.052100
  20
466.581200
  0
VERTEX
  8
C7
  10
422.013600
  20
466.588400
  0
VERTEX
  8
C7
  10
420.969100
  20
466.606100
  0
VERTEX
  8
C7
  10
419.919700
  20
466.633600
  0
VERTEX
  8
C7
  10
418.866400
  20
466.669900
  0
VERTEX
  8
C7
  10
417.810400
  20
466.714300
  0
VERTEX
  8
C7
  10
416.752600
  20
466.765900
  0
VERTEX
  8
C7
  10
415.694100
  20
466.823800
  0
VERTEX
  8
C7
  10
414.635900
  20
466.887200
  0
VERTEX
  8
C7
  10
413.579200
  20
466.955300
  0
VERTEX
  8
C7
  10
412.525000
  20
467.027100
  0
VERTEX
  8
C7
  10
411.474200
  20
467.101800
  0
VERTEX
  8
C7
  10
410.428100
  20
467.178600
  0
VERTEX
  8
C7
  10
409.387500
  20
467.256600
  0
VERTEX
  8
C7
  10
408.353700
  20
467.335000
  0
VERTEX
  8
C7
  10
407.327600
  20
467.412900
  0
VERTEX
  8
C7
  10
406.310200
  20
467.489500
  0
VERTEX
  8
C7
  10
405.302700
  20
467.563900
  0
VERTEX
  8
C7
  10
404.306100
  20
467.635200
  0
VERTEX
  8
C7
  10
403.321400
  20
467.702700
  0
VERTEX
  8
C7
  10
402.349700
  20
467.765400
  0
VERTEX
  8
C7
  10
401.392000
  20
467.822500
  0
VERTEX
  8
C7
  10
400.449400
  20
467.873200
  0
VERTEX
  8
C7
  10
399.523000
  20
467.916500
  0
VERTEX
  8
C7
  10
398.613800
  20
467.951800
  0
VERTEX
  8
C7
  10
397.722900
  20
467.978000
  0
VERTEX
  8
C7
  10
396.851200
  20
467.994300
  0
VERTEX
  8
C7
  10
396.000000
  20
468.000000
  0
VERTEX
  8
C7
  10
423.000000
  20
496.000000
  0
VERTEX
  8
C7
  10
422.244200
  20
495.452100
  0
VERTEX
  8
C7
  10
421.499200
  20
494.881800
  0
VERTEX
  8
C7
  10
420.764100
  20
494.290500
  0
VERTEX
  8
C7
  10
420.038400
  20
493.679300
  0
VERTEX
  8
C7
  10
419.321400
  20
493.049600
  0
VERTEX
  8
C7
  10
418.612600
  20
492.402800
  0
VERTEX
  8
C7
  10
417.911200
  20
491.740000
  0
VERTEX
  8
C7
  10
417.216700
  20
491.062600
  0
VERTEX
  8
C7
  10
416.528300
  20
490.371900
  0
VERTEX
  8
C7
  10
415.845600
  20
489.669200
  0
VERTEX
  8
C7
  10
415.167800
  20
488.955900
  0
VERTEX
  8
C7
  10
414.494300
  20
488.233100
  0
VERTEX
  8
C7
  10
413.824500
  20
487.502200
  0
VERTEX
  8
C7
  10
413.157700
  20
486.764500
  0
VERTEX
  8
C7
  10
412.493400
  20
486.021300
  0
VERTEX
  8
C7
  10
411.830800
  20
485.274000
  0
VERTEX
  8
C7
  10
411.169400
  20
484.523700
  0
VERTEX
  8
C7
  10
410.508600
  20
483.771800
  0
VERTEX
  8
C7
  10
409.847600
  20
483.019600
  0
VERTEX
  8
C7
  10
409.185900
  20
482.268400
  0
VERTEX
  8
C7
  10
408.522800
  20
481.519600
  0
VERTEX
  8
C7
  10
407.857700
  20
480.774300
  0
VERTEX
  8
C7
  10
407.190000
  20
480.033900
  0
VERTEX
  8
C7
  10
406.519000
  20
479.299700
  0
VERTEX
  8
C7
  10
405.844100
  20
478.573100
  0
VERTEX
  8
C7
  10
405.164700
  20
477.855200
  0
VERTEX
  8
C7
  10
404.480100
  20
477.147400
  0
VERTEX
  8
C7
  10
403.789700
  20
476.451100
  0
VERTEX
  8
C7
  10
403.092900
  20
475.767400
  0
VERTEX
  8
C7
  10
402.389000
  20
475.097800
  0
VERTEX
  8
C7
  10
401.677500
  20
474.443400
  0
VERTEX
  8
C7
  10
400.957600
  20
473.805700
  0
VERTEX
  8
C7
  10
400.228800
  20
473.185800
  0
VERTEX
  8
C7
  10
399.490300
  20
472.585200
  0
VERTEX
  8
C7
  10
398.741700
  20
472.005000
  0
VERTEX
  8
C7
  10
397.982200
  20
471.446700
  0
VERTEX
  8
C7
  10
397.211300
  20
470.911500
  0
VERTEX
  8
C7
  10
396.428200
  20
470.400700
  0
VERTEX
  8
C7
  10
395.632400
  20
469.915600
  0
VERTEX
  8
C7
  10
394.823200
  20
469.457500
  0
VERTEX
  8
C7
  10
394.000000
  20
469.027700
  0
VERTEX
  8
C7
  10
393.281700
  20
468.691100
  0
VERTEX
  8
C7
  10
392.531000
  20
468.382300
  0
VERTEX
  8
C7
  10
391.749300
  20
468.100300
  0
VERTEX
  8
C7
  10
390.938000
  20
467.844100
  0
VERTEX
  8
C7
  10
390.098700
  20
467.613000
  0
VERTEX
  8
C7
  10
389.232700
  20
467.405800
  0
VERTEX
  8
C7
  10
388.341600
  20
467.221600
  0
VERTEX
  8
C7
  10
387.426800
  20
467.059600
  0
VERTEX
  8
C7
  10
386.489700
  20
466.918700
  0
VERTEX
  8
C7
  10
385.531900
  20
466.798100
  0
VERTEX
  8
C7
  10
384.554700
  20
466.696700
  0
VERTEX
  8
C7
  10
383.559600
  20
466.613700
  0
VERTEX
  8
C7
  10
382.548100
  20
466.548000
  0
VERTEX
  8
C7
  10
381.521700
  20
466.498800
  0
VERTEX
  8
C7
  10
380.481700
  20
466.465200
  0
VERTEX
  8
C7
  10
379.429700
  20
466.446100
  0
VERTEX
  8
C7
  10
378.367100
  20
466.440600
  0
VERTEX
  8
C7
  10
377.295400
  20
466.447800
  0
VERTEX
  8
C7
  10
376.216000
  20
466.466700
  0
VERTEX
  8
C7
  10
375.130400
  20
466.496500
  0
VERTEX
  8
C7
  10
374.040000
  20
466.536100
  0
VERTEX
  8
C7
  10
372.946300
  20
466.584600
  0
VERTEX
  8
C7
  10
371.850800
  20
466.641100
  0
VERTEX
  8
C7
  10
370.754900
  20
466.704600
  0
VERTEX
  8
C7
  10
369.660000
  20
466.774200
  0
VERTEX
  8
C7
  10
368.567700
  20
466.848900
  0
VERTEX
  8
C7
  10
367.479400
  20
466.927900
  0
VERTEX
  8
C7
  10
366.396500
  20
467.010100
  0
VERTEX
  8
C7
  10
365.320500
  20
467.094600
  0
VERTEX
  8
C7
  10
364.252900
  20
467.180500
  0
VERTEX
  8
C7
  10
363.195100
  20
467.266900
  0
VERTEX
  8
C7
  10
362.148600
  20
467.352700
  0
VERTEX
  8
C7
  10
361.114800
  20
467.437100
  0
VERTEX
  8
C7
  10
360.095100
  20
467.519100
  0
VERTEX
  8
C7
  10
359.091200
  20
467.597700
  0
VERTEX
  8
C7
  10
358.104300
  20
467.672100
  0
VERTEX
  8
C7
  10
357.136000
  20
467.741200
  0
VERTEX
  8
C7
  10
356.187700
  20
467.804200
  0
VERTEX
  8
C7
  10
355.260900
  20
467.860100
  0
VERTEX
  8
C7
  10
354.357000
  20
467.907900
  0
VERTEX
  8
C7
  10
353.477500
  20
467.946800
  0
VERTEX
  8
C7
  10
352.623900
  20
467.975700
  0
VERTEX
  8
C7
  10
351.797500
  20
467.993700
  0
VERTEX
  8
C7
  10
351.000000
  20
468.000000
  0
VERTEX
  8
C7
  10
378.000000
  20
496.000000
  0
VERTEX
  8
C7
  10
349.000000
  20
469.027771
  0
VERTEX
  8
C7
  10
329.000000
  20
468.000000
  0
VERTEX
  8
C7
  10
328.995200
  20
469.023900
  0
VERTEX
  8
C7
  10
328.982200
  20
470.044400
  0
VERTEX
  8
C7
  10
328.963000
  20
471.061400
  0
VERTEX
  8
C7
  10
328.939800
  20
472.074800
  0
VERTEX
  8
C7
  10
328.914400
  20
473.084400
  0
VERTEX
  8
C7
  10
328.889000
  20
474.090300
  0
VERTEX
  8
C7
  10
328.865700
  20
475.092400
  0
VERTEX
  8
C7
  10
328.846400
  20
476.090500
  0
VERTEX
  8
C7
  10
328.833200
  20
477.084600
  0
VERTEX
  8
C7
  10
328.828200
  20
478.074600
  0
VERTEX
  8
C7
  10
328.833300
  20
479.060400
  0
VERTEX
  8
C7
  10
328.850700
  20
480.042000
  0
VERTEX
  8
C7
  10
328.882400
  20
481.019200
  0
VERTEX
  8
C7
  10
328.930400
  20
481.992100
  0
VERTEX
  8
C7
  10
328.996800
  20
482.960400
  0
VERTEX
  8
C7
  10
329.083600
  20
483.924200
  0
VERTEX
  8
C7
  10
329.192800
  20
484.883200
  0
VERTEX
  8
C7
  10
329.326600
  20
485.837600
  0
VERTEX
  8
C7
  10
329.486900
  20
486.787100
  0
VERTEX
  8
C7
  10
329.675800
  20
487.731800
  0
VERTEX
  8
C7
  10
329.895300
  20
488.671500
  0
VERTEX
  8
C7
  10
330.147500
  20
489.606100
  0
VERTEX
  8
C7
  10
330.434500
  20
490.535500
  0
VERTEX
  8
C7
  10
330.758200
  20
491.459800
  0
VERTEX
  8
C7
  10
331.120700
  20
492.378700
  0
VERTEX
  8
C7
  10
331.524100
  20
493.292300
  0
VERTEX
  8
C7
  10
331.970400
  20
494.200400
  0
VERTEX
  8
C7
  10
332.461700
  20
495.103000
  0
VERTEX
  8
C7
  10
333.000000
  20
496.000000
  0
VERTEX
  8
C7
  10
329.000000
  20
493.000000
  0
VERTEX
  8
C7
  10
329.005600
  20
493.844200
  0
VERTEX
  8
C7
  10
329.021800
  20
494.710200
  0
VERTEX
  8
C7
  10
329.047900
  20
495.596600
  0
VERTEX
  8
C7
  10
329.082800
  20
496.502500
  0
VERTEX
  8
C7
  10
329.125900
  20
497.426700
  0
VERTEX
  8
C7
  10
329.176200
  20
498.368100
  0
VERTEX
  8
C7
  10
329.232800
  20
499.325600
  0
VERTEX
  8
C7
  10
329.295000
  20
500.298200
  0
VERTEX
  8
C7
  10
329.361800
  20
501.284700
  0
VERTEX
  8
C7
  10
329.432500
  20
502.283900
  0
VERTEX
  8
C7
  10
329.506100
  20
503.294900
  0
VERTEX
  8
C7
  10
329.581800
  20
504.316500
  0
VERTEX
  8
C7
  10
329.658800
  20
505.347500
  0
VERTEX
  8
C7
  10
329.736100
  20
506.387000
  0
VERTEX
  8
C7
  10
329.813000
  20
507.433800
  0
VERTEX
  8
C7
  10
329.888500
  20
508.486700
  0
VERTEX
  8
C7
  10
329.961900
  20
509.544700
  0
VERTEX
  8
C7
  10
330.032300
  20
510.606700
  0
VERTEX
  8
C7
  10
330.098700
  20
511.671600
  0
VERTEX
  8
C7
  10
330.160500
  20
512.738200
  0
VERTEX
  8
C7
  10
330.216600
  20
513.805500
  0
VERTEX
  8
C7
  10
330.266400
  20
514.872400
  0
VERTEX
  8
C7
  10
330.308800
  20
515.937700
  0
VERTEX
  8
C7
  10
330.343000
  20
517.000400
  0
VERTEX
  8
C7
  10
330.368300
  20
518.059400
  0
VERTEX
  8
C7
  10
330.383600
  20
519.113500
  0
VERTEX
  8
C7
  10
330.388300
  20
520.161600
  0
VERTEX
  8
C7
  10
330.381400
  20
521.202700
  0
VERTEX
  8
C7
  10
330.362100
  20
522.235600
  0
VERTEX
  8
C7
  10
330.329500
  20
523.259300
  0
VERTEX
  8
C7
  10
330.282700
  20
524.272600
  0
VERTEX
  8
C7
  10
330.221000
  20
525.274400
  0
VERTEX
  8
C7
  10
330.143400
  20
526.263700
  0
VERTEX
  8
C7
  10
330.049100
  20
527.239200
  0
VERTEX
  8
C7
  10
329.937300
  20
528.200000
  0
VERTEX
  8
C7
  10
329.807100
  20
529.144900
  0
VERTEX
  8
C7
  10
329.657600
  20
530.072900
  0
VERTEX
  8
C7
  10
329.487900
  20
530.982700
  0
VERTEX
  8
C7
  10
329.297400
  20
531.873300
  0
VERTEX
  8
C7
  10
329.084900
  20
532.743700
  0
VERTEX
  8
C7
  10
328.849800
  20
533.592600
  0
VERTEX
  8
C7
  10
328.591200
  20
534.419000
  0
VERTEX
  8
C7
  10
328.308200
  20
535.221800
  0
VERTEX
  8
C7
  10
328.000000
  20
536.000000
  0
SEQEND
  8
C7
  0
POLYLINE
  8
C7
  66
1
  10
345.000000
  20
532.000000
  0
VERTEX
  8
C7
  10
345.000000
  20
532.000000
  0
VERTEX
  8
C7
  10
346.000000
  20
528.000000
  0
VERTEX
  8
C7
  10
349.000000
  20
532.000000
  0
VERTEX
  8
C7
  10
345.000000
  20
532.000000
  0
SEQEND
  8
C7
  0
POLYLINE
  8
C7
  66
1
  10
397.000000
  20
529.000000
  0
VERTEX
  8
C7
  10
397.000000
  20
529.000000
  0
VERTEX
  8
C7
  10
397.000000
  20
526.000000
  0
VERTEX
  8
C7
  10
400.000000
  20
526.000000
  0
VERTEX
  8
C7
  10
400.000000
  20
529.000000
  0
VERTEX
  8
C7
  10
397.000000
  20
529.000000
  0
SEQEND
  8
C7
  0
POLYLINE
  8
C7
  66
1
  10
193.000000
  20
518.000000
  0
VERTEX
  8
C7
  10
193.000000
  20
518.000000
  0
VERTEX
  8
C7
  10
200.000000
  20
520.000000
  0
VERTEX
  8
C7
  10
193.000000
  20
508.000000
  0
VERTEX
  8
C7
  10
203.000000
  20
508.000000
  0
VERTEX
  8
C7
  10
203.000000
  20
511.000000
  0
VERTEX
  8
C7
  10
198.000000
  20
511.000000
  0
VERTEX
  8
C7
  10
198.610900
  20
511.647100
  0
VERTEX
  8
C7
  10
199.255400
  20
512.322200
  0
VERTEX
  8
C7
  10
199.907500
  20
513.026700
  0
VERTEX
  8
C7
  10
200.541800
  20
513.761900
  0
VERTEX
  8
C7
  10
201.132500
  20
514.529100
  0
VERTEX
  8
C7
  10
201.653900
  20
515.329600
  0
VERTEX
  8
C7
  10
202.080400
  20
516.164700
  0
VERTEX
  8
C7
  10
202.386400
  20
517.035800
  0
VERTEX
  8
C7
  10
202.546100
  20
517.944200
  0
VERTEX
  8
C7
  10
202.533900
  20
518.891200
  0
VERTEX
  8
C7
  10
202.354700
  20
519.887900
  0
VERTEX
  8
C7
  10
202.066100
  20
520.708400
  0
VERTEX
  8
C7
  10
201.680900
  20
521.362600
  0
VERTEX
  8
C7
  10
201.211700
  20
521.860600
  0
VERTEX
  8
C7
  10
200.671500
  20
522.212300
  0
VERTEX
  8
C7
  10
200.073000
  20
522.427600
  0
VERTEX
  8
C7
  10
199.429000
  20
522.516500
  0
VERTEX
  8
C7
  10
198.752200
  20
522.488900
  0
VERTEX
  8
C7
  10
198.055600
  20
522.354900
  0
VERTEX
  8
C7
  10
197.351800
  20
522.124300
  0
VERTEX
  8
C7
  10
196.653700
  20
521.807100
  0
VERTEX
  8
C7
  10
195.974000
  20
521.413400
  0
VERTEX
  8
C7
  10
195.325600
  20
520.953000
  0
VERTEX
  8
C7
  10
194.721200
  20
520.435900
  0
VERTEX
  8
C7
  10
194.173700
  20
519.872100
  0
VERTEX
  8
C7
  10
193.695800
  20
519.271600
  0
VERTEX
  8
C7
  10
193.300300
  20
518.644200
  0
VERTEX
  8
C7
  10
193.000000
  20
518.000000
  0
SEQEND
  8
C7
  0
POLYLINE
  8
C7
  66
1
  10
210.000000
  20
517.000000
  0
VERTEX
  8
C7
  10
210.000000
  20
517.000000
  0
VERTEX
  8
C7
  10
214.000000
  20
518.000000
  0
VERTEX
  8
C7
  10
214.000000
  20
508.000000
  0
VERTEX
  8
C7
  10
216.000000
  20
508.000000
  0
VERTEX
  8
C7
  10
216.000000
  20
523.000000
  0
VERTEX
  8
C7
  10
210.000000
  20
517.000000
  0
SEQEND
  8
C7
  0
POLYLINE
  8
C7
  66
1
  10
222.000000
  20
523.000000
  0
VERTEX
  8
C7
  10
222.000000
  20
523.000000
  0
VERTEX
  8
C7
  10
219.000000
  20
508.000000
  0
VERTEX
  8
C7
  10
225.000000
  20
523.000000
  0
VERTEX
  8
C7
  10
222.000000
  20
523.000000
  0
SEQEND
  8
C7
  0
POLYLINE
  8
C7
  66
1
  10
224.000000
  20
511.000000
  0
VERTEX
  8
C7
  10
224.000000
  20
511.000000
  0
VERTEX
  8
C7
  10
230.000000
  20
508.000000
  0
VERTEX
  8
C7
  10
233.000000
  20
508.000000
  0
VERTEX
  8
C7
  10
233.000000
  20
523.000000
  0
VERTEX
  8
C7
  10
232.019900
  20
522.653500
  0
VERTEX
  8
C7
  10
231.097600
  20
522.233900
  0
VERTEX
  8
C7
  10
230.232700
  20
521.745200
  0
VERTEX
  8
C7
  10
229.424700
  20
521.191600
  0
VERTEX
  8
C7
  10
228.673100
  20
520.577300
  0
VERTEX
  8
C7
  10
227.977500
  20
519.906300
  0
VERTEX
  8
C7
  10
227.337500
  20
519.183000
  0
VERTEX
  8
C7
  10
226.752500
  20
518.411400
  0
VERTEX
  8
C7
  10
226.222100
  20
517.595700
  0
VERTEX
  8
C7
  10
225.745900
  20
516.740000
  0
VERTEX
  8
C7
  10
225.323400
  20
515.848600
  0
VERTEX
  8
C7
  10
224.954000
  20
514.925500
  0
VERTEX
  8
C7
  10
224.637500
  20
513.974900
  0
VERTEX
  8
C7
  10
224.373300
  20
513.001100
  0
VERTEX
  8
C7
  10
224.160900
  20
512.008000
  0
VERTEX
  8
C7
  10
224.000000
  20
511.000000
  0
SEQEND
  8
C7
  0
POLYLINE
  8
C7
  66
1
  10
235.000000
  20
523.000000
  0
VERTEX
  8
C7
  10
235.000000
  20
523.000000
  0
VERTEX
  8
C7
  10
235.000000
  20
517.000000
  0
VERTEX
  8
C7
  10
241.000000
  20
517.000000
  0
VERTEX
  8
C7
  10
241.000000
  20
523.000000
  0
VERTEX
  8
C7
  10
235.000000
  20
523.000000
  0
SEQEND
  8
C7
  0
POLYLINE
  8
C7
  66
1
  10
245.000000
  20
523.000000
  0
VERTEX
  8
C7
  10
245.000000
  20
523.000000
  0
VERTEX
  8
C7
  10
244.649300
  20
522.184900
  0
VERTEX
  8
C7
  10
244.309500
  20
521.344500
  0
VERTEX
  8
C7
  10
243.984600
  20
520.482300
  0
VERTEX
  8
C7
  10
243.678800
  20
519.601700
  0
VERTEX
  8
C7
  10
243.396200
  20
518.706200
  0
VERTEX
  8
C7
  10
243.141000
  20
517.799300
  0
VERTEX
  8
C7
  10
242.917300
  20
516.884500
  0
VERTEX
  8
C7
  10
242.729200
  20
515.965100
  0
VERTEX
  8
C7
  10
242.580900
  20
515.044800
  0
VERTEX
  8
C7
  10
242.476500
  20
514.126900
  0
VERTEX
  8
C7
  10
242.420200
  20
513.215000
  0
VERTEX
  8
C7
  10
242.416100
  20
512.312500
  0
VERTEX
  8
C7
  10
242.468300
  20
511.422900
  0
VERTEX
  8
C7
  10
242.581000
  20
510.549600
  0
VERTEX
  8
C7
  10
242.758300
  20
509.696200
  0
VERTEX
  8
C7
  10
243.004400
  20
508.866100
  0
VERTEX
  8
C7
  10
243.323300
  20
508.062800
  0
VERTEX
  8
C7
  10
243.719400
  20
507.289800
  0
VERTEX
  8
C7
  10
244.196600
  20
506.550400
  0
VERTEX
  8
C7
  10
244.759100
  20
505.848300
  0
VERTEX
  8
C7
  10
245.411100
  20
505.186900
  0
VERTEX
  8
C7
  10
246.156600
  20
504.569600
  0
VERTEX
  8
C7
  10
247.000000
  20
504.000000
  0
VERTEX
  8
C7
  10
247.000000
  20
523.000000
  0
VERTEX
  8
C7
  10
245.000000
  20
523.000000
  0
SEQEND
  8
C7
  0
POLYLINE
  8
C7
  66
1
  10
248.000000
  20
515.000000
  0
VERTEX
  8
C7
  10
248.000000
  20
515.000000
  0
VERTEX
  8
C7
  10
249.000000
  20
514.000000
  0
VERTEX
  8
C7
  10
252.000000
  20
516.000000
  0
VERTEX
  8
C7
  10
253.000000
  20
516.000000
  0
VERTEX
  8
C7
  10
255.000000
  20
512.000000
  0
VERTEX
  8
C7
  10
248.000000
  20
513.000000
  0
VERTEX
  8
C7
  10
248.244200
  20
512.278700
  0
VERTEX
  8
C7
  10
248.514300
  20
511.632100
  0
VERTEX
  8
C7
  10
248.807800
  20
511.057500
  0
VERTEX
  8
C7
  10
249.122600
  20
510.552300
  0
VERTEX
  8
C7
  10
249.456300
  20
510.114100
  0
VERTEX
  8
C7
  10
249.806600
  20
509.740200
  0
VERTEX
  8
C7
  10
250.171300
  20
509.428100
  0
VERTEX
  8
C7
  10
250.547900
  20
509.175100
  0
VERTEX
  8
C7
  10
250.934200
  20
508.978700
  0
VERTEX
  8
C7
  10
251.327900
  20
508.836400
  0
VERTEX
  8
C7
  10
251.726700
  20
508.745600
  0
VERTEX
  8
C7
  10
252.128300
  20
508.703600
  0
VERTEX
  8
C7
  10
252.530400
  20
508.708000
  0
VERTEX
  8
C7
  10
252.930700
  20
508.756100
  0
VERTEX
  8
C7
  10
253.326900
  20
508.845300
  0
VERTEX
  8
C7
  10
253.716600
  20
508.973200
  0
VERTEX
  8
C7
  10
254.097600
  20
509.137100
  0
VERTEX
  8
C7
  10
254.467600
  20
509.334500
  0
VERTEX
  8
C7
  10
254.824200
  20
509.562700
  0
VERTEX
  8
C7
  10
255.165300
  20
509.819300
  0
VERTEX
  8
C7
  10
255.488300
  20
510.101600
  0
VERTEX
  8
C7
  10
255.791200
  20
510.407100
  0
VERTEX
  8
C7
  10
256.071500
  20
510.733100
  0
VERTEX
  8
C7
  10
256.326900
  20
511.077200
  0
VERTEX
  8
C7
  10
256.555300
  20
511.436800
  0
VERTEX
  8
C7
  10
256.754100
  20
511.809200
  0
VERTEX
  8
C7
  10
256.921200
  20
512.191900
  0
VERTEX
  8
C7
  10
257.054300
  20
512.582300
  0
VERTEX
  8
C7
  10
257.150900
  20
512.977900
  0
VERTEX
  8
C7
  10
257.209000
  20
513.376100
  0
VERTEX
  8
C7
  10
257.226000
  20
513.774300
  0
VERTEX
  8
C7
  10
257.199800
  20
514.170000
  0
VERTEX
  8
C7
  10
257.128000
  20
514.560500
  0
VERTEX
  8
C7
  10
257.008400
  20
514.943300
  0
VERTEX
  8
C7
  10
256.838500
  20
515.315900
  0
VERTEX
  8
C7
  10
256.616200
  20
515.675600
  0
VERTEX
  8
C7
  10
256.339100
  20
516.019800
  0
VERTEX
  8
C7
  10
256.004900
  20
516.346100
  0
VERTEX
  8
C7
  10
255.611400
  20
516.651800
  0
VERTEX
  8
C7
  10
255.156100
  20
516.934400
  0
VERTEX
  8
C7
  10
254.636800
  20
517.191300
  0
VERTEX
  8
C7
  10
254.051300
  20
517.419900
  0
VERTEX
  8
C7
  10
253.397100
  20
517.617600
  0
VERTEX
  8
C7
  10
252.672000
  20
517.781900
  0
VERTEX
  8
C7
  10
251.873700
  20
517.910200
  0
VERTEX
  8
C7
  10
251.000000
  20
518.000000
  0
VERTEX
  8
C7
  10
251.000000
  20
519.000000
  0
VERTEX
  8
C7
  10
257.000000
  20
520.000000
  0
VERTEX
  8
C7
  10
257.000000
  20
523.000000
  0
VERTEX
  8
C7
  10
255.710000
  20
522.956200
  0
VERTEX
  8
C7
  10
254.560900
  20
522.853600
  0
VERTEX
  8
C7
  10
253.542400
  20
522.686500
  0
VERTEX
  8
C7
  10
252.644100
  20
522.449400
  0
VERTEX
  8
C7
  10
251.855600
  20
522.136700
  0
VERTEX
  8
C7
  10
251.166800
  20
521.742800
  0
VERTEX
  8
C7
  10
250.567100
  20
521.262100
  0
VERTEX
  8
C7
  10
250.046400
  20
520.689200
  0
VERTEX
  8
C7
  10
249.594200
  20
520.018300
  0
VERTEX
  8
C7
  10
249.200200
  20
519.243900
  0
VERTEX
  8
C7
  10
248.854100
  20
518.360400
  0
VERTEX
  8
C7
  10
248.545600
  20
517.362400
  0
VERTEX
  8
C7
  10
248.264300
  20
516.244100
  0
VERTEX
  8
C7
  10
248.000000
  20
515.000000
  0
SEQEND
  8
C7
  0
POLYLINE
  8
C7
  66
1
  10
258.000000
  20
523.000000
  0
VERTEX
  8
C7
  10
258.000000
  20
523.000000
  0
VERTEX
  8
C7
  10
258.000000
  20
520.000000
  0
VERTEX
  8
C7
  10
264.000000
  20
520.000000
  0
VERTEX
  8
C7
  10
260.000000
  20
508.000000
  0
VERTEX
  8
C7
  10
260.669400
  20
508.216900
  0
VERTEX
  8
C7
  10
261.319000
  20
508.569600
  0
VERTEX
  8
C7
  10
261.947300
  20
509.045400
  0
VERTEX
  8
C7
  10
262.553000
  20
509.631600
  0
VERTEX
  8
C7
  10
263.134700
  20
510.315400
  0
VERTEX
  8
C7
  10
263.691100
  20
511.084000
  0
VERTEX
  8
C7
  10
264.220800
  20
511.924800
  0
VERTEX
  8
C7
  10
264.722400
  20
512.824900
  0
VERTEX
  8
C7
  10
265.194700
  20
513.771600
  0
VERTEX
  8
C7
  10
265.636100
  20
514.752200
  0
VERTEX
  8
C7
  10
266.045400
  20
515.754000
  0
VERTEX
  8
C7
  10
266.421300
  20
516.764100
  0
VERTEX
  8
C7
  10
266.762200
  20
517.770000
  0
VERTEX
  8
C7
  10
267.067000
  20
518.758700
  0
VERTEX
  8
C7
  10
267.334200
  20
519.717600
  0
VERTEX
  8
C7
  10
267.562400
  20
520.633900
  0
VERTEX
  8
C7
  10
267.750400
  20
521.494900
  0
VERTEX
  8
C7
  10
267.896700
  20
522.287800
  0
VERTEX
  8
C7
  10
268.000000
  20
523.000000
  0
VERTEX
  8
C7
  10
258.000000
  20
523.000000
  0
SEQEND
  8
C7
  0
POLYLINE
  8
C7
  66
1
  10
300.000000
  20
523.000000
  0
VERTEX
  8
C7
  10
300.000000
  20
523.000000
  0
VERTEX
  8
C7
  10
300.346100
  20
521.870100
  0
VERTEX
  8
C7
  10
300.648200
  20
520.783500
  0
VERTEX
  8
C7
  10
300.907000
  20
519.735100
  0
VERTEX
  8
C7
  10
301.123700
  20
518.719800
  0
VERTEX
  8
C7
  10
301.299300
  20
517.732500
  0
VERTEX
  8
C7
  10
301.434700
  20
516.768100
  0
VERTEX
  8
C7
  10
301.531000
  20
515.821500
  0
VERTEX
  8
C7
  10
301.589200
  20
514.887600
  0
VERTEX
  8
C7
  10
301.610200
  20
513.961400
  0
VERTEX
  8
C7
  10
301.595100
  20
513.037700
  0
VERTEX
  8
C7
  10
301.544900
  20
512.111500
  0
VERTEX
  8
C7
  10
301.460600
  20
511.177700
  0
VERTEX
  8
C7
  10
301.343200
  20
510.231100
  0
VERTEX
  8
C7
  10
301.193700
  20
509.266800
  0
VERTEX
  8
C7
  10
301.013100
  20
508.279500
  0
VERTEX
  8
C7
  10
300.802400
  20
507.264300
  0
VERTEX
  8
C7
  10
300.562700
  20
506.216100
  0
VERTEX
  8
C7
  10
300.294900
  20
505.129600
  0
VERTEX
  8
C7
  10
300.000000
  20
504.000000
  0
VERTEX
  8
C7
  10
300.748300
  20
504.305200
  0
VERTEX
  8
C7
  10
301.443800
  20
504.686300
  0
VERTEX
  8
C7
  10
302.086300
  20
505.137500
  0
VERTEX
  8
C7
  10
302.675800
  20
505.653200
  0
VERTEX
  8
C7
  10
303.212200
  20
506.227800
  0
VERTEX
  8
C7
  10
303.695500
  20
506.855500
  0
VERTEX
  8
C7
  10
304.125600
  20
507.530800
  0
VERTEX
  8
C7
  10
304.502400
  20
508.248100
  0
VERTEX
  8
C7
  10
304.825900
  20
509.001600
  0
VERTEX
  8
C7
  10
305.096000
  20
509.785800
  0
VERTEX
  8
C7
  10
305.312700
  20
510.594900
  0
VERTEX
  8
C7
  10
305.475800
  20
511.423400
  0
VERTEX
  8
C7
  10
305.585400
  20
512.265600
  0
VERTEX
  8
C7
  10
305.641300
  20
513.115900
  0
VERTEX
  8
C7
  10
305.643500
  20
513.968500
  0
VERTEX
  8
C7
  10
305.591900
  20
514.818000
  0
VERTEX
  8
C7
  10
305.486500
  20
515.658600
  0
VERTEX
  8
C7
  10
305.327300
  20
516.484700
  0
VERTEX
  8
C7
  10
305.114000
  20
517.290600
  0
VERTEX
  8
C7
  10
304.846700
  20
518.070700
  0
VERTEX
  8
C7
  10
304.525400
  20
518.819400
  0
VERTEX
  8
C7
  10
304.149900
  20
519.531000
  0
VERTEX
  8
C7
  10
303.720200
  20
520.199900
  0
VERTEX
  8
C7
  10
303.236200
  20
520.820400
  0
VERTEX
  8
C7
  10
302.697900
  20
521.386900
  0
VERTEX
  8
C7
  10
302.105200
  20
521.893800
  0
VERTEX
  8
C7
  10
301.458000
  20
522.335300
  0
VERTEX
  8
C7
  10
300.756300
  20
522.705900
  0
VERTEX
  8
C7
  10
300.000000
  20
523.000000
  0
SEQEND
  8
C7
  0
POLYLINE
  8
C7
  66
1
  10
269.000000
  20
519.000000
  0
VERTEX
  8
C7
  10
269.000000
  20
519.000000
  0
VERTEX
  8
C7
  10
269.000000
  20
508.000000
  0
VERTEX
  8
C7
  10
272.000000
  20
508.000000
  0
VERTEX
  8
C7
  10
273.000000
  20
517.000000
  0
VERTEX
  8
C7
  10
274.000000
  20
517.000000
  0
VERTEX
  8
C7
  10
275.000000
  20
508.000000
  0
VERTEX
  8
C7
  10
278.000000
  20
508.000000
  0
VERTEX
  8
C7
  10
279.000000
  20
517.000000
  0
VERTEX
  8
C7
  10
280.000000
  20
517.000000
  0
VERTEX
  8
C7
  10
281.000000
  20
508.000000
  0
VERTEX
  8
C7
  10
283.000000
  20
508.000000
  0
VERTEX
  8
C7
  10
282.981900
  20
509.291600
  0
VERTEX
  8
C7
  10
282.927400
  20
510.478100
  0
VERTEX
  8
C7
  10
282.835200
  20
511.563700
  0
VERTEX
  8
C7
  10
282.704300
  20
512.553100
  0
VERTEX
  8
C7
  10
282.533500
  20
513.450500
  0
VERTEX
  8
C7
  10
282.321600
  20
514.260700
  0
VERTEX
  8
C7
  10
282.067600
  20
514.987900
  0
VERTEX
  8
C7
  10
281.770300
  20
515.636700
  0
VERTEX
  8
C7
  10
281.428600
  20
516.211500
  0
VERTEX
  8
C7
  10
281.041400
  20
516.716900
  0
VERTEX
  8
C7
  10
280.607500
  20
517.157200
  0
VERTEX
  8
C7
  10
280.125800
  20
517.537000
  0
VERTEX
  8
C7
  10
279.595200
  20
517.860800
  0
VERTEX
  8
C7
  10
279.014500
  20
518.132900
  0
VERTEX
  8
C7
  10
278.382600
  20
518.357900
  0
VERTEX
  8
C7
  10
277.698400
  20
518.540300
  0
VERTEX
  8
C7
  10
276.960800
  20
518.684400
  0
VERTEX
  8
C7
  10
276.168600
  20
518.794900
  0
VERTEX
  8
C7
  10
275.320600
  20
518.876100
  0
VERTEX
  8
C7
  10
274.415900
  20
518.932600
  0
VERTEX
  8
C7
  10
273.453100
  20
518.968800
  0
VERTEX
  8
C7
  10
272.431300
  20
518.989100
  0
VERTEX
  8
C7
  10
271.349300
  20
518.998100
  0
VERTEX
  8
C7
  10
270.205800
  20
519.000200
  0
VERTEX
  8
C7
  10
269.000000
  20
519.000000
  0
SEQEND
  8
C7
  0
POLYLINE
  8
C7
  66
1
  10
285.000000
  20
519.000000
  0
VERTEX
  8
C7
  10
285.000000
  20
519.000000
  0
VERTEX
  8
C7
  10
285.000000
  20
508.000000
  0
VERTEX
  8
C7
  10
287.000000
  20
508.000000
  0
VERTEX
  8
C7
  10
289.000000
  20
517.000000
  0
VERTEX
  8
C7
  10
291.000000
  20
508.000000
  0
VERTEX
  8
C7
  10
293.000000
  20
508.000000
  0
VERTEX
  8
C7
  10
296.000000
  20
516.000000
  0
VERTEX
  8
C7
  10
296.000000
  20
508.000000
  0
VERTEX
  8
C7
  10
299.000000
  20
508.000000
  0
VERTEX
  8
C7
  10
298.981400
  20
509.289800
  0
VERTEX
  8
C7
  10
298.925600
  20
510.474100
  0
VERTEX
  8
C7
  10
298.831300
  20
511.557500
  0
VERTEX
  8
C7
  10
298.697600
  20
512.544500
  0
VERTEX
  8
C7
  10
298.523600
  20
513.439600
  0
VERTEX
  8
C7
  10
298.308100
  20
514.247200
  0
VERTEX
  8
C7
  10
298.050200
  20
514.972000
  0
VERTEX
  8
C7
  10
297.748800
  20
515.618400
  0
VERTEX
  8
C7
  10
297.403000
  20
516.191000
  0
VERTEX
  8
C7
  10
297.011800
  20
516.694300
  0
VERTEX
  8
C7
  10
296.574000
  20
517.132700
  0
VERTEX
  8
C7
  10
296.088800
  20
517.511000
  0
VERTEX
  8
C7
  10
295.555100
  20
517.833400
  0
VERTEX
  8
C7
  10
294.971900
  20
518.104600
  0
VERTEX
  8
C7
  10
294.338100
  20
518.329200
  0
VERTEX
  8
C7
  10
293.652900
  20
518.511500
  0
VERTEX
  8
C7
  10
292.915100
  20
518.656200
  0
VERTEX
  8
C7
  10
292.123700
  20
518.767700
  0
VERTEX
  8
C7
  10
291.277800
  20
518.850600
  0
VERTEX
  8
C7
  10
290.376300
  20
518.909400
  0
VERTEX
  8
C7
  10
289.418200
  20
518.948600
  0
VERTEX
  8
C7
  10
288.402600
  20
518.972700
  0
VERTEX
  8
C7
  10
287.328300
  20
518.986300
  0
VERTEX
  8
C7
  10
286.194500
  20
518.993900
  0
VERTEX
  8
C7
  10
285.000000
  20
519.000000
  0
SEQEND
  8
C7
  0
POLYLINE
  8
C7
  66
1
  10
229.000000
  20
517.000000
  0
VERTEX
  8
C7
  10
229.000000
  20
517.000000
  0
VERTEX
  8
C7
  10
228.000000
  20
514.000000
  0
VERTEX
  8
C7
  10
229.000000
  20
517.000000
  0
SEQEND
  8
C7
  0
POLYLINE
  8
C7
  66
1
  10
61.000000
  20
496.000000
  0
VERTEX
  8
C7
  10
61.000000
  20
496.000000
  0
VERTEX
  8
C7
  10
54.000000
  20
488.000000
  0
VERTEX
  8
C7
  10
61.000000
  20
496.000000
  0
SEQEND
  8
C7
  0
POLYLINE
  8
C7
  66
1
  10
106.000000
  20
496.000000
  0
VERTEX
  8
C7
  10
106.000000
  20
496.000000
  0
VERTEX
  8
C7
  10
78.000000
  20
467.000000
  0
VERTEX
  8
C7
  10
78.586300
  20
467.415900
  0
VERTEX
  8
C7
  10
79.206900
  20
467.862000
  0
VERTEX
  8
C7
  10
79.859500
  20
468.337100
  0
VERTEX
  8
C7
  10
80.541600
  20
468.839800
  0
VERTEX
  8
C7
  10
81.251200
  20
469.369200
  0
VERTEX
  8
C7
  10
81.986000
  20
469.923800
  0
VERTEX
  8
C7
  10
82.743700
  20
470.502700
  0
VERTEX
  8
C7
  10
83.522000
  20
471.104400
  0
VERTEX
  8
C7
  10
84.318600
  20
471.728000
  0
VERTEX
  8
C7
  10
85.131400
  20
472.372000
  0
VERTEX
  8
C7
  10
85.958100
  20
473.035500
  0
VERTEX
  8
C7
  10
86.796300
  20
473.717100
  0
VERTEX
  8
C7
  10
87.643900
  20
474.415600
  0
VERTEX
  8
C7
  10
88.498600
  20
475.130000
  0
VERTEX
  8
C7
  10
89.358100
  20
475.858900
  0
VERTEX
  8
C7
  10
90.220200
  20
476.601100
  0
VERTEX
  8
C7
  10
91.082600
  20
477.355600
  0
VERTEX
  8
C7
  10
91.943000
  20
478.121000
  0
VERTEX
  8
C7
  10
92.799200
  20
478.896200
  0
VERTEX
  8
C7
  10
93.649000
  20
479.679900
  0
VERTEX
  8
C7
  10
94.490000
  20
480.471100
  0
VERTEX
  8
C7
  10
95.320100
  20
481.268400
  0
VERTEX
  8
C7
  10
96.136900
  20
482.070700
  0
VERTEX
  8
C7
  10
96.938200
  20
482.876800
  0
VERTEX
  8
C7
  10
97.721700
  20
483.685500
  0
VERTEX
  8
C7
  10
98.485300
  20
484.495600
  0
VERTEX
  8
C7
  10
99.226500
  20
485.305900
  0
VERTEX
  8
C7
  10
99.943200
  20
486.115200
  0
VERTEX
  8
C7
  10
100.633100
  20
486.922300
  0
VERTEX
  8
C7
  10
101.294000
  20
487.726000
  0
VERTEX
  8
C7
  10
101.923500
  20
488.525100
  0
VERTEX
  8
C7
  10
102.519500
  20
489.318400
  0
VERTEX
  8
C7
  10
103.079700
  20
490.104700
  0
VERTEX
  8
C7
  10
103.601700
  20
490.882900
  0
VERTEX
  8
C7
  10
104.083400
  20
491.651600
  0
VERTEX
  8
C7
  10
104.522600
  20
492.409800
  0
VERTEX
  8
C7
  10
104.916800
  20
493.156200
  0
VERTEX
  8
C7
  10
105.263900
  20
493.889600
  0
VERTEX
  8
C7
  10
105.561700
  20
494.608800
  0
VERTEX
  8
C7
  10
105.807800
  20
495.312700
  0
VERTEX
  8
C7
  10
106.000000
  20
496.000000
  0
SEQEND
  8
C7
  0
POLYLINE
  8
C7
  66
1
  10
693.000000
  20
496.000000
  0
VERTEX
  8
C7
  10
693.000000
  20
496.000000
  0
VERTEX
  8
C7
  10
692.417500
  20
495.408700
  0
VERTEX
  8
C7
  10
691.825800
  20
494.791600
  0
VERTEX
  8
C7
  10
691.225000
  20
494.150300
  0
VERTEX
  8
C7
  10
690.615500
  20
493.486600
  0
VERTEX
  8
C7
  10
689.997400
  20
492.802200
  0
VERTEX
  8
C7
  10
689.371100
  20
492.098600
  0
VERTEX
  8
C7
  10
688.736600
  20
491.377700
  0
VERTEX
  8
C7
  10
688.094300
  20
490.641100
  0
VERTEX
  8
C7
  10
687.444300
  20
489.890500
  0
VERTEX
  8
C7
  10
686.786900
  20
489.127600
  0
VERTEX
  8
C7
  10
686.122400
  20
488.354100
  0
VERTEX
  8
C7
  10
685.451000
  20
487.571600
  0
VERTEX
  8
C7
  10
684.772800
  20
486.781900
  0
VERTEX
  8
C7
  10
684.088200
  20
485.986700
  0
VERTEX
  8
C7
  10
683.397300
  20
485.187700
  0
VERTEX
  8
C7
  10
682.700400
  20
484.386400
  0
VERTEX
  8
C7
  10
681.997800
  20
483.584800
  0
VERTEX
  8
C7
  10
681.289500
  20
482.784300
  0
VERTEX
  8
C7
  10
680.576000
  20
481.986800
  0
VERTEX
  8
C7
  10
679.857400
  20
481.193800
  0
VERTEX
  8
C7
  10
679.133900
  20
480.407200
  0
VERTEX
  8
C7
  10
678.405800
  20
479.628600
  0
VERTEX
  8
C7
  10
677.673300
  20
478.859600
  0
VERTEX
  8
C7
  10
676.936700
  20
478.102100
  0
VERTEX
  8
C7
  10
676.196100
  20
477.357600
  0
VERTEX
  8
C7
  10
675.451800
  20
476.627800
  0
VERTEX
  8
C7
  10
674.704000
  20
475.914500
  0
VERTEX
  8
C7
  10
673.953000
  20
475.219400
  0
VERTEX
  8
C7
  10
673.199000
  20
474.544100
  0
VERTEX
  8
C7
  10
672.442200
  20
473.890300
  0
VERTEX
  8
C7
  10
671.682800
  20
473.259800
  0
VERTEX
  8
C7
  10
670.921100
  20
472.654100
  0
VERTEX
  8
C7
  10
670.157400
  20
472.075100
  0
VERTEX
  8
C7
  10
669.391800
  20
471.524300
  0
VERTEX
  8
C7
  10
668.624500
  20
471.003500
  0
VERTEX
  8
C7
  10
667.855900
  20
470.514400
  0
VERTEX
  8
C7
  10
667.086100
  20
470.058700
  0
VERTEX
  8
C7
  10
666.315400
  20
469.638100
  0
VERTEX
  8
C7
  10
665.544000
  20
469.254100
  0
VERTEX
  8
C7
  10
664.772100
  20
468.908700
  0
VERTEX
  8
C7
  10
664.000000
  20
468.603400
  0
SEQEND
  8
C7
  0
POLYLINE
  8
C7
  66
1
  10
664.000000
  20
468.603300
  0
VERTEX
  8
C7
  10
664.000000
  20
468.603300
  0
VERTEX
  8
C7
  10
663.097600
  20
468.314300
  0
VERTEX
  8
C7
  10
662.156800
  20
468.092500
  0
VERTEX
  8
C7
  10
661.183500
  20
467.930300
  0
VERTEX
  8
C7
  10
660.183400
  20
467.820600
  0
VERTEX
  8
C7
  10
659.162500
  20
467.756100
  0
VERTEX
  8
C7
  10
658.126500
  20
467.729300
  0
VERTEX
  8
C7
  10
657.081400
  20
467.733100
  0
VERTEX
  8
C7
  10
656.033000
  20
467.760000
  0
VERTEX
  8
C7
  10
654.987000
  20
467.802900
  0
VERTEX
  8
C7
  10
653.949500
  20
467.854300
  0
VERTEX
  8
C7
  10
652.926100
  20
467.907100
  0
VERTEX
  8
C7
  10
651.922900
  20
467.953800
  0
VERTEX
  8
C7
  10
650.945500
  20
467.987200
  0
VERTEX
  8
C7
  10
650.000000
  20
468.000000
  0
VERTEX
  8
C7
  10
650.000000
  20
467.000000
  0
VERTEX
  8
C7
  10
687.000000
  20
467.000000
  0
VERTEX
  8
C7
  10
687.000000
  20
448.000000
  0
VERTEX
  8
C7
  10
688.000000
  20
448.000000
  0
VERTEX
  8
C7
  10
688.000000
  20
467.000000
  0
VERTEX
  8
C7
  10
693.000000
  20
467.000000
  0
VERTEX
  8
C7
  10
693.000000
  20
468.000000
  0
VERTEX
  8
C7
  10
667.000000
  20
468.000000
  0
VERTEX
  8
C7
  10
667.560600
  20
468.550400
  0
VERTEX
  8
C7
  10
668.156600
  20
469.117000
  0
VERTEX
  8
C7
  10
668.785500
  20
469.699100
  0
VERTEX
  8
C7
  10
669.444800
  20
470.296100
  0
VERTEX
  8
C7
  10
670.132200
  20
470.907500
  0
VERTEX
  8
C7
  10
670.845200
  20
471.532600
  0
VERTEX
  8
C7
  10
671.581500
  20
472.170800
  0
VERTEX
  8
C7
  10
672.338700
  20
472.821600
  0
VERTEX
  8
C7
  10
673.114300
  20
473.484400
  0
VERTEX
  8
C7
  10
673.905900
  20
474.158500
  0
VERTEX
  8
C7
  10
674.711100
  20
474.843500
  0
VERTEX
  8
C7
  10
675.527500
  20
475.538600
  0
VERTEX
  8
C7
  10
676.352700
  20
476.243300
  0
VERTEX
  8
C7
  10
677.184200
  20
476.957000
  0
VERTEX
  8
C7
  10
678.019800
  20
477.679200
  0
VERTEX
  8
C7
  10
678.856900
  20
478.409200
  0
VERTEX
  8
C7
  10
679.693200
  20
479.146400
  0
VERTEX
  8
C7
  10
680.526200
  20
479.890300
  0
VERTEX
  8
C7
  10
681.353500
  20
480.640200
  0
VERTEX
  8
C7
  10
682.172800
  20
481.395600
  0
VERTEX
  8
C7
  10
682.981600
  20
482.155800
  0
VERTEX
  8
C7
  10
683.777500
  20
482.920400
  0
VERTEX
  8
C7
  10
684.558100
  20
483.688600
  0
VERTEX
  8
C7
  10
685.320900
  20
484.459900
  0
VERTEX
  8
C7
  10
686.063700
  20
485.233800
  0
VERTEX
  8
C7
  10
686.783900
  20
486.009500
  0
VERTEX
  8
C7
  10
687.479200
  20
486.786600
  0
VERTEX
  8
C7
  10
688.147100
  20
487.564400
  0
VERTEX
  8
C7
  10
688.785300
  20
488.342400
  0
VERTEX
  8
C7
  10
689.391300
  20
489.119900
  0
VERTEX
  8
C7
  10
689.962700
  20
489.896400
  0
VERTEX
  8
C7
  10
690.497100
  20
490.671300
  0
VERTEX
  8
C7
  10
690.992100
  20
491.443900
  0
VERTEX
  8
C7
  10
691.445300
  20
492.213700
  0
VERTEX
  8
C7
  10
691.854300
  20
492.980100
  0
VERTEX
  8
C7
  10
692.216700
  20
493.742600
  0
VERTEX
  8
C7
  10
692.530000
  20
494.500400
  0
VERTEX
  8
C7
  10
692.791900
  20
495.253100
  0
VERTEX
  8
C7
  10
693.000000
  20
496.000000
  0
SEQEND
  8
C7
  0
POLYLINE
  8
C7
  66
1
  10
327.000000
  20
490.000000
  0
VERTEX
  8
C7
  10
327.000000
  20
490.000000
  0
VERTEX
  8
C7
  10
306.000000
  20
468.000000
  0
VERTEX
  8
C7
  10
328.000000
  20
468.000000
  0
VERTEX
  8
C7
  10
327.000000
  20
490.000000
  0
SEQEND
  8
C7
  0
POLYLINE
  8
C7
  66
1
  10
457.000000
  20
485.000000
  0
VERTEX
  8
C7
  10
457.000000
  20
485.000000
  0
VERTEX
  8
C7
  10
441.000000
  20
468.000000
  0
VERTEX
  8
C7
  10
458.000000
  20
468.000000
  0
VERTEX
  8
C7
  10
457.000000
  20
485.000000
  0
SEQEND
  8
C7
  0
POLYLINE
  8
C7
  66
1
  10
249.000000
  20
171.000000
  0
VERTEX
  8
C7
  10
249.000000
  20
171.000000
  0
VERTEX
  8
C7
  10
249.000000
  20
201.000000
  0
VERTEX
  8
C7
  10
250.000000
  20
201.000000
  0
VERTEX
  8
C7
  10
250.000000
  20
171.000000
  0
VERTEX
  8
C7
  10
537.000000
  20
171.000000
  0
VERTEX
  8
C7
  10
537.000000
  20
201.000000
  0
VERTEX
  8
C7
  10
538.000000
  20
201.000000
  0
VERTEX
  8
C7
  10
538.000000
  20
171.000000
  0
VERTEX
  8
C7
  10
574.000000
  20
171.000000
  0
VERTEX
  8
C7
  10
574.768400
  20
170.981300
  0
VERTEX
  8
C7
  10
575.639700
  20
170.933700
  0
VERTEX
  8
C7
  10
576.594200
  20
170.869500
  0
VERTEX
  8
C7
  10
577.612300
  20
170.801000
  0
VERTEX
  8
C7
  10
578.674400
  20
170.740700
  0
VERTEX
  8
C7
  10
579.760800
  20
170.700800
  0
VERTEX
  8
C7
  10
580.851900
  20
170.693800
  0
VERTEX
  8
C7
  10
581.928100
  20
170.732000
  0
VERTEX
  8
C7
  10
582.969700
  20
170.827700
  0
VERTEX
  8
C7
  10
583.957100
  20
170.993500
  0
VERTEX
  8
C7
  10
584.870700
  20
171.241500
  0
VERTEX
  8
C7
  10
585.690800
  20
171.584300
  0
VERTEX
  8
C7
  10
586.397900
  20
172.034000
  0
VERTEX
  8
C7
  10
586.972200
  20
172.603300
  0
VERTEX
  8
C7
  10
587.348400
  20
173.139400
  0
VERTEX
  8
C7
  10
587.685200
  20
173.743400
  0
VERTEX
  8
C7
  10
587.984000
  20
174.411200
  0
VERTEX
  8
C7
  10
588.246800
  20
175.139000
  0
VERTEX
  8
C7
  10
588.475200
  20
175.922700
  0
VERTEX
  8
C7
  10
588.671000
  20
176.758200
  0
VERTEX
  8
C7
  10
588.836000
  20
177.641700
  0
VERTEX
  8
C7
  10
588.971800
  20
178.569100
  0
VERTEX
  8
C7
  10
589.080200
  20
179.536300
  0
VERTEX
  8
C7
  10
589.163100
  20
180.539500
  0
VERTEX
  8
C7
  10
589.222000
  20
181.574600
  0
VERTEX
  8
C7
  10
589.258800
  20
182.637700
  0
VERTEX
  8
C7
  10
589.275200
  20
183.724600
  0
VERTEX
  8
C7
  10
589.273000
  20
184.831500
  0
VERTEX
  8
C7
  10
589.253900
  20
185.954300
  0
VERTEX
  8
C7
  10
589.219600
  20
187.089100
  0
VERTEX
  8
C7
  10
589.171900
  20
188.231800
  0
VERTEX
  8
C7
  10
589.112500
  20
189.378400
  0
VERTEX
  8
C7
  10
589.043200
  20
190.525000
  0
VERTEX
  8
C7
  10
588.965800
  20
191.667500
  0
VERTEX
  8
C7
  10
588.881900
  20
192.802000
  0
VERTEX
  8
C7
  10
588.793300
  20
193.924400
  0
VERTEX
  8
C7
  10
588.701800
  20
195.030800
  0
VERTEX
  8
C7
  10
588.609100
  20
196.117200
  0
VERTEX
  8
C7
  10
588.516900
  20
197.179500
  0
VERTEX
  8
C7
  10
588.427000
  20
198.213900
  0
VERTEX
  8
C7
  10
588.341200
  20
199.216200
  0
VERTEX
  8
C7
  10
588.261100
  20
200.182400
  0
VERTEX
  8
C7
  10
588.188600
  20
201.108700
  0
VERTEX
  8
C7
  10
588.125300
  20
201.991000
  0
VERTEX
  8
C7
  10
588.073100
  20
202.825200
  0
VERTEX
  8
C7
  10
588.033600
  20
203.607400
  0
VERTEX
  8
C7
  10
588.008700
  20
204.333700
  0
VERTEX
  8
C7
  10
588.000000
  20
205.000000
  0
VERTEX
  8
C7
  10
541.000000
  20
205.000000
  0
VERTEX
  8
C7
  10
541.000000
  20
206.000000
  0
VERTEX
  8
C7
  10
588.000000
  20
206.000000
  0
VERTEX
  8
C7
  10
588.000000
  20
403.000000
  0
VERTEX
  8
C7
  10
541.000000
  20
403.000000
  0
VERTEX
  8
C7
  10
541.000000
  20
404.000000
  0
VERTEX
  8
C7
  10
588.000000
  20
404.000000
  0
VERTEX
  8
C7
  10
588.000000
  20
449.000000
  0
VERTEX
  8
C7
  10
588.016000
  20
449.765000
  0
VERTEX
  8
C7
  10
588.059200
  20
450.617100
  0
VERTEX
  8
C7
  10
588.122200
  20
451.543700
  0
VERTEX
  8
C7
  10
588.197700
  20
452.532100
  0
VERTEX
  8
C7
  10
588.278400
  20
453.569700
  0
VERTEX
  8
C7
  10
588.356800
  20
454.643800
  0
VERTEX
  8
C7
  10
588.425700
  20
455.741800
  0
VERTEX
  8
C7
  10
588.477600
  20
456.851100
  0
VERTEX
  8
C7
  10
588.505300
  20
457.959000
  0
VERTEX
  8
C7
  10
588.501500
  20
459.053000
  0
VERTEX
  8
C7
  10
588.458600
  20
460.120300
  0
VERTEX
  8
C7
  10
588.369500
  20
461.148400
  0
VERTEX
  8
C7
  10
588.226700
  20
462.124600
  0
VERTEX
  8
C7
  10
588.022900
  20
463.036200
  0
VERTEX
  8
C7
  10
587.750800
  20
463.870700
  0
VERTEX
  8
C7
  10
587.403000
  20
464.615400
  0
VERTEX
  8
C7
  10
586.972200
  20
465.257700
  0
VERTEX
  8
C7
  10
586.563800
  20
465.685700
  0
VERTEX
  8
C7
  10
586.069900
  20
466.071700
  0
VERTEX
  8
C7
  10
585.495400
  20
466.417500
  0
VERTEX
  8
C7
  10
584.845300
  20
466.724800
  0
VERTEX
  8
C7
  10
584.124600
  20
466.995400
  0
VERTEX
  8
C7
  10
583.338300
  20
467.231200
  0
VERTEX
  8
C7
  10
582.491400
  20
467.433900
  0
VERTEX
  8
C7
  10
581.588900
  20
467.605400
  0
VERTEX
  8
C7
  10
580.635900
  20
467.747500
  0
VERTEX
  8
C7
  10
579.637200
  20
467.861900
  0
VERTEX
  8
C7
  10
578.598000
  20
467.950400
  0
VERTEX
  8
C7
  10
577.523200
  20
468.014900
  0
VERTEX
  8
C7
  10
576.417800
  20
468.057200
  0
VERTEX
  8
C7
  10
575.286800
  20
468.079100
  0
VERTEX
  8
C7
  10
574.135300
  20
468.082300
  0
VERTEX
  8
C7
  10
572.968200
  20
468.068700
  0
VERTEX
  8
C7
  10
571.790500
  20
468.040000
  0
VERTEX
  8
C7
  10
570.607300
  20
467.998200
  0
VERTEX
  8
C7
  10
569.423400
  20
467.944900
  0
VERTEX
  8
C7
  10
568.244100
  20
467.881900
  0
VERTEX
  8
C7
  10
567.074100
  20
467.811200
  0
VERTEX
  8
C7
  10
565.918600
  20
467.734400
  0
VERTEX
  8
C7
  10
564.782600
  20
467.653500
  0
VERTEX
  8
C7
  10
563.671000
  20
467.570100
  0
VERTEX
  8
C7
  10
562.588800
  20
467.486100
  0
VERTEX
  8
C7
  10
561.541100
  20
467.403300
  0
VERTEX
  8
C7
  10
560.532900
  20
467.323500
  0
VERTEX
  8
C7
  10
559.569100
  20
467.248500
  0
VERTEX
  8
C7
  10
558.654700
  20
467.180000
  0
VERTEX
  8
C7
  10
557.794800
  20
467.120000
  0
VERTEX
  8
C7
  10
556.994400
  20
467.070200
  0
VERTEX
  8
C7
  10
556.258500
  20
467.032400
  0
VERTEX
  8
C7
  10
555.592000
  20
467.008400
  0
VERTEX
  8
C7
  10
555.000000
  20
467.000000
  0
VERTEX
  8
C7
  10
459.000000
  20
467.000000
  0
VERTEX
  8
C7
  10
459.000000
  20
443.000000
  0
VERTEX
  8
C7
  10
463.000000
  20
443.000000
  0
VERTEX
  8
C7
  10
463.000000
  20
442.000000
  0
VERTEX
  8
C7
  10
459.000000
  20
442.000000
  0
VERTEX
  8
C7
  10
459.000000
  20
435.000000
  0
VERTEX
  8
C7
  10
458.000000
  20
435.000000
  0
VERTEX
  8
C7
  10
458.000000
  20
442.000000
  0
VERTEX
  8
C7
  10
454.000000
  20
442.000000
  0
VERTEX
  8
C7
  10
454.000000
  20
443.000000
  0
VERTEX
  8
C7
  10
458.000000
  20
443.000000
  0
VERTEX
  8
C7
  10
458.000000
  20
467.000000
  0
VERTEX
  8
C7
  10
329.000000
  20
467.000000
  0
VERTEX
  8
C7
  10
329.000000
  20
443.000000
  0
VERTEX
  8
C7
  10
333.000000
  20
443.000000
  0
VERTEX
  8
C7
  10
333.000000
  20
442.000000
  0
VERTEX
  8
C7
  10
329.000000
  20
442.000000
  0
VERTEX
  8
C7
  10
329.000000
  20
435.000000
  0
VERTEX
  8
C7
  10
328.000000
  20
435.000000
  0
VERTEX
  8
C7
  10
328.000000
  20
442.000000
  0
VERTEX
  8
C7
  10
324.000000
  20
442.000000
  0
VERTEX
  8
C7
  10
324.000000
  20
443.000000
  0
VERTEX
  8
C7
  10
328.000000
  20
443.000000
  0
VERTEX
  8
C7
  10
328.000000
  20
467.000000
  0
VERTEX
  8
C7
  10
232.000000
  20
467.000000
  0
VERTEX
  8
C7
  10
231.407900
  20
467.008400
  0
VERTEX
  8
C7
  10
230.741400
  20
467.032400
  0
VERTEX
  8
C7
  10
230.005500
  20
467.070200
  0
VERTEX
  8
C7
  10
229.205000
  20
467.120000
  0
VERTEX
  8
C7
  10
228.345100
  20
467.180000
  0
VERTEX
  8
C7
  10
227.430800
  20
467.248500
  0
VERTEX
  8
C7
  10
226.467000
  20
467.323500
  0
VERTEX
  8
C7
  10
225.458700
  20
467.403300
  0
VERTEX
  8
C7
  10
224.411000
  20
467.486100
  0
VERTEX
  8
C7
  10
223.328900
  20
467.570100
  0
VERTEX
  8
C7
  10
222.217300
  20
467.653500
  0
VERTEX
  8
C7
  10
221.081200
  20
467.734400
  0
VERTEX
  8
C7
  10
219.925700
  20
467.811200
  0
VERTEX
  8
C7
  10
218.755800
  20
467.881900
  0
VERTEX
  8
C7
  10
217.576400
  20
467.944900
  0
VERTEX
  8
C7
  10
216.392600
  20
467.998200
  0
VERTEX
  8
C7
  10
215.209400
  20
468.040000
  0
VERTEX
  8
C7
  10
214.031700
  20
468.068700
  0
VERTEX
  8
C7
  10
212.864600
  20
468.082300
  0
VERTEX
  8
C7
  10
211.713000
  20
468.079100
  0
VERTEX
  8
C7
  10
210.582000
  20
468.057200
  0
VERTEX
  8
C7
  10
209.476700
  20
468.014900
  0
VERTEX
  8
C7
  10
208.401800
  20
467.950400
  0
VERTEX
  8
C7
  10
207.362600
  20
467.861900
  0
VERTEX
  8
C7
  10
206.364000
  20
467.747500
  0
VERTEX
  8
C7
  10
205.410900
  20
467.605400
  0
VERTEX
  8
C7
  10
204.508400
  20
467.433900
  0
VERTEX
  8
C7
  10
203.661500
  20
467.231200
  0
VERTEX
  8
C7
  10
202.875200
  20
466.995400
  0
VERTEX
  8
C7
  10
202.154500
  20
466.724800
  0
VERTEX
  8
C7
  10
201.504400
  20
466.417500
  0
VERTEX
  8
C7
  10
200.929900
  20
466.071700
  0
VERTEX
  8
C7
  10
200.436000
  20
465.685700
  0
VERTEX
  8
C7
  10
200.027700
  20
465.257700
  0
VERTEX
  8
C7
  10
199.601200
  20
464.625200
  0
VERTEX
  8
C7
  10
199.253100
  20
463.892200
  0
VERTEX
  8
C7
  10
198.976800
  20
463.070200
  0
VERTEX
  8
C7
  10
198.765900
  20
462.170900
  0
VERTEX
  8
C7
  10
198.613600
  20
461.206100
  0
VERTEX
  8
C7
  10
198.513600
  20
460.187300
  0
VERTEX
  8
C7
  10
198.459200
  20
459.126300
  0
VERTEX
  8
C7
  10
198.443900
  20
458.034600
  0
VERTEX
  8
C7
  10
198.461100
  20
456.924000
  0
VERTEX
  8
C7
  10
198.504400
  20
455.806000
  0
VERTEX
  8
C7
  10
198.567000
  20
454.692500
  0
VERTEX
  8
C7
  10
198.642600
  20
453.595000
  0
VERTEX
  8
C7
  10
198.724500
  20
452.525200
  0
VERTEX
  8
C7
  10
198.806200
  20
451.494800
  0
VERTEX
  8
C7
  10
198.881100
  20
450.515400
  0
VERTEX
  8
C7
  10
198.942800
  20
449.598700
  0
VERTEX
  8
C7
  10
198.984600
  20
448.756300
  0
VERTEX
  8
C7
  10
199.000000
  20
448.000000
  0
VERTEX
  8
C7
  10
199.000000
  20
400.000000
  0
VERTEX
  8
C7
  10
199.000000
  20
232.000000
  0
VERTEX
  8
C7
  10
199.000000
  20
189.000000
  0
VERTEX
  8
C7
  10
198.983900
  20
188.224700
  0
VERTEX
  8
C7
  10
198.940700
  20
187.363400
  0
VERTEX
  8
C7
  10
198.877700
  20
186.428500
  0
VERTEX
  8
C7
  10
198.802200
  20
185.432400
  0
VERTEX
  8
C7
  10
198.721600
  20
184.387600
  0
VERTEX
  8
C7
  10
198.643200
  20
183.306700
  0
VERTEX
  8
C7
  10
198.574300
  20
182.202200
  0
VERTEX
  8
C7
  10
198.522400
  20
181.086500
  0
VERTEX
  8
C7
  10
198.494700
  20
179.972100
  0
VERTEX
  8
C7
  10
198.498600
  20
178.871500
  0
VERTEX
  8
C7
  10
198.541400
  20
177.797200
  0
VERTEX
  8
C7
  10
198.630500
  20
176.761700
  0
VERTEX
  8
C7
  10
198.773300
  20
175.777500
  0
VERTEX
  8
C7
  10
198.977100
  20
174.857000
  0
VERTEX
  8
C7
  10
199.249100
  20
174.012900
  0
VERTEX
  8
C7
  10
199.596900
  20
173.257400
  0
VERTEX
  8
C7
  10
200.027700
  20
172.603300
  0
VERTEX
  8
C7
  10
200.601900
  20
172.034000
  0
VERTEX
  8
C7
  10
201.309000
  20
171.584300
  0
VERTEX
  8
C7
  10
202.129100
  20
171.241500
  0
VERTEX
  8
C7
  10
203.042700
  20
170.993500
  0
VERTEX
  8
C7
  10
204.030100
  20
170.827700
  0
VERTEX
  8
C7
  10
205.071700
  20
170.732000
  0
VERTEX
  8
C7
  10
206.147900
  20
170.693800
  0
VERTEX
  8
C7
  10
207.239000
  20
170.700800
  0
VERTEX
  8
C7
  10
208.325400
  20
170.740700
  0
VERTEX
  8
C7
  10
209.387500
  20
170.801000
  0
VERTEX
  8
C7
  10
210.405600
  20
170.869500
  0
VERTEX
  8
C7
  10
211.360200
  20
170.933700
  0
VERTEX
  8
C7
  10
212.231500
  20
170.981300
  0
VERTEX
  8
C7
  10
213.000000
  20
171.000000
  0
VERTEX
  8
C7
  10
249.000000
  20
171.000000
  0
SEQEND
  8
C7
  0
POLYLINE
  8
C7
  66
1
  10
616.000000
  20
440.000000
  0
VERTEX
  8
C7
  10
616.000000
  20
440.000000
  0
VERTEX
  8
C7
  10
622.000000
  20
442.000000
  0
VERTEX
  8
C7
  10
619.000000
  20
436.000000
  0
VERTEX
  8
C7
  10
623.000000
  20
435.000000
  0
VERTEX
  8
C7
  10
623.000000
  20
434.000000
  0
VERTEX
  8
C7
  10
620.000000
  20
432.000000
  0
VERTEX
  8
C7
  10
616.000000
  20
435.000000
  0
VERTEX
  8
C7
  10
616.273500
  20
434.276400
  0
VERTEX
  8
C7
  10
616.638100
  20
433.588800
  0
VERTEX
  8
C7
  10
617.081900
  20
432.945300
  0
VERTEX
  8
C7
  10
617.593400
  20
432.353900
  0
VERTEX
  8
C7
  10
618.161000
  20
431.822500
  0
VERTEX
  8
C7
  10
618.773200
  20
431.359300
  0
VERTEX
  8
C7
  10
619.418300
  20
430.972300
  0
VERTEX
  8
C7
  10
620.084700
  20
430.669600
  0
VERTEX
  8
C7
  10
620.760900
  20
430.459100
  0
VERTEX
  8
C7
  10
621.435200
  20
430.348900
  0
VERTEX
  8
C7
  10
622.096100
  20
430.347100
  0
VERTEX
  8
C7
  10
622.731900
  20
430.461700
  0
VERTEX
  8
C7
  10
623.331100
  20
430.700700
  0
VERTEX
  8
C7
  10
623.882100
  20
431.072300
  0
VERTEX
  8
C7
  10
624.373300
  20
431.584300
  0
VERTEX
  8
C7
  10
624.793000
  20
432.244900
  0
VERTEX
  8
C7
  10
625.129700
  20
433.062100
  0
VERTEX
  8
C7
  10
625.371900
  20
434.044000
  0
SEQEND
  8
C7
  0
POLYLINE
  8
C7
  66
1
  10
625.371900
  20
434.043900
  0
VERTEX
  8
C7
  10
625.371900
  20
434.043900
  0
VERTEX
  8
C7
  10
625.473500
  20
434.803700
  0
VERTEX
  8
C7
  10
625.510800
  20
435.571200
  0
VERTEX
  8
C7
  10
625.487400
  20
436.340400
  0
VERTEX
  8
C7
  10
625.406800
  20
437.105500
  0
VERTEX
  8
C7
  10
625.272600
  20
437.860500
  0
VERTEX
  8
C7
  10
625.088500
  20
438.599600
  0
VERTEX
  8
C7
  10
624.857900
  20
439.316800
  0
VERTEX
  8
C7
  10
624.584400
  20
440.006300
  0
VERTEX
  8
C7
  10
624.271700
  20
440.662200
  0
VERTEX
  8
C7
  10
623.923200
  20
441.278600
  0
VERTEX
  8
C7
  10
623.542600
  20
441.849500
  0
VERTEX
  8
C7
  10
623.133500
  20
442.369200
  0
VERTEX
  8
C7
  10
622.699400
  20
442.831700
  0
VERTEX
  8
C7
  10
622.243800
  20
443.231000
  0
VERTEX
  8
C7
  10
621.770500
  20
443.561400
  0
VERTEX
  8
C7
  10
621.282800
  20
443.816900
  0
VERTEX
  8
C7
  10
620.784500
  20
443.991700
  0
VERTEX
  8
C7
  10
620.279100
  20
444.079700
  0
VERTEX
  8
C7
  10
619.770100
  20
444.075200
  0
VERTEX
  8
C7
  10
619.261200
  20
443.972300
  0
VERTEX
  8
C7
  10
618.755800
  20
443.765000
  0
VERTEX
  8
C7
  10
618.257700
  20
443.447500
  0
VERTEX
  8
C7
  10
617.770300
  20
443.013800
  0
VERTEX
  8
C7
  10
617.297300
  20
442.458100
  0
VERTEX
  8
C7
  10
616.842200
  20
441.774500
  0
VERTEX
  8
C7
  10
616.408500
  20
440.957100
  0
VERTEX
  8
C7
  10
616.000000
  20
440.000000
  0
SEQEND
  8
C7
  0
POLYLINE
  8
C7
  66
1
  10
633.000000
  20
439.000000
  0
VERTEX
  8
C7
  10
633.000000
  20
439.000000
  0
VERTEX
  8
C7
  10
636.000000
  20
430.000000
  0
VERTEX
  8
C7
  10
639.000000
  20
430.000000
  0
VERTEX
  8
C7
  10
639.000000
  20
445.000000
  0
VERTEX
  8
C7
  10
633.000000
  20
439.000000
  0
SEQEND
  8
C7
  0
POLYLINE
  8
C7
  66
1
  10
659.000000
  20
439.000000
  0
VERTEX
  8
C7
  10
659.000000
  20
439.000000
  0
VERTEX
  8
C7
  10
662.000000
  20
430.000000
  0
VERTEX
  8
C7
  10
665.000000
  20
430.000000
  0
VERTEX
  8
C7
  10
665.000000
  20
445.000000
  0
VERTEX
  8
C7
  10
659.000000
  20
439.000000
  0
SEQEND
  8
C7
  0
POLYLINE
  8
C7
  66
1
  10
675.000000
  20
439.000000
  0
VERTEX
  8
C7
  10
675.000000
  20
439.000000
  0
VERTEX
  8
C7
  10
675.000000
  20
440.000000
  0
VERTEX
  8
C7
  10
681.000000
  20
439.000000
  0
VERTEX
  8
C7
  10
681.000000
  20
444.000000
  0
VERTEX
  8
C7
  10
678.000000
  20
442.000000
  0
VERTEX
  8
C7
  10
677.245100
  20
442.543200
  0
VERTEX
  8
C7
  10
676.498700
  20
442.975300
  0
VERTEX
  8
C7
  10
675.763300
  20
443.301300
  0
VERTEX
  8
C7
  10
675.042000
  20
443.526700
  0
VERTEX
  8
C7
  10
674.337300
  20
443.656400
  0
VERTEX
  8
C7
  10
673.652200
  20
443.695800
  0
VERTEX
  8
C7
  10
672.989500
  20
443.649900
  0
VERTEX
  8
C7
  10
672.352000
  20
443.524100
  0
VERTEX
  8
C7
  10
671.742400
  20
443.323500
  0
VERTEX
  8
C7
  10
671.163600
  20
443.053200
  0
VERTEX
  8
C7
  10
670.618400
  20
442.718600
  0
VERTEX
  8
C7
  10
670.109500
  20
442.324800
  0
VERTEX
  8
C7
  10
669.639800
  20
441.876900
  0
VERTEX
  8
C7
  10
669.212100
  20
441.380200
  0
VERTEX
  8
C7
  10
668.829300
  20
440.839900
  0
VERTEX
  8
C7
  10
668.494000
  20
440.261100
  0
VERTEX
  8
C7
  10
668.209100
  20
439.649200
  0
VERTEX
  8
C7
  10
667.977400
  20
439.009100
  0
VERTEX
  8
C7
  10
667.801700
  20
438.346300
  0
VERTEX
  8
C7
  10
667.684800
  20
437.665700
  0
VERTEX
  8
C7
  10
667.629600
  20
436.972800
  0
VERTEX
  8
C7
  10
667.638700
  20
436.272500
  0
VERTEX
  8
C7
  10
667.715100
  20
435.570200
  0
VERTEX
  8
C7
  10
667.861600
  20
434.871100
  0
VERTEX
  8
C7
  10
668.080800
  20
434.180200
  0
VERTEX
  8
C7
  10
668.375700
  20
433.502900
  0
VERTEX
  8
C7
  10
668.749000
  20
432.844300
  0
VERTEX
  8
C7
  10
669.203600
  20
432.209600
  0
VERTEX
  8
C7
  10
669.742300
  20
431.604100
  0
VERTEX
  8
C7
  10
670.363400
  20
431.054000
  0
VERTEX
  8
C7
  10
670.995100
  20
430.642100
  0
VERTEX
  8
C7
  10
671.630600
  20
430.359800
  0
VERTEX
  8
C7
  10
672.263400
  20
430.198900
  0
VERTEX
  8
C7
  10
672.887000
  20
430.150700
  0
VERTEX
  8
C7
  10
673.494600
  20
430.207100
  0
VERTEX
  8
C7
  10
674.079700
  20
430.359400
  0
VERTEX
  8
C7
  10
674.635800
  20
430.599500
  0
VERTEX
  8
C7
  10
675.156100
  20
430.918700
  0
VERTEX
  8
C7
  10
675.634200
  20
431.308800
  0
VERTEX
  8
C7
  10
676.063400
  20
431.761300
  0
VERTEX
  8
C7
  10
676.437100
  20
432.267800
  0
VERTEX
  8
C7
  10
676.748800
  20
432.819900
  0
VERTEX
  8
C7
  10
676.991700
  20
433.409300
  0
VERTEX
  8
C7
  10
677.159400
  20
434.027400
  0
VERTEX
  8
C7
  10
677.245300
  20
434.665900
  0
VERTEX
  8
C7
  10
677.242700
  20
435.316400
  0
VERTEX
  8
C7
  10
677.145000
  20
435.970400
  0
VERTEX
  8
C7
  10
676.945700
  20
436.619600
  0
VERTEX
  8
C7
  10
676.638100
  20
437.255600
  0
VERTEX
  8
C7
  10
676.215700
  20
437.869900
  0
VERTEX
  8
C7
  10
675.671800
  20
438.454200
  0
VERTEX
  8
C7
  10
675.000000
  20
439.000000
  0
SEQEND
  8
C7
  0
POLYLINE
  8
C7
  66
1
  10
688.000000
  20
445.000000
  0
VERTEX
  8
C7
  10
688.000000
  20
445.000000
  0
VERTEX
  8
C7
  10
687.765200
  20
444.261300
  0
VERTEX
  8
C7
  10
687.524000
  20
443.486500
  0
VERTEX
  8
C7
  10
687.281100
  20
442.680000
  0
VERTEX
  8
C7
  10
687.041100
  20
441.846300
  0
VERTEX
  8
C7
  10
686.808700
  20
440.990000
  0
VERTEX
  8
C7
  10
686.588700
  20
440.115400
  0
VERTEX
  8
C7
  10
686.385600
  20
439.227000
  0
VERTEX
  8
C7
  10
686.204400
  20
438.329400
  0
VERTEX
  8
C7
  10
686.049500
  20
437.427100
  0
VERTEX
  8
C7
  10
685.925800
  20
436.524400
  0
VERTEX
  8
C7
  10
685.837900
  20
435.626000
  0
VERTEX
  8
C7
  10
685.790500
  20
434.736200
  0
VERTEX
  8
C7
  10
685.788300
  20
433.859600
  0
VERTEX
  8
C7
  10
685.836100
  20
433.000700
  0
VERTEX
  8
C7
  10
685.938500
  20
432.163900
  0
VERTEX
  8
C7
  10
686.100200
  20
431.353700
  0
VERTEX
  8
C7
  10
686.325900
  20
430.574700
  0
VERTEX
  8
C7
  10
686.620300
  20
429.831200
  0
VERTEX
  8
C7
  10
686.988200
  20
429.127800
  0
VERTEX
  8
C7
  10
687.434100
  20
428.468900
  0
VERTEX
  8
C7
  10
687.962900
  20
427.859100
  0
VERTEX
  8
C7
  10
688.579100
  20
427.302800
  0
VERTEX
  8
C7
  10
689.287600
  20
426.804500
  0
VERTEX
  8
C7
  10
690.093000
  20
426.368800
  0
VERTEX
  8
C7
  10
691.000000
  20
426.000000
  0
VERTEX
  8
C7
  10
690.702800
  20
427.138300
  0
VERTEX
  8
C7
  10
690.433500
  20
428.230800
  0
VERTEX
  8
C7
  10
690.193100
  20
429.282700
  0
VERTEX
  8
C7
  10
689.982300
  20
430.299600
  0
VERTEX
  8
C7
  10
689.802100
  20
431.286800
  0
VERTEX
  8
C7
  10
689.653500
  20
432.249700
  0
VERTEX
  8
C7
  10
689.537200
  20
433.193500
  0
VERTEX
  8
C7
  10
689.454300
  20
434.123800
  0
VERTEX
  8
C7
  10
689.405600
  20
435.045900
  0
VERTEX
  8
C7
  10
689.392000
  20
435.965200
  0
VERTEX
  8
C7
  10
689.414500
  20
436.887100
  0
VERTEX
  8
C7
  10
689.473900
  20
437.816900
  0
VERTEX
  8
C7
  10
689.571100
  20
438.760000
  0
VERTEX
  8
C7
  10
689.707100
  20
439.721900
  0
VERTEX
  8
C7
  10
689.882700
  20
440.707800
  0
VERTEX
  8
C7
  10
690.098900
  20
441.723200
  0
VERTEX
  8
C7
  10
690.356600
  20
442.773400
  0
VERTEX
  8
C7
  10
690.656600
  20
443.863900
  0
VERTEX
  8
C7
  10
691.000000
  20
445.000000
  0
VERTEX
  8
C7
  10
688.000000
  20
445.000000
  0
SEQEND
  8
C7
  0
POLYLINE
  8
C7
  66
1
  10
696.000000
  20
445.000000
  0
VERTEX
  8
C7
  10
696.000000
  20
445.000000
  0
VERTEX
  8
C7
  10
693.000000
  20
439.000000
  0
VERTEX
  8
C7
  10
696.000000
  20
440.000000
  0
VERTEX
  8
C7
  10
696.000000
  20
430.000000
  0
VERTEX
  8
C7
  10
698.000000
  20
430.000000
  0
VERTEX
  8
C7
  10
698.000000
  20
445.000000
  0
VERTEX
  8
C7
  10
696.000000
  20
445.000000
  0
SEQEND
  8
C7
  0
POLYLINE
  8
C7
  66
1
  10
706.064819
  20
444.083344
  0
VERTEX
  8
C7
  10
706.064819
  20
444.083344
  0
VERTEX
  8
C7
  10
705.397500
  20
443.957600
  0
VERTEX
  8
C7
  10
704.786900
  20
443.724700
  0
VERTEX
  8
C7
  10
704.233000
  20
443.394100
  0
VERTEX
  8
C7
  10
703.735700
  20
442.975100
  0
VERTEX
  8
C7
  10
703.294900
  20
442.477100
  0
VERTEX
  8
C7
  10
702.910600
  20
441.909600
  0
VERTEX
  8
C7
  10
702.582600
  20
441.282000
  0
VERTEX
  8
C7
  10
702.310900
  20
440.603800
  0
VERTEX
  8
C7
  10
702.095400
  20
439.884200
  0
VERTEX
  8
C7
  10
701.936100
  20
439.132800
  0
VERTEX
  8
C7
  10
701.832800
  20
438.359000
  0
VERTEX
  8
C7
  10
701.785500
  20
437.572200
  0
VERTEX
  8
C7
  10
701.794200
  20
436.781700
  0
VERTEX
  8
C7
  10
701.858600
  20
435.997200
  0
VERTEX
  8
C7
  10
701.978900
  20
435.227800
  0
VERTEX
  8
C7
  10
702.154800
  20
434.483200
  0
VERTEX
  8
C7
  10
702.386400
  20
433.772600
  0
VERTEX
  8
C7
  10
702.673400
  20
433.105500
  0
VERTEX
  8
C7
  10
703.016000
  20
432.491400
  0
VERTEX
  8
C7
  10
703.413900
  20
431.939600
  0
VERTEX
  8
C7
  10
703.867200
  20
431.459600
  0
VERTEX
  8
C7
  10
704.375700
  20
431.060800
  0
VERTEX
  8
C7
  10
704.939300
  20
430.752600
  0
VERTEX
  8
C7
  10
705.558100
  20
430.544500
  0
VERTEX
  8
C7
  10
706.231800
  20
430.445800
  0
VERTEX
  8
C7
  10
706.960600
  20
430.466000
  0
VERTEX
  8
C7
  10
707.622700
  20
430.597400
  0
VERTEX
  8
C7
  10
708.228700
  20
430.834600
  0
VERTEX
  8
C7
  10
708.778800
  20
431.168200
  0
VERTEX
  8
C7
  10
709.272900
  20
431.588900
  0
VERTEX
  8
C7
  10
709.711100
  20
432.087400
  0
VERTEX
  8
C7
  10
710.093400
  20
432.654500
  0
VERTEX
  8
C7
  10
710.419800
  20
433.280900
  0
VERTEX
  8
C7
  10
710.690400
  20
433.957200
  0
VERTEX
  8
C7
  10
710.905300
  20
434.674100
  0
VERTEX
  8
C7
  10
711.064500
  20
435.422500
  0
VERTEX
  8
C7
  10
711.167900
  20
436.193000
  0
VERTEX
  8
C7
  10
711.215700
  20
436.976200
  0
VERTEX
  8
C7
  10
711.207900
  20
437.763000
  0
VERTEX
  8
C7
  10
711.144600
  20
438.543900
  0
VERTEX
  8
C7
  10
711.025700
  20
439.309900
  0
VERTEX
  8
C7
  10
710.851300
  20
440.051400
  0
VERTEX
  8
C7
  10
710.621500
  20
440.759300
  0
VERTEX
  8
C7
  10
710.336300
  20
441.424300
  0
VERTEX
  8
C7
  10
709.995700
  20
442.037000
  0
VERTEX
  8
C7
  10
709.599800
  20
442.588200
  0
VERTEX
  8
C7
  10
709.148600
  20
443.068600
  0
VERTEX
  8
C7
  10
708.642200
  20
443.468900
  0
VERTEX
  8
C7
  10
708.080500
  20
443.779800
  0
VERTEX
  8
C7
  10
707.463700
  20
443.992000
  0
VERTEX
  8
C7
  10
706.791800
  20
444.096300
  0
VERTEX
  8
C7
  10
706.064800
  20
444.083300
  0
SEQEND
  8
C7
  0
POLYLINE
  8
C7
  66
1
  10
716.093384
  20
444.029297
  0
VERTEX
  8
C7
  10
716.093384
  20
444.029297
  0
VERTEX
  8
C7
  10
715.440200
  20
443.821600
  0
VERTEX
  8
C7
  10
714.843500
  20
443.522200
  0
VERTEX
  8
C7
  10
714.303100
  20
443.139100
  0
VERTEX
  8
C7
  10
713.818800
  20
442.680700
  0
VERTEX
  8
C7
  10
713.390500
  20
442.155200
  0
VERTEX
  8
C7
  10
713.018100
  20
441.570900
  0
VERTEX
  8
C7
  10
712.701500
  20
440.936100
  0
VERTEX
  8
C7
  10
712.440500
  20
440.259000
  0
VERTEX
  8
C7
  10
712.235100
  20
439.548000
  0
VERTEX
  8
C7
  10
712.085200
  20
438.811300
  0
VERTEX
  8
C7
  10
711.990500
  20
438.057200
  0
VERTEX
  8
C7
  10
711.951100
  20
437.293900
  0
VERTEX
  8
C7
  10
711.966700
  20
436.529800
  0
VERTEX
  8
C7
  10
712.037400
  20
435.773100
  0
VERTEX
  8
C7
  10
712.162900
  20
435.032100
  0
VERTEX
  8
C7
  10
712.343100
  20
434.315100
  0
VERTEX
  8
C7
  10
712.578000
  20
433.630300
  0
VERTEX
  8
C7
  10
712.867400
  20
432.986000
  0
VERTEX
  8
C7
  10
713.211200
  20
432.390500
  0
VERTEX
  8
C7
  10
713.609300
  20
431.852100
  0
VERTEX
  8
C7
  10
714.061600
  20
431.379000
  0
VERTEX
  8
C7
  10
714.567900
  20
430.979600
  0
VERTEX
  8
C7
  10
715.128200
  20
430.662000
  0
VERTEX
  8
C7
  10
715.742300
  20
430.434700
  0
VERTEX
  8
C7
  10
716.410200
  20
430.305800
  0
VERTEX
  8
C7
  10
717.131600
  20
430.283600
  0
VERTEX
  8
C7
  10
717.906600
  20
430.376500
  0
VERTEX
  8
C7
  10
718.585000
  20
430.563300
  0
VERTEX
  8
C7
  10
719.200200
  20
430.846900
  0
VERTEX
  8
C7
  10
719.752800
  20
431.218600
  0
VERTEX
  8
C7
  10
720.243500
  20
431.669600
  0
VERTEX
  8
C7
  10
720.673100
  20
432.191400
  0
VERTEX
  8
C7
  10
721.042300
  20
432.775200
  0
VERTEX
  8
C7
  10
721.351800
  20
433.412400
  0
VERTEX
  8
C7
  10
721.602200
  20
434.094300
  0
VERTEX
  8
C7
  10
721.794400
  20
434.812300
  0
VERTEX
  8
C7
  10
721.928900
  20
435.557700
  0
VERTEX
  8
C7
  10
722.006600
  20
436.321800
  0
VERTEX
  8
C7
  10
722.028100
  20
437.096100
  0
VERTEX
  8
C7
  10
721.994100
  20
437.871700
  0
VERTEX
  8
C7
  10
721.905400
  20
438.640100
  0
VERTEX
  8
C7
  10
721.762700
  20
439.392700
  0
VERTEX
  8
C7
  10
721.566600
  20
440.120600
  0
VERTEX
  8
C7
  10
721.317900
  20
440.815300
  0
VERTEX
  8
C7
  10
721.017300
  20
441.468100
  0
VERTEX
  8
C7
  10
720.665500
  20
442.070400
  0
VERTEX
  8
C7
  10
720.263300
  20
442.613500
  0
VERTEX
  8
C7
  10
719.811200
  20
443.088700
  0
VERTEX
  8
C7
  10
719.310100
  20
443.487300
  0
VERTEX
  8
C7
  10
718.760600
  20
443.800700
  0
VERTEX
  8
C7
  10
718.163500
  20
444.020300
  0
VERTEX
  8
C7
  10
717.519400
  20
444.137400
  0
VERTEX
  8
C7
  10
716.829100
  20
444.143200
  0
VERTEX
  8
C7
  10
716.093400
  20
444.029300
  0
SEQEND
  8
C7
  0
POLYLINE
  8
C7
  66
1
  10
754.000000
  20
445.000000
  0
VERTEX
  8
C7
  10
754.000000
  20
445.000000
  0
VERTEX
  8
C7
  10
754.000000
  20
426.000000
  0
VERTEX
  8
C7
  10
754.745900
  20
426.438700
  0
VERTEX
  8
C7
  10
755.434500
  20
426.938500
  0
VERTEX
  8
C7
  10
756.065700
  20
427.494700
  0
VERTEX
  8
C7
  10
756.639500
  20
428.102100
  0
VERTEX
  8
C7
  10
757.155900
  20
428.756100
  0
VERTEX
  8
C7
  10
757.615000
  20
429.451700
  0
VERTEX
  8
C7
  10
758.016600
  20
430.183900
  0
VERTEX
  8
C7
  10
758.360900
  20
430.947900
  0
VERTEX
  8
C7
  10
758.647800
  20
431.738900
  0
VERTEX
  8
C7
  10
758.877400
  20
432.551800
  0
VERTEX
  8
C7
  10
759.049500
  20
433.381900
  0
VERTEX
  8
C7
  10
759.164300
  20
434.224200
  0
VERTEX
  8
C7
  10
759.221700
  20
435.073900
  0
VERTEX
  8
C7
  10
759.221700
  20
435.926000
  0
VERTEX
  8
C7
  10
759.164300
  20
436.775600
  0
VERTEX
  8
C7
  10
759.049500
  20
437.617900
  0
VERTEX
  8
C7
  10
758.877400
  20
438.448000
  0
VERTEX
  8
C7
  10
758.647900
  20
439.261000
  0
VERTEX
  8
C7
  10
758.361000
  20
440.051900
  0
VERTEX
  8
C7
  10
758.016700
  20
440.815900
  0
VERTEX
  8
C7
  10
757.615000
  20
441.548200
  0
VERTEX
  8
C7
  10
757.155900
  20
442.243700
  0
VERTEX
  8
C7
  10
756.639500
  20
442.897700
  0
VERTEX
  8
C7
  10
756.065700
  20
443.505200
  0
VERTEX
  8
C7
  10
755.434500
  20
444.061300
  0
VERTEX
  8
C7
  10
754.745900
  20
444.561200
  0
VERTEX
  8
C7
  10
754.000000
  20
445.000000
  0
SEQEND
  8
C7
  0
POLYLINE
  8
C7
  66
1
  10
643.000000
  20
444.000000
  0
VERTEX
  8
C7
  10
643.000000
  20
444.000000
  0
VERTEX
  8
C7
  10
642.000000
  20
436.000000
  0
VERTEX
  8
C7
  10
649.000000
  20
436.000000
  0
VERTEX
  8
C7
  10
646.000000
  20
432.000000
  0
VERTEX
  8
C7
  10
642.000000
  20
435.000000
  0
VERTEX
  8
C7
  10
642.325400
  20
434.102400
  0
VERTEX
  8
C7
  10
642.727600
  20
433.286200
  0
VERTEX
  8
C7
  10
643.197900
  20
432.557800
  0
VERTEX
  8
C7
  10
643.727700
  20
431.923500
  0
VERTEX
  8
C7
  10
644.308200
  20
431.389800
  0
VERTEX
  8
C7
  10
644.930900
  20
430.963200
  0
VERTEX
  8
C7
  10
645.587000
  20
430.650000
  0
VERTEX
  8
C7
  10
646.267900
  20
430.456700
  0
VERTEX
  8
C7
  10
646.964900
  20
430.389700
  0
VERTEX
  8
C7
  10
647.669400
  20
430.455400
  0
VERTEX
  8
C7
  10
648.372600
  20
430.660300
  0
VERTEX
  8
C7
  10
649.065900
  20
431.010800
  0
VERTEX
  8
C7
  10
649.740700
  20
431.513200
  0
VERTEX
  8
C7
  10
650.388300
  20
432.174200
  0
VERTEX
  8
C7
  10
651.000000
  20
433.000000
  0
VERTEX
  8
C7
  10
652.000000
  20
433.000000
  0
VERTEX
  8
C7
  10
652.000000
  20
430.000000
  0
VERTEX
  8
C7
  10
658.000000
  20
444.000000
  0
VERTEX
  8
C7
  10
657.084400
  20
443.651500
  0
VERTEX
  8
C7
  10
656.300100
  20
443.190000
  0
VERTEX
  8
C7
  10
655.635400
  20
442.627400
  0
VERTEX
  8
C7
  10
655.078500
  20
441.975100
  0
VERTEX
  8
C7
  10
654.618000
  20
441.244900
  0
VERTEX
  8
C7
  10
654.242000
  20
440.448600
  0
VERTEX
  8
C7
  10
653.939000
  20
439.597600
  0
VERTEX
  8
C7
  10
653.697300
  20
438.703800
  0
VERTEX
  8
C7
  10
653.505200
  20
437.778700
  0
VERTEX
  8
C7
  10
653.351000
  20
436.834200
  0
VERTEX
  8
C7
  10
653.223200
  20
435.881700
  0
VERTEX
  8
C7
  10
653.110100
  20
434.933100
  0
VERTEX
  8
C7
  10
653.000000
  20
434.000000
  0
VERTEX
  8
C7
  10
652.000000
  20
434.000000
  0
VERTEX
  8
C7
  10
646.000000
  20
442.000000
  0
VERTEX
  8
C7
  10
651.000000
  20
442.000000
  0
VERTEX
  8
C7
  10
651.000000
  20
444.000000
  0
VERTEX
  8
C7
  10
643.000000
  20
444.000000
  0
SEQEND
  8
C7
  0
POLYLINE
  8
C7
  66
1
  10
682.000000
  20
444.000000
  0
VERTEX
  8
C7
  10
682.000000
  20
444.000000
  0
VERTEX
  8
C7
  10
682.000000
  20
439.000000
  0
VERTEX
  8
C7
  10
684.000000
  20
439.000000
  0
VERTEX
  8
C7
  10
684.000000
  20
444.000000
  0
VERTEX
  8
C7
  10
682.000000
  20
444.000000
  0
SEQEND
  8
C7
  0
POLYLINE
  8
C7
  66
1
  10
393.000000
  20
418.000000
  0
VERTEX
  8
C7
  10
393.000000
  20
418.000000
  0
VERTEX
  8
C7
  10
391.000000
  20
408.000000
  0
VERTEX
  8
C7
  10
393.000000
  20
392.000000
  0
VERTEX
  8
C7
  10
404.000000
  20
392.000000
  0
VERTEX
  8
C7
  10
404.000000
  20
393.000000
  0
VERTEX
  8
C7
  10
394.000000
  20
393.000000
  0
VERTEX
  8
C7
  10
395.000000
  20
416.000000
  0
VERTEX
  8
C7
  10
401.000000
  20
416.000000
  0
VERTEX
  8
C7
  10
401.000000
  20
417.000000
  0
VERTEX
  8
C7
  10
394.000000
  20
417.000000
  0
VERTEX
  8
C7
  10
394.889400
  20
417.469400
  0
VERTEX
  8
C7
  10
395.776700
  20
417.928900
  0
VERTEX
  8
C7
  10
396.656900
  20
418.385100
  0
VERTEX
  8
C7
  10
397.525600
  20
418.844500
  0
VERTEX
  8
C7
  10
398.378000
  20
419.313700
  0
VERTEX
  8
C7
  10
399.209500
  20
419.799300
  0
VERTEX
  8
C7
  10
400.015300
  20
420.307800
  0
VERTEX
  8
C7
  10
400.790900
  20
420.845800
  0
VERTEX
  8
C7
  10
401.531600
  20
421.419900
  0
VERTEX
  8
C7
  10
402.232700
  20
422.036700
  0
VERTEX
  8
C7
  10
402.889600
  20
422.702600
  0
VERTEX
  8
C7
  10
403.497600
  20
423.424400
  0
VERTEX
  8
C7
  10
404.052000
  20
424.208500
  0
VERTEX
  8
C7
  10
404.548100
  20
425.061500
  0
VERTEX
  8
C7
  10
404.981400
  20
425.990000
  0
VERTEX
  8
C7
  10
405.347200
  20
427.000700
  0
VERTEX
  8
C7
  10
405.588700
  20
427.878700
  0
VERTEX
  8
C7
  10
405.762900
  20
428.751000
  0
VERTEX
  8
C7
  10
405.871700
  20
429.615500
  0
VERTEX
  8
C7
  10
405.917200
  20
430.470200
  0
VERTEX
  8
C7
  10
405.901500
  20
431.313300
  0
VERTEX
  8
C7
  10
405.826800
  20
432.142800
  0
VERTEX
  8
C7
  10
405.695100
  20
432.956800
  0
VERTEX
  8
C7
  10
405.508500
  20
433.753200
  0
VERTEX
  8
C7
  10
405.269100
  20
434.530200
  0
VERTEX
  8
C7
  10
404.979000
  20
435.285900
  0
VERTEX
  8
C7
  10
404.640300
  20
436.018200
  0
VERTEX
  8
C7
  10
404.255000
  20
436.725200
  0
VERTEX
  8
C7
  10
403.825300
  20
437.405000
  0
VERTEX
  8
C7
  10
403.353300
  20
438.055700
  0
VERTEX
  8
C7
  10
402.841000
  20
438.675300
  0
VERTEX
  8
C7
  10
402.290500
  20
439.261800
  0
VERTEX
  8
C7
  10
401.704000
  20
439.813400
  0
VERTEX
  8
C7
  10
401.083500
  20
440.328000
  0
VERTEX
  8
C7
  10
400.431100
  20
440.803700
  0
VERTEX
  8
C7
  10
399.748900
  20
441.238600
  0
VERTEX
  8
C7
  10
399.039000
  20
441.630800
  0
VERTEX
  8
C7
  10
398.303500
  20
441.978200
  0
VERTEX
  8
C7
  10
397.544500
  20
442.279000
  0
VERTEX
  8
C7
  10
396.764000
  20
442.531200
  0
VERTEX
  8
C7
  10
395.964200
  20
442.732900
  0
VERTEX
  8
C7
  10
395.147200
  20
442.882100
  0
VERTEX
  8
C7
  10
394.315000
  20
442.976900
  0
VERTEX
  8
C7
  10
393.469800
  20
443.015200
  0
VERTEX
  8
C7
  10
392.613500
  20
442.995300
  0
VERTEX
  8
C7
  10
391.748400
  20
442.915100
  0
VERTEX
  8
C7
  10
390.876500
  20
442.772800
  0
VERTEX
  8
C7
  10
390.000000
  20
442.566300
  0
VERTEX
  8
C7
  10
389.060500
  20
442.283400
  0
VERTEX
  8
C7
  10
388.179800
  20
441.963900
  0
VERTEX
  8
C7
  10
387.356800
  20
441.609600
  0
VERTEX
  8
C7
  10
386.590500
  20
441.222200
  0
VERTEX
  8
C7
  10
385.880100
  20
440.803400
  0
VERTEX
  8
C7
  10
385.224500
  20
440.354900
  0
VERTEX
  8
C7
  10
384.622900
  20
439.878500
  0
VERTEX
  8
C7
  10
384.074200
  20
439.375900
  0
VERTEX
  8
C7
  10
383.577500
  20
438.848900
  0
VERTEX
  8
C7
  10
383.131800
  20
438.299100
  0
VERTEX
  8
C7
  10
382.736200
  20
437.728400
  0
VERTEX
  8
C7
  10
382.389700
  20
437.138400
  0
VERTEX
  8
C7
  10
382.091300
  20
436.530800
  0
VERTEX
  8
C7
  10
381.840200
  20
435.907500
  0
VERTEX
  8
C7
  10
381.635300
  20
435.270200
  0
VERTEX
  8
C7
  10
381.475700
  20
434.620500
  0
VERTEX
  8
C7
  10
381.360500
  20
433.960200
  0
VERTEX
  8
C7
  10
381.288600
  20
433.291100
  0
VERTEX
  8
C7
  10
381.259100
  20
432.614800
  0
VERTEX
  8
C7
  10
381.271100
  20
431.933200
  0
VERTEX
  8
C7
  10
381.323600
  20
431.247900
  0
VERTEX
  8
C7
  10
381.415600
  20
430.560700
  0
VERTEX
  8
C7
  10
381.546300
  20
429.873300
  0
VERTEX
  8
C7
  10
381.714500
  20
429.187500
  0
VERTEX
  8
C7
  10
381.919400
  20
428.505000
  0
VERTEX
  8
C7
  10
382.160100
  20
427.827400
  0
VERTEX
  8
C7
  10
382.435500
  20
427.156600
  0
VERTEX
  8
C7
  10
382.744700
  20
426.494300
  0
VERTEX
  8
C7
  10
383.086800
  20
425.842200
  0
VERTEX
  8
C7
  10
383.460800
  20
425.202100
  0
VERTEX
  8
C7
  10
383.865600
  20
424.575700
  0
VERTEX
  8
C7
  10
384.300500
  20
423.964600
  0
VERTEX
  8
C7
  10
384.764400
  20
423.370800
  0
VERTEX
  8
C7
  10
385.256300
  20
422.795800
  0
VERTEX
  8
C7
  10
385.775400
  20
422.241400
  0
VERTEX
  8
C7
  10
386.320600
  20
421.709400
  0
VERTEX
  8
C7
  10
386.890900
  20
421.201400
  0
VERTEX
  8
C7
  10
387.485600
  20
420.719300
  0
VERTEX
  8
C7
  10
388.103400
  20
420.264800
  0
VERTEX
  8
C7
  10
388.743600
  20
419.839500
  0
VERTEX
  8
C7
  10
389.405200
  20
419.445200
  0
VERTEX
  8
C7
  10
390.087200
  20
419.083700
  0
VERTEX
  8
C7
  10
390.788600
  20
418.756700
  0
VERTEX
  8
C7
  10
391.508500
  20
418.465900
  0
VERTEX
  8
C7
  10
392.245900
  20
418.213100
  0
VERTEX
  8
C7
  10
393.000000
  20
418.000000
  0
SEQEND
  8
C7
  0
POLYLINE
  8
C7
  66
1
  10
333.000000
  20
442.000000
  0
VERTEX
  8
C7
  10
333.000000
  20
442.000000
  0
VERTEX
  8
C7
  10
333.000000
  20
441.000000
  0
VERTEX
  8
C7
  10
333.634500
  20
440.512400
  0
VERTEX
  8
C7
  10
334.238600
  20
439.989400
  0
VERTEX
  8
C7
  10
334.811300
  20
439.433600
  0
VERTEX
  8
C7
  10
335.351800
  20
438.847500
  0
VERTEX
  8
C7
  10
335.859500
  20
438.233900
  0
VERTEX
  8
C7
  10
336.333500
  20
437.595200
  0
VERTEX
  8
C7
  10
336.773000
  20
436.934100
  0
VERTEX
  8
C7
  10
337.177300
  20
436.253300
  0
VERTEX
  8
C7
  10
337.545500
  20
435.555400
  0
VERTEX
  8
C7
  10
337.876800
  20
434.842900
  0
VERTEX
  8
C7
  10
338.170600
  20
434.118600
  0
VERTEX
  8
C7
  10
338.425900
  20
433.384900
  0
VERTEX
  8
C7
  10
338.642000
  20
432.644600
  0
VERTEX
  8
C7
  10
338.818100
  20
431.900300
  0
VERTEX
  8
C7
  10
338.953400
  20
431.154500
  0
VERTEX
  8
C7
  10
339.047200
  20
430.410000
  0
VERTEX
  8
C7
  10
339.098600
  20
429.669200
  0
VERTEX
  8
C7
  10
339.106900
  20
428.934900
  0
VERTEX
  8
C7
  10
339.071200
  20
428.209700
  0
VERTEX
  8
C7
  10
338.990900
  20
427.496100
  0
VERTEX
  8
C7
  10
338.865000
  20
426.796800
  0
VERTEX
  8
C7
  10
338.692800
  20
426.114400
  0
VERTEX
  8
C7
  10
338.473600
  20
425.451500
  0
VERTEX
  8
C7
  10
338.206500
  20
424.810800
  0
VERTEX
  8
C7
  10
337.890700
  20
424.194900
  0
VERTEX
  8
C7
  10
337.525500
  20
423.606400
  0
VERTEX
  8
C7
  10
337.110100
  20
423.047800
  0
VERTEX
  8
C7
  10
336.643600
  20
422.521900
  0
VERTEX
  8
C7
  10
336.125400
  20
422.031300
  0
VERTEX
  8
C7
  10
335.554500
  20
421.578500
  0
VERTEX
  8
C7
  10
334.930300
  20
421.166100
  0
VERTEX
  8
C7
  10
334.251900
  20
420.796900
  0
VERTEX
  8
C7
  10
333.518600
  20
420.473400
  0
VERTEX
  8
C7
  10
332.729500
  20
420.198300
  0
VERTEX
  8
C7
  10
331.883800
  20
419.974100
  0
VERTEX
  8
C7
  10
330.980900
  20
419.803500
  0
VERTEX
  8
C7
  10
330.019900
  20
419.689000
  0
VERTEX
  8
C7
  10
329.000000
  20
419.633500
  0
SEQEND
  8
C7
  0
POLYLINE
  8
C7
  66
1
  10
329.000000
  20
419.633400
  0
VERTEX
  8
C7
  10
329.000000
  20
419.633400
  0
VERTEX
  8
C7
  10
327.988500
  20
419.638900
  0
VERTEX
  8
C7
  10
327.029000
  20
419.703800
  0
VERTEX
  8
C7
  10
326.121000
  20
419.825700
  0
VERTEX
  8
C7
  10
325.264000
  20
420.002000
  0
VERTEX
  8
C7
  10
324.457700
  20
420.230300
  0
VERTEX
  8
C7
  10
323.701500
  20
420.507900
  0
VERTEX
  8
C7
  10
322.995000
  20
420.832500
  0
VERTEX
  8
C7
  10
322.337800
  20
421.201500
  0
VERTEX
  8
C7
  10
321.729500
  20
421.612300
  0
VERTEX
  8
C7
  10
321.169600
  20
422.062600
  0
VERTEX
  8
C7
  10
320.657600
  20
422.549800
  0
VERTEX
  8
C7
  10
320.193100
  20
423.071300
  0
VERTEX
  8
C7
  10
319.775700
  20
423.624800
  0
VERTEX
  8
C7
  10
319.404900
  20
424.207600
  0
VERTEX
  8
C7
  10
319.080400
  20
424.817300
  0
VERTEX
  8
C7
  10
318.801500
  20
425.451300
  0
VERTEX
  8
C7
  10
318.568000
  20
426.107200
  0
VERTEX
  8
C7
  10
318.379400
  20
426.782500
  0
VERTEX
  8
C7
  10
318.235200
  20
427.474700
  0
VERTEX
  8
C7
  10
318.134900
  20
428.181200
  0
VERTEX
  8
C7
  10
318.078200
  20
428.899500
  0
VERTEX
  8
C7
  10
318.064600
  20
429.627200
  0
VERTEX
  8
C7
  10
318.093700
  20
430.361700
  0
VERTEX
  8
C7
  10
318.165000
  20
431.100500
  0
VERTEX
  8
C7
  10
318.278000
  20
431.841200
  0
VERTEX
  8
C7
  10
318.432400
  20
432.581200
  0
VERTEX
  8
C7
  10
318.627700
  20
433.318000
  0
VERTEX
  8
C7
  10
318.863400
  20
434.049200
  0
VERTEX
  8
C7
  10
319.139200
  20
434.772100
  0
VERTEX
  8
C7
  10
319.454500
  20
435.484300
  0
VERTEX
  8
C7
  10
319.808900
  20
436.183400
  0
VERTEX
  8
C7
  10
320.202000
  20
436.866700
  0
VERTEX
  8
C7
  10
320.633400
  20
437.531900
  0
VERTEX
  8
C7
  10
321.102600
  20
438.176300
  0
VERTEX
  8
C7
  10
321.609100
  20
438.797500
  0
VERTEX
  8
C7
  10
322.152500
  20
439.392900
  0
VERTEX
  8
C7
  10
322.732400
  20
439.960200
  0
VERTEX
  8
C7
  10
323.348400
  20
440.496700
  0
VERTEX
  8
C7
  10
324.000000
  20
441.000000
  0
VERTEX
  8
C7
  10
323.131400
  20
440.984600
  0
VERTEX
  8
C7
  10
322.320200
  20
440.902300
  0
VERTEX
  8
C7
  10
321.565400
  20
440.756300
  0
VERTEX
  8
C7
  10
320.865900
  20
440.549800
  0
VERTEX
  8
C7
  10
320.220800
  20
440.285700
  0
VERTEX
  8
C7
  10
319.629100
  20
439.967400
  0
VERTEX
  8
C7
  10
319.089800
  20
439.598000
  0
VERTEX
  8
C7
  10
318.602000
  20
439.180500
  0
VERTEX
  8
C7
  10
318.164700
  20
438.718100
  0
VERTEX
  8
C7
  10
317.776900
  20
438.213900
  0
VERTEX
  8
C7
  10
317.437700
  20
437.671100
  0
VERTEX
  8
C7
  10
317.146000
  20
437.092900
  0
VERTEX
  8
C7
  10
316.901000
  20
436.482300
  0
VERTEX
  8
C7
  10
316.701500
  20
435.842500
  0
VERTEX
  8
C7
  10
316.546800
  20
435.176700
  0
VERTEX
  8
C7
  10
316.435600
  20
434.487900
  0
VERTEX
  8
C7
  10
316.367200
  20
433.779300
  0
VERTEX
  8
C7
  10
316.340500
  20
433.054100
  0
VERTEX
  8
C7
  10
316.354600
  20
432.315400
  0
VERTEX
  8
C7
  10
316.408500
  20
431.566300
  0
VERTEX
  8
C7
  10
316.501100
  20
430.810000
  0
VERTEX
  8
C7
  10
316.631600
  20
430.049500
  0
VERTEX
  8
C7
  10
316.799000
  20
429.288200
  0
VERTEX
  8
C7
  10
317.002200
  20
428.529000
  0
VERTEX
  8
C7
  10
317.240300
  20
427.775100
  0
VERTEX
  8
C7
  10
317.512400
  20
427.029600
  0
VERTEX
  8
C7
  10
317.817400
  20
426.295800
  0
VERTEX
  8
C7
  10
318.154500
  20
425.576700
  0
VERTEX
  8
C7
  10
318.522500
  20
424.875500
  0
VERTEX
  8
C7
  10
318.920600
  20
424.195200
  0
VERTEX
  8
C7
  10
319.347800
  20
423.539200
  0
VERTEX
  8
C7
  10
319.803000
  20
422.910400
  0
VERTEX
  8
C7
  10
320.285400
  20
422.312000
  0
VERTEX
  8
C7
  10
320.793900
  20
421.747200
  0
VERTEX
  8
C7
  10
321.327600
  20
421.219100
  0
VERTEX
  8
C7
  10
321.885500
  20
420.730800
  0
VERTEX
  8
C7
  10
322.466600
  20
420.285500
  0
VERTEX
  8
C7
  10
323.069900
  20
419.886300
  0
VERTEX
  8
C7
  10
323.694600
  20
419.536400
  0
VERTEX
  8
C7
  10
324.339500
  20
419.238900
  0
VERTEX
  8
C7
  10
325.003800
  20
418.996900
  0
VERTEX
  8
C7
  10
325.839400
  20
418.757100
  0
VERTEX
  8
C7
  10
326.657200
  20
418.571100
  0
VERTEX
  8
C7
  10
327.456700
  20
418.437500
  0
VERTEX
  8
C7
  10
328.237200
  20
418.354400
  0
VERTEX
  8
C7
  10
328.998400
  20
418.320300
  0
VERTEX
  8
C7
  10
329.739800
  20
418.333400
  0
VERTEX
  8
C7
  10
330.460700
  20
418.392300
  0
VERTEX
  8
C7
  10
331.160800
  20
418.495100
  0
VERTEX
  8
C7
  10
331.839600
  20
418.640300
  0
VERTEX
  8
C7
  10
332.496500
  20
418.826300
  0
VERTEX
  8
C7
  10
333.131000
  20
419.051300
  0
VERTEX
  8
C7
  10
333.742700
  20
419.313700
  0
VERTEX
  8
C7
  10
334.331000
  20
419.612000
  0
VERTEX
  8
C7
  10
334.895400
  20
419.944400
  0
VERTEX
  8
C7
  10
335.435600
  20
420.309200
  0
VERTEX
  8
C7
  10
335.950800
  20
420.705000
  0
VERTEX
  8
C7
  10
336.440800
  20
421.129900
  0
VERTEX
  8
C7
  10
336.904900
  20
421.582400
  0
VERTEX
  8
C7
  10
337.342600
  20
422.060800
  0
VERTEX
  8
C7
  10
337.753600
  20
422.563500
  0
VERTEX
  8
C7
  10
338.137100
  20
423.088800
  0
VERTEX
  8
C7
  10
338.492900
  20
423.635100
  0
VERTEX
  8
C7
  10
338.820300
  20
424.200700
  0
VERTEX
  8
C7
  10
339.118900
  20
424.784100
  0
VERTEX
  8
C7
  10
339.388200
  20
425.383400
  0
VERTEX
  8
C7
  10
339.627600
  20
425.997200
  0
VERTEX
  8
C7
  10
339.836700
  20
426.623700
  0
VERTEX
  8
C7
  10
340.015000
  20
427.261300
  0
VERTEX
  8
C7
  10
340.162000
  20
427.908400
  0
VERTEX
  8
C7
  10
340.277200
  20
428.563300
  0
VERTEX
  8
C7
  10
340.360100
  20
429.224400
  0
VERTEX
  8
C7
  10
340.410100
  20
429.890000
  0
VERTEX
  8
C7
  10
340.426800
  20
430.558500
  0
VERTEX
  8
C7
  10
340.409800
  20
431.228200
  0
VERTEX
  8
C7
  10
340.358400
  20
431.897500
  0
VERTEX
  8
C7
  10
340.272200
  20
432.564800
  0
VERTEX
  8
C7
  10
340.150700
  20
433.228400
  0
VERTEX
  8
C7
  10
339.993500
  20
433.886600
  0
VERTEX
  8
C7
  10
339.799900
  20
434.537800
  0
VERTEX
  8
C7
  10
339.569500
  20
435.180400
  0
VERTEX
  8
C7
  10
339.301900
  20
435.812700
  0
VERTEX
  8
C7
  10
338.996400
  20
436.433100
  0
VERTEX
  8
C7
  10
338.652700
  20
437.040000
  0
VERTEX
  8
C7
  10
338.270100
  20
437.631600
  0
VERTEX
  8
C7
  10
337.848300
  20
438.206300
  0
VERTEX
  8
C7
  10
337.386800
  20
438.762600
  0
VERTEX
  8
C7
  10
336.884900
  20
439.298700
  0
VERTEX
  8
C7
  10
336.342200
  20
439.813000
  0
VERTEX
  8
C7
  10
335.758300
  20
440.303800
  0
VERTEX
  8
C7
  10
335.132600
  20
440.769600
  0
VERTEX
  8
C7
  10
334.464700
  20
441.208600
  0
VERTEX
  8
C7
  10
333.753900
  20
441.619300
  0
VERTEX
  8
C7
  10
333.000000
  20
442.000000
  0
SEQEND
  8
C7
  0
POLYLINE
  8
C7
  66
1
  10
389.004639
  20
441.257721
  0
VERTEX
  8
C7
  10
389.004639
  20
441.257721
  0
VERTEX
  8
C7
  10
388.237500
  20
440.932700
  0
VERTEX
  8
C7
  10
387.520300
  20
440.574400
  0
VERTEX
  8
C7
  10
386.852300
  20
440.184500
  0
VERTEX
  8
C7
  10
386.232600
  20
439.764800
  0
VERTEX
  8
C7
  10
385.660400
  20
439.317200
  0
VERTEX
  8
C7
  10
385.135000
  20
438.843400
  0
VERTEX
  8
C7
  10
384.655500
  20
438.345300
  0
VERTEX
  8
C7
  10
384.221300
  20
437.824700
  0
VERTEX
  8
C7
  10
383.831500
  20
437.283400
  0
VERTEX
  8
C7
  10
383.485300
  20
436.723200
  0
VERTEX
  8
C7
  10
383.182000
  20
436.145900
  0
VERTEX
  8
C7
  10
382.920700
  20
435.553300
  0
VERTEX
  8
C7
  10
382.700700
  20
434.947300
  0
VERTEX
  8
C7
  10
382.521300
  20
434.329700
  0
VERTEX
  8
C7
  10
382.381500
  20
433.702200
  0
VERTEX
  8
C7
  10
382.280700
  20
433.066700
  0
VERTEX
  8
C7
  10
382.218000
  20
432.425100
  0
VERTEX
  8
C7
  10
382.192800
  20
431.779000
  0
VERTEX
  8
C7
  10
382.204100
  20
431.130400
  0
VERTEX
  8
C7
  10
382.251200
  20
430.481000
  0
VERTEX
  8
C7
  10
382.333300
  20
429.832600
  0
VERTEX
  8
C7
  10
382.449700
  20
429.187200
  0
VERTEX
  8
C7
  10
382.599600
  20
428.546400
  0
VERTEX
  8
C7
  10
382.782100
  20
427.912100
  0
VERTEX
  8
C7
  10
382.996500
  20
427.286100
  0
VERTEX
  8
C7
  10
383.242100
  20
426.670200
  0
VERTEX
  8
C7
  10
383.518000
  20
426.066300
  0
VERTEX
  8
C7
  10
383.823400
  20
425.476100
  0
VERTEX
  8
C7
  10
384.157600
  20
424.901400
  0
VERTEX
  8
C7
  10
384.519800
  20
424.344200
  0
VERTEX
  8
C7
  10
384.909100
  20
423.806100
  0
VERTEX
  8
C7
  10
385.324900
  20
423.289000
  0
VERTEX
  8
C7
  10
385.766400
  20
422.794700
  0
VERTEX
  8
C7
  10
386.232700
  20
422.325100
  0
VERTEX
  8
C7
  10
386.723100
  20
421.881800
  0
VERTEX
  8
C7
  10
387.236700
  20
421.466900
  0
VERTEX
  8
C7
  10
387.772900
  20
421.082000
  0
VERTEX
  8
C7
  10
388.330800
  20
420.728900
  0
VERTEX
  8
C7
  10
388.909600
  20
420.409600
  0
VERTEX
  8
C7
  10
389.508600
  20
420.125800
  0
VERTEX
  8
C7
  10
390.127000
  20
419.879200
  0
VERTEX
  8
C7
  10
390.764000
  20
419.671800
  0
VERTEX
  8
C7
  10
391.418800
  20
419.505400
  0
VERTEX
  8
C7
  10
392.090600
  20
419.381700
  0
VERTEX
  8
C7
  10
392.778700
  20
419.302600
  0
VERTEX
  8
C7
  10
393.482200
  20
419.269800
  0
VERTEX
  8
C7
  10
394.200400
  20
419.285300
  0
VERTEX
  8
C7
  10
394.932600
  20
419.350700
  0
VERTEX
  8
C7
  10
395.677800
  20
419.468000
  0
VERTEX
  8
C7
  10
396.435400
  20
419.638900
  0
VERTEX
  8
C7
  10
397.204500
  20
419.865200
  0
VERTEX
  8
C7
  10
397.984500
  20
420.148900
  0
VERTEX
  8
C7
  10
398.752400
  20
420.481800
  0
VERTEX
  8
C7
  10
399.471100
  20
420.847400
  0
VERTEX
  8
C7
  10
400.141100
  20
421.244000
  0
VERTEX
  8
C7
  10
400.763200
  20
421.669600
  0
VERTEX
  8
C7
  10
401.338200
  20
422.122600
  0
VERTEX
  8
C7
  10
401.866800
  20
422.601200
  0
VERTEX
  8
C7
  10
402.349900
  20
423.103500
  0
VERTEX
  8
C7
  10
402.788000
  20
423.627700
  0
VERTEX
  8
C7
  10
403.182000
  20
424.172100
  0
VERTEX
  8
C7
  10
403.532600
  20
424.734900
  0
VERTEX
  8
C7
  10
403.840600
  20
425.314300
  0
VERTEX
  8
C7
  10
404.106700
  20
425.908500
  0
VERTEX
  8
C7
  10
404.331700
  20
426.515700
  0
VERTEX
  8
C7
  10
404.516300
  20
427.134100
  0
VERTEX
  8
C7
  10
404.661300
  20
427.762000
  0
VERTEX
  8
C7
  10
404.767300
  20
428.397500
  0
VERTEX
  8
C7
  10
404.835300
  20
429.038800
  0
VERTEX
  8
C7
  10
404.865800
  20
429.684200
  0
VERTEX
  8
C7
  10
404.859700
  20
430.331800
  0
VERTEX
  8
C7
  10
404.817700
  20
430.979900
  0
VERTEX
  8
C7
  10
404.740600
  20
431.626700
  0
VERTEX
  8
C7
  10
404.629100
  20
432.270500
  0
VERTEX
  8
C7
  10
404.483900
  20
432.909300
  0
VERTEX
  8
C7
  10
404.305900
  20
433.541400
  0
VERTEX
  8
C7
  10
404.095700
  20
434.165000
  0
VERTEX
  8
C7
  10
403.854100
  20
434.778400
  0
VERTEX
  8
C7
  10
403.581800
  20
435.379700
  0
VERTEX
  8
C7
  10
403.279700
  20
435.967200
  0
VERTEX
  8
C7
  10
402.948300
  20
436.539100
  0
VERTEX
  8
C7
  10
402.588600
  20
437.093500
  0
VERTEX
  8
C7
  10
402.201300
  20
437.628700
  0
VERTEX
  8
C7
  10
401.787000
  20
438.142800
  0
VERTEX
  8
C7
  10
401.346600
  20
438.634200
  0
VERTEX
  8
C7
  10
400.880700
  20
439.101000
  0
VERTEX
  8
C7
  10
400.390200
  20
439.541500
  0
VERTEX
  8
C7
  10
399.875800
  20
439.953700
  0
VERTEX
  8
C7
  10
399.338300
  20
440.336000
  0
VERTEX
  8
C7
  10
398.778300
  20
440.686500
  0
VERTEX
  8
C7
  10
398.196600
  20
441.003500
  0
VERTEX
  8
C7
  10
397.594100
  20
441.285200
  0
VERTEX
  8
C7
  10
396.971400
  20
441.529700
  0
VERTEX
  8
C7
  10
396.329200
  20
441.735400
  0
VERTEX
  8
C7
  10
395.668400
  20
441.900300
  0
VERTEX
  8
C7
  10
394.989700
  20
442.022700
  0
VERTEX
  8
C7
  10
394.293800
  20
442.100900
  0
VERTEX
  8
C7
  10
393.581400
  20
442.133000
  0
VERTEX
  8
C7
  10
392.853400
  20
442.117200
  0
VERTEX
  8
C7
  10
392.110500
  20
442.051700
  0
VERTEX
  8
C7
  10
391.353400
  20
441.934900
  0
VERTEX
  8
C7
  10
390.582900
  20
441.764700
  0
VERTEX
  8
C7
  10
389.799700
  20
441.539600
  0
VERTEX
  8
C7
  10
389.004600
  20
441.257700
  0
SEQEND
  8
C7
  0
POLYLINE
  8
C7
  66
1
  10
463.000000
  20
442.000000
  0
VERTEX
  8
C7
  10
463.000000
  20
442.000000
  0
VERTEX
  8
C7
  10
463.000000
  20
441.000000
  0
VERTEX
  8
C7
  10
463.623600
  20
440.505900
  0
VERTEX
  8
C7
  10
464.214600
  20
439.976300
  0
VERTEX
  8
C7
  10
464.772600
  20
439.413800
  0
VERTEX
  8
C7
  10
465.296800
  20
438.820900
  0
VERTEX
  8
C7
  10
465.786800
  20
438.200400
  0
VERTEX
  8
C7
  10
466.241900
  20
437.554900
  0
VERTEX
  8
C7
  10
466.661700
  20
436.886900
  0
VERTEX
  8
C7
  10
467.045500
  20
436.199300
  0
VERTEX
  8
C7
  10
467.392700
  20
435.494600
  0
VERTEX
  8
C7
  10
467.702800
  20
434.775400
  0
VERTEX
  8
C7
  10
467.975300
  20
434.044400
  0
VERTEX
  8
C7
  10
468.209500
  20
433.304300
  0
VERTEX
  8
C7
  10
468.404900
  20
432.557700
  0
VERTEX
  8
C7
  10
468.560900
  20
431.807100
  0
VERTEX
  8
C7
  10
468.677000
  20
431.055400
  0
VERTEX
  8
C7
  10
468.752500
  20
430.305100
  0
VERTEX
  8
C7
  10
468.787000
  20
429.558800
  0
VERTEX
  8
C7
  10
468.779800
  20
428.819200
  0
VERTEX
  8
C7
  10
468.730400
  20
428.089000
  0
VERTEX
  8
C7
  10
468.638200
  20
427.370800
  0
VERTEX
  8
C7
  10
468.502600
  20
426.667200
  0
VERTEX
  8
C7
  10
468.323100
  20
425.980900
  0
VERTEX
  8
C7
  10
468.099200
  20
425.314500
  0
VERTEX
  8
C7
  10
467.830100
  20
424.670700
  0
VERTEX
  8
C7
  10
467.515400
  20
424.052100
  0
VERTEX
  8
C7
  10
467.154500
  20
423.461300
  0
VERTEX
  8
C7
  10
466.746900
  20
422.901000
  0
VERTEX
  8
C7
  10
466.291900
  20
422.373900
  0
VERTEX
  8
C7
  10
465.789000
  20
421.882500
  0
VERTEX
  8
C7
  10
465.237600
  20
421.429600
  0
VERTEX
  8
C7
  10
464.637200
  20
421.017700
  0
VERTEX
  8
C7
  10
463.987100
  20
420.649600
  0
VERTEX
  8
C7
  10
463.286900
  20
420.327800
  0
VERTEX
  8
C7
  10
462.535900
  20
420.055000
  0
VERTEX
  8
C7
  10
461.733700
  20
419.833800
  0
VERTEX
  8
C7
  10
460.879500
  20
419.666900
  0
VERTEX
  8
C7
  10
459.972800
  20
419.557000
  0
VERTEX
  8
C7
  10
459.013200
  20
419.506600
  0
VERTEX
  8
C7
  10
458.000000
  20
419.518500
  0
VERTEX
  8
C7
  10
456.983600
  20
419.592000
  0
VERTEX
  8
C7
  10
456.025400
  20
419.722700
  0
VERTEX
  8
C7
  10
455.124800
  20
419.908100
  0
VERTEX
  8
C7
  10
454.281000
  20
420.145500
  0
VERTEX
  8
C7
  10
453.493200
  20
420.432600
  0
VERTEX
  8
C7
  10
452.760600
  20
420.766600
  0
VERTEX
  8
C7
  10
452.082500
  20
421.145100
  0
VERTEX
  8
C7
  10
451.458300
  20
421.565500
  0
VERTEX
  8
C7
  10
450.887000
  20
422.025200
  0
VERTEX
  8
C7
  10
450.368000
  20
422.521700
  0
VERTEX
  8
C7
  10
449.900400
  20
423.052500
  0
VERTEX
  8
C7
  10
449.483700
  20
423.614900
  0
VERTEX
  8
C7
  10
449.116900
  20
424.206500
  0
VERTEX
  8
C7
  10
448.799400
  20
424.824600
  0
VERTEX
  8
C7
  10
448.530400
  20
425.466800
  0
VERTEX
  8
C7
  10
448.309100
  20
426.130500
  0
VERTEX
  8
C7
  10
448.134900
  20
426.813100
  0
VERTEX
  8
C7
  10
448.006900
  20
427.512000
  0
VERTEX
  8
C7
  10
447.924300
  20
428.224800
  0
VERTEX
  8
C7
  10
447.886500
  20
428.948900
  0
VERTEX
  8
C7
  10
447.892700
  20
429.681700
  0
VERTEX
  8
C7
  10
447.942200
  20
430.420600
  0
VERTEX
  8
C7
  10
448.034100
  20
431.163200
  0
VERTEX
  8
C7
  10
448.167700
  20
431.906800
  0
VERTEX
  8
C7
  10
448.342400
  20
432.648900
  0
VERTEX
  8
C7
  10
448.557200
  20
433.387000
  0
VERTEX
  8
C7
  10
448.811600
  20
434.118500
  0
VERTEX
  8
C7
  10
449.104700
  20
434.840900
  0
VERTEX
  8
C7
  10
449.435700
  20
435.551500
  0
VERTEX
  8
C7
  10
449.804000
  20
436.247900
  0
VERTEX
  8
C7
  10
450.208700
  20
436.927500
  0
VERTEX
  8
C7
  10
450.649200
  20
437.587800
  0
VERTEX
  8
C7
  10
451.124600
  20
438.226100
  0
VERTEX
  8
C7
  10
451.634200
  20
438.840000
  0
VERTEX
  8
C7
  10
452.177400
  20
439.426900
  0
VERTEX
  8
C7
  10
452.753200
  20
439.984200
  0
VERTEX
  8
C7
  10
453.361000
  20
440.509400
  0
VERTEX
  8
C7
  10
454.000000
  20
441.000000
  0
VERTEX
  8
C7
  10
453.202600
  20
441.080400
  0
VERTEX
  8
C7
  10
452.453300
  20
441.090400
  0
VERTEX
  8
C7
  10
451.751200
  20
441.033100
  0
VERTEX
  8
C7
  10
451.095900
  20
440.911500
  0
VERTEX
  8
C7
  10
450.486600
  20
440.728800
  0
VERTEX
  8
C7
  10
449.922700
  20
440.487900
  0
VERTEX
  8
C7
  10
449.403400
  20
440.192100
  0
VERTEX
  8
C7
  10
448.928300
  20
439.844200
  0
VERTEX
  8
C7
  10
448.496600
  20
439.447500
  0
VERTEX
  8
C7
  10
448.107600
  20
439.005000
  0
VERTEX
  8
C7
  10
447.760800
  20
438.519700
  0
VERTEX
  8
C7
  10
447.455500
  20
437.994800
  0
VERTEX
  8
C7
  10
447.190900
  20
437.433200
  0
VERTEX
  8
C7
  10
446.966500
  20
436.838100
  0
VERTEX
  8
C7
  10
446.781700
  20
436.212600
  0
VERTEX
  8
C7
  10
446.635600
  20
435.559700
  0
VERTEX
  8
C7
  10
446.527800
  20
434.882500
  0
VERTEX
  8
C7
  10
446.457600
  20
434.184000
  0
VERTEX
  8
C7
  10
446.424200
  20
433.467400
  0
VERTEX
  8
C7
  10
446.427200
  20
432.735700
  0
VERTEX
  8
C7
  10
446.465700
  20
431.992000
  0
VERTEX
  8
C7
  10
446.539100
  20
431.239300
  0
VERTEX
  8
C7
  10
446.646900
  20
430.480800
  0
VERTEX
  8
C7
  10
446.788300
  20
429.719400
  0
VERTEX
  8
C7
  10
446.962700
  20
428.958400
  0
VERTEX
  8
C7
  10
447.169400
  20
428.200600
  0
VERTEX
  8
C7
  10
447.407800
  20
427.449300
  0
VERTEX
  8
C7
  10
447.677300
  20
426.707500
  0
VERTEX
  8
C7
  10
447.977100
  20
425.978200
  0
VERTEX
  8
C7
  10
448.306700
  20
425.264600
  0
VERTEX
  8
C7
  10
448.665400
  20
424.569600
  0
VERTEX
  8
C7
  10
449.052500
  20
423.896500
  0
VERTEX
  8
C7
  10
449.467400
  20
423.248200
  0
VERTEX
  8
C7
  10
449.909400
  20
422.627800
  0
VERTEX
  8
C7
  10
450.377900
  20
422.038400
  0
VERTEX
  8
C7
  10
450.872200
  20
421.483100
  0
VERTEX
  8
C7
  10
451.391600
  20
420.964900
  0
VERTEX
  8
C7
  10
451.935600
  20
420.486900
  0
VERTEX
  8
C7
  10
452.503500
  20
420.052200
  0
VERTEX
  8
C7
  10
453.094600
  20
419.663900
  0
VERTEX
  8
C7
  10
453.708300
  20
419.325000
  0
VERTEX
  8
C7
  10
454.343800
  20
419.038600
  0
VERTEX
  8
C7
  10
455.000700
  20
418.807800
  0
VERTEX
  8
C7
  10
455.831100
  20
418.581800
  0
VERTEX
  8
C7
  10
456.644200
  20
418.410800
  0
VERTEX
  8
C7
  10
457.439300
  20
418.293100
  0
VERTEX
  8
C7
  10
458.215900
  20
418.227000
  0
VERTEX
  8
C7
  10
458.973600
  20
418.210700
  0
VERTEX
  8
C7
  10
459.711600
  20
418.242400
  0
VERTEX
  8
C7
  10
460.429500
  20
418.320600
  0
VERTEX
  8
C7
  10
461.126800
  20
418.443400
  0
VERTEX
  8
C7
  10
461.802800
  20
418.609200
  0
VERTEX
  8
C7
  10
462.457000
  20
418.816300
  0
VERTEX
  8
C7
  10
463.089000
  20
419.062800
  0
VERTEX
  8
C7
  10
463.698000
  20
419.347200
  0
VERTEX
  8
C7
  10
464.283600
  20
419.667600
  0
VERTEX
  8
C7
  10
464.845300
  20
420.022400
  0
VERTEX
  8
C7
  10
465.382400
  20
420.409900
  0
VERTEX
  8
C7
  10
465.894500
  20
420.828200
  0
VERTEX
  8
C7
  10
466.380900
  20
421.275800
  0
VERTEX
  8
C7
  10
466.841200
  20
421.750900
  0
VERTEX
  8
C7
  10
467.274800
  20
422.251800
  0
VERTEX
  8
C7
  10
467.681100
  20
422.776700
  0
VERTEX
  8
C7
  10
468.059600
  20
423.324000
  0
VERTEX
  8
C7
  10
468.409700
  20
423.891900
  0
VERTEX
  8
C7
  10
468.730900
  20
424.478700
  0
VERTEX
  8
C7
  10
469.022600
  20
425.082700
  0
VERTEX
  8
C7
  10
469.284400
  20
425.702200
  0
VERTEX
  8
C7
  10
469.515500
  20
426.335400
  0
VERTEX
  8
C7
  10
469.715600
  20
426.980700
  0
VERTEX
  8
C7
  10
469.884000
  20
427.636200
  0
VERTEX
  8
C7
  10
470.020200
  20
428.300400
  0
VERTEX
  8
C7
  10
470.123600
  20
428.971500
  0
VERTEX
  8
C7
  10
470.193700
  20
429.647700
  0
VERTEX
  8
C7
  10
470.230000
  20
430.327400
  0
VERTEX
  8
C7
  10
470.231900
  20
431.008800
  0
VERTEX
  8
C7
  10
470.198800
  20
431.690200
  0
VERTEX
  8
C7
  10
470.130200
  20
432.369900
  0
VERTEX
  8
C7
  10
470.025500
  20
433.046200
  0
VERTEX
  8
C7
  10
469.884300
  20
433.717400
  0
VERTEX
  8
C7
  10
469.705900
  20
434.381700
  0
VERTEX
  8
C7
  10
469.489800
  20
435.037400
  0
VERTEX
  8
C7
  10
469.235500
  20
435.682900
  0
VERTEX
  8
C7
  10
468.942300
  20
436.316300
  0
VERTEX
  8
C7
  10
468.609800
  20
436.936000
  0
VERTEX
  8
C7
  10
468.237400
  20
437.540200
  0
VERTEX
  8
C7
  10
467.824600
  20
438.127300
  0
VERTEX
  8
C7
  10
467.370800
  20
438.695500
  0
VERTEX
  8
C7
  10
466.875400
  20
439.243100
  0
VERTEX
  8
C7
  10
466.337900
  20
439.768400
  0
VERTEX
  8
C7
  10
465.757800
  20
440.269600
  0
VERTEX
  8
C7
  10
465.134500
  20
440.745100
  0
VERTEX
  8
C7
  10
464.467500
  20
441.193200
  0
VERTEX
  8
C7
  10
463.756100
  20
441.612000
  0
VERTEX
  8
C7
  10
463.000000
  20
442.000000
  0
SEQEND
  8
C7
  0
POLYLINE
  8
C7
  66
1
  10
671.000000
  20
439.000000
  0
VERTEX
  8
C7
  10
671.000000
  20
439.000000
  0
VERTEX
  8
C7
  10
675.000000
  20
441.000000
  0
VERTEX
  8
C7
  10
671.000000
  20
439.000000
  0
SEQEND
  8
C7
  0
POLYLINE
  8
C7
  66
1
  10
706.000000
  20
442.000000
  0
VERTEX
  8
C7
  10
706.000000
  20
442.000000
  0
VERTEX
  8
C7
  10
706.000000
  20
432.000000
  0
VERTEX
  8
C7
  10
707.000000
  20
432.000000
  0
VERTEX
  8
C7
  10
708.000000
  20
442.000000
  0
VERTEX
  8
C7
  10
706.000000
  20
442.000000
  0
SEQEND
  8
C7
  0
POLYLINE
  8
C7
  66
1
  10
716.000000
  20
442.000000
  0
VERTEX
  8
C7
  10
716.000000
  20
442.000000
  0
VERTEX
  8
C7
  10
716.000000
  20
432.000000
  0
VERTEX
  8
C7
  10
716.778300
  20
432.830500
  0
VERTEX
  8
C7
  10
717.413300
  20
433.656200
  0
VERTEX
  8
C7
  10
717.912900
  20
434.484000
  0
VERTEX
  8
C7
  10
718.285200
  20
435.320600
  0
VERTEX
  8
C7
  10
718.538300
  20
436.173000
  0
VERTEX
  8
C7
  10
718.680000
  20
437.047900
  0
VERTEX
  8
C7
  10
718.718500
  20
437.952200
  0
VERTEX
  8
C7
  10
718.661700
  20
438.892800
  0
VERTEX
  8
C7
  10
718.517600
  20
439.876300
  0
VERTEX
  8
C7
  10
718.294400
  20
440.909800
  0
VERTEX
  8
C7
  10
718.000000
  20
442.000000
  0
VERTEX
  8
C7
  10
716.000000
  20
442.000000
  0
SEQEND
  8
C7
  0
POLYLINE
  8
C7
  66
1
  10
723.000000
  20
441.000000
  0
VERTEX
  8
C7
  10
723.000000
  20
441.000000
  0
VERTEX
  8
C7
  10
723.000000
  20
430.000000
  0
VERTEX
  8
C7
  10
726.000000
  20
430.000000
  0
VERTEX
  8
C7
  10
726.000000
  20
438.000000
  0
VERTEX
  8
C7
  10
729.000000
  20
438.000000
  0
VERTEX
  8
C7
  10
729.000000
  20
430.000000
  0
VERTEX
  8
C7
  10
731.000000
  20
430.000000
  0
VERTEX
  8
C7
  10
732.000000
  20
438.000000
  0
VERTEX
  8
C7
  10
734.000000
  20
438.000000
  0
VERTEX
  8
C7
  10
735.000000
  20
430.000000
  0
VERTEX
  8
C7
  10
737.000000
  20
430.000000
  0
VERTEX
  8
C7
  10
736.981800
  20
431.283000
  0
VERTEX
  8
C7
  10
736.927000
  20
432.461700
  0
VERTEX
  8
C7
  10
736.834400
  20
433.540500
  0
VERTEX
  8
C7
  10
736.702800
  20
434.523800
  0
VERTEX
  8
C7
  10
736.531300
  20
435.416100
  0
VERTEX
  8
C7
  10
736.318600
  20
436.221800
  0
VERTEX
  8
C7
  10
736.063800
  20
436.945300
  0
VERTEX
  8
C7
  10
735.765600
  20
437.591300
  0
VERTEX
  8
C7
  10
735.423000
  20
438.163900
  0
VERTEX
  8
C7
  10
735.034900
  20
438.667900
  0
VERTEX
  8
C7
  10
734.600200
  20
439.107400
  0
VERTEX
  8
C7
  10
734.117700
  20
439.487200
  0
VERTEX
  8
C7
  10
733.586400
  20
439.811500
  0
VERTEX
  8
C7
  10
733.005100
  20
440.084800
  0
VERTEX
  8
C7
  10
732.372900
  20
440.311600
  0
VERTEX
  8
C7
  10
731.688400
  20
440.496300
  0
VERTEX
  8
C7
  10
730.950700
  20
440.643400
  0
VERTEX
  8
C7
  10
730.158700
  20
440.757400
  0
VERTEX
  8
C7
  10
729.311200
  20
440.842600
  0
VERTEX
  8
C7
  10
728.407200
  20
440.903500
  0
VERTEX
  8
C7
  10
727.445500
  20
440.944700
  0
VERTEX
  8
C7
  10
726.425000
  20
440.970400
  0
VERTEX
  8
C7
  10
725.344700
  20
440.985200
  0
VERTEX
  8
C7
  10
724.203300
  20
440.993600
  0
VERTEX
  8
C7
  10
723.000000
  20
441.000000
  0
SEQEND
  8
C7
  0
POLYLINE
  8
C7
  66
1
  10
739.000000
  20
441.000000
  0
VERTEX
  8
C7
  10
739.000000
  20
441.000000
  0
VERTEX
  8
C7
  10
739.000000
  20
430.000000
  0
VERTEX
  8
C7
  10
741.000000
  20
430.000000
  0
VERTEX
  8
C7
  10
744.000000
  20
438.000000
  0
VERTEX
  8
C7
  10
744.000000
  20
430.000000
  0
VERTEX
  8
C7
  10
747.000000
  20
430.000000
  0
VERTEX
  8
C7
  10
747.000000
  20
438.000000
  0
VERTEX
  8
C7
  10
750.000000
  20
438.000000
  0
VERTEX
  8
C7
  10
750.000000
  20
430.000000
  0
VERTEX
  8
C7
  10
753.000000
  20
430.000000
  0
VERTEX
  8
C7
  10
752.976500
  20
431.291100
  0
VERTEX
  8
C7
  10
752.907700
  20
432.476500
  0
VERTEX
  8
C7
  10
752.793400
  20
433.560800
  0
VERTEX
  8
C7
  10
752.632800
  20
434.548400
  0
VERTEX
  8
C7
  10
752.425600
  20
435.444000
  0
VERTEX
  8
C7
  10
752.171400
  20
436.252100
  0
VERTEX
  8
C7
  10
751.869500
  20
436.977100
  0
VERTEX
  8
C7
  10
751.519600
  20
437.623700
  0
VERTEX
  8
C7
  10
751.121200
  20
438.196300
  0
VERTEX
  8
C7
  10
750.673700
  20
438.699600
  0
VERTEX
  8
C7
  10
750.176800
  20
439.138000
  0
VERTEX
  8
C7
  10
749.630000
  20
439.516100
  0
VERTEX
  8
C7
  10
749.032700
  20
439.838400
  0
VERTEX
  8
C7
  10
748.384600
  20
440.109500
  0
VERTEX
  8
C7
  10
747.685100
  20
440.333900
  0
VERTEX
  8
C7
  10
746.933700
  20
440.516100
  0
VERTEX
  8
C7
  10
746.130100
  20
440.660600
  0
VERTEX
  8
C7
  10
745.273600
  20
440.772100
  0
VERTEX
  8
C7
  10
744.363900
  20
440.855000
  0
VERTEX
  8
C7
  10
743.400500
  20
440.913900
  0
VERTEX
  8
C7
  10
742.382800
  20
440.953300
  0
VERTEX
  8
C7
  10
741.310500
  20
440.977700
  0
VERTEX
  8
C7
  10
740.183000
  20
440.991800
  0
VERTEX
  8
C7
  10
739.000000
  20
441.000000
  0
SEQEND
  8
C7
  0
POLYLINE
  8
C7
  66
1
  10
672.000000
  20
437.000000
  0
VERTEX
  8
C7
  10
672.000000
  20
437.000000
  0
VERTEX
  8
C7
  10
671.000000
  20
436.000000
  0
VERTEX
  8
C7
  10
674.000000
  20
432.000000
  0
VERTEX
  8
C7
  10
674.000000
  20
437.000000
  0
VERTEX
  8
C7
  10
672.000000
  20
437.000000
  0
SEQEND
  8
C7
  0
POLYLINE
  8
C7
  66
1
  10
243.000000
  20
431.000000
  0
VERTEX
  8
C7
  10
243.000000
  20
431.000000
  0
VERTEX
  8
C7
  10
243.000000
  20
430.000000
  0
VERTEX
  8
C7
  10
248.000000
  20
430.000000
  0
VERTEX
  8
C7
  10
249.000000
  20
397.000000
  0
VERTEX
  8
C7
  10
250.000000
  20
397.000000
  0
VERTEX
  8
C7
  10
250.000000
  20
403.000000
  0
VERTEX
  8
C7
  10
254.000000
  20
403.000000
  0
VERTEX
  8
C7
  10
254.000000
  20
404.000000
  0
VERTEX
  8
C7
  10
249.000000
  20
404.000000
  0
VERTEX
  8
C7
  10
249.000000
  20
430.000000
  0
VERTEX
  8
C7
  10
312.000000
  20
430.000000
  0
VERTEX
  8
C7
  10
290.000000
  20
431.000000
  0
VERTEX
  8
C7
  10
243.000000
  20
431.000000
  0
SEQEND
  8
C7
  0
POLYLINE
  8
C7
  66
1
  10
367.000000
  20
417.000000
  0
VERTEX
  8
C7
  10
367.000000
  20
417.000000
  0
VERTEX
  8
C7
  10
367.000000
  20
412.000000
  0
VERTEX
  8
C7
  10
368.000000
  20
412.000000
  0
VERTEX
  8
C7
  10
368.000000
  20
416.000000
  0
VERTEX
  8
C7
  10
372.000000
  20
416.000000
  0
VERTEX
  8
C7
  10
367.000000
  20
417.000000
  0
SEQEND
  8
C7
  0
POLYLINE
  8
C7
  66
1
  10
376.000000
  20
417.000000
  0
VERTEX
  8
C7
  10
376.000000
  20
417.000000
  0
VERTEX
  8
C7
  10
376.000000
  20
416.000000
  0
VERTEX
  8
C7
  10
382.000000
  20
416.000000
  0
VERTEX
  8
C7
  10
376.000000
  20
417.000000
  0
SEQEND
  8
C7
  0
POLYLINE
  8
C7
  66
1
  10
386.000000
  20
417.000000
  0
VERTEX
  8
C7
  10
386.000000
  20
417.000000
  0
VERTEX
  8
C7
  10
386.000000
  20
416.000000
  0
VERTEX
  8
C7
  10
392.000000
  20
416.000000
  0
VERTEX
  8
C7
  10
386.000000
  20
417.000000
  0
SEQEND
  8
C7
  0
POLYLINE
  8
C7
  66
1
  10
405.000000
  20
417.000000
  0
VERTEX
  8
C7
  10
405.000000
  20
417.000000
  0
VERTEX
  8
C7
  10
405.000000
  20
416.000000
  0
VERTEX
  8
C7
  10
411.000000
  20
416.000000
  0
VERTEX
  8
C7
  10
405.000000
  20
417.000000
  0
SEQEND
  8
C7
  0
POLYLINE
  8
C7
  66
1
  10
415.000000
  20
417.000000
  0
VERTEX
  8
C7
  10
415.000000
  20
417.000000
  0
VERTEX
  8
C7
  10
415.000000
  20
416.000000
  0
VERTEX
  8
C7
  10
419.000000
  20
416.000000
  0
VERTEX
  8
C7
  10
419.000000
  20
412.000000
  0
VERTEX
  8
C7
  10
420.000000
  20
412.000000
  0
VERTEX
  8
C7
  10
420.000000
  20
417.000000
  0
VERTEX
  8
C7
  10
415.000000
  20
417.000000
  0
SEQEND
  8
C7
  0
POLYLINE
  8
C7
  66
1
  10
367.000000
  20
408.000000
  0
VERTEX
  8
C7
  10
367.000000
  20
408.000000
  0
VERTEX
  8
C7
  10
367.000000
  20
404.000000
  0
VERTEX
  8
C7
  10
363.000000
  20
404.000000
  0
VERTEX
  8
C7
  10
363.000000
  20
403.000000
  0
VERTEX
  8
C7
  10
368.000000
  20
403.000000
  0
VERTEX
  8
C7
  10
367.000000
  20
408.000000
  0
SEQEND
  8
C7
  0
POLYLINE
  8
C7
  66
1
  10
419.000000
  20
408.000000
  0
VERTEX
  8
C7
  10
419.000000
  20
408.000000
  0
VERTEX
  8
C7
  10
419.000000
  20
403.000000
  0
VERTEX
  8
C7
  10
424.000000
  20
403.000000
  0
VERTEX
  8
C7
  10
424.000000
  20
404.000000
  0
VERTEX
  8
C7
  10
420.000000
  20
404.000000
  0
VERTEX
  8
C7
  10
419.000000
  20
408.000000
  0
SEQEND
  8
C7
  0
POLYLINE
  8
C7
  66
1
  10
258.000000
  20
404.000000
  0
VERTEX
  8
C7
  10
258.000000
  20
404.000000
  0
VERTEX
  8
C7
  10
258.000000
  20
403.000000
  0
VERTEX
  8
C7
  10
264.000000
  20
403.000000
  0
VERTEX
  8
C7
  10
258.000000
  20
404.000000
  0
SEQEND
  8
C7
  0
POLYLINE
  8
C7
  66
1
  10
268.000000
  20
404.000000
  0
VERTEX
  8
C7
  10
268.000000
  20
404.000000
  0
VERTEX
  8
C7
  10
268.000000
  20
403.000000
  0
VERTEX
  8
C7
  10
273.000000
  20
403.000000
  0
VERTEX
  8
C7
  10
268.000000
  20
404.000000
  0
SEQEND
  8
C7
  0
POLYLINE
  8
C7
  66
1
  10
277.000000
  20
404.000000
  0
VERTEX
  8
C7
  10
277.000000
  20
404.000000
  0
VERTEX
  8
C7
  10
277.000000
  20
403.000000
  0
VERTEX
  8
C7
  10
283.000000
  20
403.000000
  0
VERTEX
  8
C7
  10
277.000000
  20
404.000000
  0
SEQEND
  8
C7
  0
POLYLINE
  8
C7
  66
1
  10
287.000000
  20
404.000000
  0
VERTEX
  8
C7
  10
287.000000
  20
404.000000
  0
VERTEX
  8
C7
  10
287.000000
  20
403.000000
  0
VERTEX
  8
C7
  10
293.000000
  20
403.000000
  0
VERTEX
  8
C7
  10
287.000000
  20
404.000000
  0
SEQEND
  8
C7
  0
POLYLINE
  8
C7
  66
1
  10
296.000000
  20
404.000000
  0
VERTEX
  8
C7
  10
296.000000
  20
404.000000
  0
VERTEX
  8
C7
  10
296.000000
  20
403.000000
  0
VERTEX
  8
C7
  10
302.000000
  20
403.000000
  0
VERTEX
  8
C7
  10
296.000000
  20
404.000000
  0
SEQEND
  8
C7
  0
POLYLINE
  8
C7
  66
1
  10
306.000000
  20
404.000000
  0
VERTEX
  8
C7
  10
306.000000
  20
404.000000
  0
VERTEX
  8
C7
  10
306.000000
  20
403.000000
  0
VERTEX
  8
C7
  10
312.000000
  20
403.000000
  0
VERTEX
  8
C7
  10
306.000000
  20
404.000000
  0
SEQEND
  8
C7
  0
POLYLINE
  8
C7
  66
1
  10
315.000000
  20
404.000000
  0
VERTEX
  8
C7
  10
315.000000
  20
404.000000
  0
VERTEX
  8
C7
  10
315.000000
  20
403.000000
  0
VERTEX
  8
C7
  10
321.000000
  20
403.000000
  0
VERTEX
  8
C7
  10
315.000000
  20
404.000000
  0
SEQEND
  8
C7
  0
POLYLINE
  8
C7
  66
1
  10
325.000000
  20
404.000000
  0
VERTEX
  8
C7
  10
325.000000
  20
404.000000
  0
VERTEX
  8
C7
  10
325.000000
  20
403.000000
  0
VERTEX
  8
C7
  10
331.000000
  20
403.000000
  0
VERTEX
  8
C7
  10
325.000000
  20
404.000000
  0
SEQEND
  8
C7
  0
POLYLINE
  8
C7
  66
1
  10
335.000000
  20
404.000000
  0
VERTEX
  8
C7
  10
335.000000
  20
404.000000
  0
VERTEX
  8
C7
  10
335.000000
  20
403.000000
  0
VERTEX
  8
C7
  10
340.000000
  20
403.000000
  0
VERTEX
  8
C7
  10
335.000000
  20
404.000000
  0
SEQEND
  8
C7
  0
POLYLINE
  8
C7
  66
1
  10
344.000000
  20
404.000000
  0
VERTEX
  8
C7
  10
344.000000
  20
404.000000
  0
VERTEX
  8
C7
  10
344.000000
  20
403.000000
  0
VERTEX
  8
C7
  10
349.000000
  20
403.000000
  0
VERTEX
  8
C7
  10
344.000000
  20
404.000000
  0
SEQEND
  8
C7
  0
POLYLINE
  8
C7
  66
1
  10
354.000000
  20
404.000000
  0
VERTEX
  8
C7
  10
354.000000
  20
404.000000
  0
VERTEX
  8
C7
  10
354.000000
  20
403.000000
  0
VERTEX
  8
C7
  10
360.000000
  20
403.000000
  0
VERTEX
  8
C7
  10
354.000000
  20
404.000000
  0
SEQEND
  8
C7
  0
POLYLINE
  8
C7
  66
1
  10
427.000000
  20
404.000000
  0
VERTEX
  8
C7
  10
427.000000
  20
404.000000
  0
VERTEX
  8
C7
  10
427.000000
  20
403.000000
  0
VERTEX
  8
C7
  10
433.000000
  20
403.000000
  0
VERTEX
  8
C7
  10
427.000000
  20
404.000000
  0
SEQEND
  8
C7
  0
POLYLINE
  8
C7
  66
1
  10
437.000000
  20
404.000000
  0
VERTEX
  8
C7
  10
437.000000
  20
404.000000
  0
VERTEX
  8
C7
  10
437.000000
  20
403.000000
  0
VERTEX
  8
C7
  10
443.000000
  20
403.000000
  0
VERTEX
  8
C7
  10
437.000000
  20
404.000000
  0
SEQEND
  8
C7
  0
POLYLINE
  8
C7
  66
1
  10
446.000000
  20
404.000000
  0
VERTEX
  8
C7
  10
446.000000
  20
404.000000
  0
VERTEX
  8
C7
  10
446.000000
  20
403.000000
  0
VERTEX
  8
C7
  10
452.000000
  20
403.000000
  0
VERTEX
  8
C7
  10
446.000000
  20
404.000000
  0
SEQEND
  8
C7
  0
POLYLINE
  8
C7
  66
1
  10
456.000000
  20
404.000000
  0
VERTEX
  8
C7
  10
456.000000
  20
404.000000
  0
VERTEX
  8
C7
  10
456.000000
  20
403.000000
  0
VERTEX
  8
C7
  10
462.000000
  20
403.000000
  0
VERTEX
  8
C7
  10
456.000000
  20
404.000000
  0
SEQEND
  8
C7
  0
POLYLINE
  8
C7
  66
1
  10
466.000000
  20
404.000000
  0
VERTEX
  8
C7
  10
466.000000
  20
404.000000
  0
VERTEX
  8
C7
  10
466.000000
  20
403.000000
  0
VERTEX
  8
C7
  10
471.000000
  20
403.000000
  0
VERTEX
  8
C7
  10
466.000000
  20
404.000000
  0
SEQEND
  8
C7
  0
POLYLINE
  8
C7
  66
1
  10
475.000000
  20
404.000000
  0
VERTEX
  8
C7
  10
475.000000
  20
404.000000
  0
VERTEX
  8
C7
  10
475.000000
  20
403.000000
  0
VERTEX
  8
C7
  10
481.000000
  20
403.000000
  0
VERTEX
  8
C7
  10
475.000000
  20
404.000000
  0
SEQEND
  8
C7
  0
POLYLINE
  8
C7
  66
1
  10
485.000000
  20
404.000000
  0
VERTEX
  8
C7
  10
485.000000
  20
404.000000
  0
VERTEX
  8
C7
  10
485.000000
  20
403.000000
  0
VERTEX
  8
C7
  10
491.000000
  20
403.000000
  0
VERTEX
  8
C7
  10
485.000000
  20
404.000000
  0
SEQEND
  8
C7
  0
POLYLINE
  8
C7
  66
1
  10
494.000000
  20
404.000000
  0
VERTEX
  8
C7
  10
494.000000
  20
404.000000
  0
VERTEX
  8
C7
  10
494.000000
  20
403.000000
  0
VERTEX
  8
C7
  10
500.000000
  20
403.000000
  0
VERTEX
  8
C7
  10
494.000000
  20
404.000000
  0
SEQEND
  8
C7
  0
POLYLINE
  8
C7
  66
1
  10
504.000000
  20
404.000000
  0
VERTEX
  8
C7
  10
504.000000
  20
404.000000
  0
VERTEX
  8
C7
  10
504.000000
  20
403.000000
  0
VERTEX
  8
C7
  10
510.000000
  20
403.000000
  0
VERTEX
  8
C7
  10
504.000000
  20
404.000000
  0
SEQEND
  8
C7
  0
POLYLINE
  8
C7
  66
1
  10
514.000000
  20
404.000000
  0
VERTEX
  8
C7
  10
514.000000
  20
404.000000
  0
VERTEX
  8
C7
  10
514.000000
  20
403.000000
  0
VERTEX
  8
C7
  10
519.000000
  20
403.000000
  0
VERTEX
  8
C7
  10
514.000000
  20
404.000000
  0
SEQEND
  8
C7
  0
POLYLINE
  8
C7
  66
1
  10
523.000000
  20
404.000000
  0
VERTEX
  8
C7
  10
523.000000
  20
404.000000
  0
VERTEX
  8
C7
  10
523.000000
  20
403.000000
  0
VERTEX
  8
C7
  10
529.000000
  20
403.000000
  0
VERTEX
  8
C7
  10
523.000000
  20
404.000000
  0
SEQEND
  8
C7
  0
POLYLINE
  8
C7
  66
1
  10
533.000000
  20
404.000000
  0
VERTEX
  8
C7
  10
533.000000
  20
404.000000
  0
VERTEX
  8
C7
  10
533.000000
  20
403.000000
  0
VERTEX
  8
C7
  10
537.000000
  20
403.000000
  0
VERTEX
  8
C7
  10
537.000000
  20
397.000000
  0
VERTEX
  8
C7
  10
536.153100
  20
397.251600
  0
VERTEX
  8
C7
  10
535.319400
  20
397.375600
  0
VERTEX
  8
C7
  10
534.507600
  20
397.380200
  0
VERTEX
  8
C7
  10
533.726700
  20
397.273500
  0
VERTEX
  8
C7
  10
532.985700
  20
397.064000
  0
VERTEX
  8
C7
  10
532.293400
  20
396.759800
  0
VERTEX
  8
C7
  10
531.658800
  20
396.369300
  0
VERTEX
  8
C7
  10
531.090800
  20
395.900800
  0
VERTEX
  8
C7
  10
530.598400
  20
395.362400
  0
VERTEX
  8
C7
  10
530.190400
  20
394.762500
  0
VERTEX
  8
C7
  10
529.875800
  20
394.109300
  0
VERTEX
  8
C7
  10
529.663600
  20
393.411200
  0
VERTEX
  8
C7
  10
529.562500
  20
392.676400
  0
VERTEX
  8
C7
  10
529.581700
  20
391.913200
  0
VERTEX
  8
C7
  10
529.729900
  20
391.129800
  0
VERTEX
  8
C7
  10
530.016200
  20
390.334500
  0
VERTEX
  8
C7
  10
530.449400
  20
389.535600
  0
VERTEX
  8
C7
  10
531.038500
  20
388.741500
  0
VERTEX
  8
C7
  10
531.663600
  20
388.178400
  0
VERTEX
  8
C7
  10
532.425900
  20
387.762600
  0
VERTEX
  8
C7
  10
533.296500
  20
387.471100
  0
VERTEX
  8
C7
  10
534.246500
  20
387.281200
  0
VERTEX
  8
C7
  10
535.247200
  20
387.170200
  0
VERTEX
  8
C7
  10
536.269600
  20
387.115200
  0
VERTEX
  8
C7
  10
537.284900
  20
387.093500
  0
VERTEX
  8
C7
  10
538.264300
  20
387.082200
  0
VERTEX
  8
C7
  10
539.178900
  20
387.058600
  0
VERTEX
  8
C7
  10
540.000000
  20
387.000000
  0
VERTEX
  8
C7
  10
541.000000
  20
394.000000
  0
VERTEX
  8
C7
  10
542.000000
  20
394.000000
  0
VERTEX
  8
C7
  10
542.000000
  20
387.000000
  0
VERTEX
  8
C7
  10
544.000000
  20
387.000000
  0
VERTEX
  8
C7
  10
545.000000
  20
394.000000
  0
VERTEX
  8
C7
  10
546.000000
  20
394.000000
  0
VERTEX
  8
C7
  10
546.000000
  20
387.000000
  0
VERTEX
  8
C7
  10
552.000000
  20
387.000000
  0
VERTEX
  8
C7
  10
552.000000
  20
393.000000
  0
VERTEX
  8
C7
  10
554.000000
  20
393.000000
  0
VERTEX
  8
C7
  10
554.000000
  20
387.000000
  0
VERTEX
  8
C7
  10
556.000000
  20
387.000000
  0
VERTEX
  8
C7
  10
557.000000
  20
394.000000
  0
VERTEX
  8
C7
  10
558.000000
  20
394.000000
  0
VERTEX
  8
C7
  10
558.000000
  20
387.000000
  0
VERTEX
  8
C7
  10
560.000000
  20
387.000000
  0
VERTEX
  8
C7
  10
559.971300
  20
387.747300
  0
VERTEX
  8
C7
  10
559.891900
  20
388.507800
  0
VERTEX
  8
C7
  10
559.763500
  20
389.274300
  0
VERTEX
  8
C7
  10
559.587900
  20
390.039600
  0
VERTEX
  8
C7
  10
559.367000
  20
390.796500
  0
VERTEX
  8
C7
  10
559.102700
  20
391.537700
  0
VERTEX
  8
C7
  10
558.796700
  20
392.256200
  0
VERTEX
  8
C7
  10
558.450900
  20
392.944600
  0
VERTEX
  8
C7
  10
558.067100
  20
393.595700
  0
VERTEX
  8
C7
  10
557.647200
  20
394.202500
  0
VERTEX
  8
C7
  10
557.192900
  20
394.757600
  0
VERTEX
  8
C7
  10
556.706200
  20
395.253900
  0
VERTEX
  8
C7
  10
556.188900
  20
395.684200
  0
VERTEX
  8
C7
  10
555.642700
  20
396.041200
  0
VERTEX
  8
C7
  10
555.069600
  20
396.317800
  0
VERTEX
  8
C7
  10
554.471300
  20
396.506800
  0
VERTEX
  8
C7
  10
553.849700
  20
396.601000
  0
VERTEX
  8
C7
  10
553.206600
  20
396.593100
  0
VERTEX
  8
C7
  10
552.543900
  20
396.476000
  0
VERTEX
  8
C7
  10
551.863400
  20
396.242400
  0
VERTEX
  8
C7
  10
551.166900
  20
395.885300
  0
VERTEX
  8
C7
  10
550.456300
  20
395.397300
  0
VERTEX
  8
C7
  10
549.733400
  20
394.771200
  0
VERTEX
  8
C7
  10
549.000000
  20
394.000000
  0
VERTEX
  8
C7
  10
548.000000
  20
394.000000
  0
VERTEX
  8
C7
  10
547.271100
  20
394.707100
  0
VERTEX
  8
C7
  10
546.484900
  20
395.249400
  0
VERTEX
  8
C7
  10
545.650800
  20
395.638100
  0
VERTEX
  8
C7
  10
544.778200
  20
395.884400
  0
VERTEX
  8
C7
  10
543.876500
  20
395.999800
  0
VERTEX
  8
C7
  10
542.955000
  20
395.995300
  0
VERTEX
  8
C7
  10
542.023200
  20
395.882300
  0
VERTEX
  8
C7
  10
541.090500
  20
395.672100
  0
VERTEX
  8
C7
  10
540.166200
  20
395.375900
  0
VERTEX
  8
C7
  10
539.259700
  20
395.005100
  0
VERTEX
  8
C7
  10
538.380500
  20
394.570700
  0
VERTEX
  8
C7
  10
537.537800
  20
394.084300
  0
VERTEX
  8
C7
  10
536.741200
  20
393.556900
  0
VERTEX
  8
C7
  10
536.000000
  20
393.000000
  0
VERTEX
  8
C7
  10
538.000000
  20
404.000000
  0
VERTEX
  8
C7
  10
533.000000
  20
404.000000
  0
SEQEND
  8
C7
  0
POLYLINE
  8
C7
  66
1
  10
511.000000
  20
387.000000
  0
VERTEX
  8
C7
  10
511.000000
  20
387.000000
  0
VERTEX
  8
C7
  10
512.187400
  20
387.092500
  0
VERTEX
  8
C7
  10
513.292800
  20
387.200500
  0
VERTEX
  8
C7
  10
514.317700
  20
387.331900
  0
VERTEX
  8
C7
  10
515.263400
  20
387.494300
  0
VERTEX
  8
C7
  10
516.131300
  20
387.695800
  0
VERTEX
  8
C7
  10
516.922900
  20
387.944000
  0
VERTEX
  8
C7
  10
517.639700
  20
388.246800
  0
VERTEX
  8
C7
  10
518.282900
  20
388.612100
  0
VERTEX
  8
C7
  10
518.854100
  20
389.047600
  0
VERTEX
  8
C7
  10
519.354700
  20
389.561200
  0
VERTEX
  8
C7
  10
519.786000
  20
390.160700
  0
VERTEX
  8
C7
  10
520.149500
  20
390.853900
  0
VERTEX
  8
C7
  10
520.446700
  20
391.648700
  0
VERTEX
  8
C7
  10
520.678900
  20
392.552900
  0
VERTEX
  8
C7
  10
520.847600
  20
393.574300
  0
VERTEX
  8
C7
  10
520.954100
  20
394.720700
  0
VERTEX
  8
C7
  10
521.000000
  20
396.000000
  0
VERTEX
  8
C7
  10
527.000000
  20
396.000000
  0
VERTEX
  8
C7
  10
527.000000
  20
395.000000
  0
VERTEX
  8
C7
  10
524.000000
  20
392.000000
  0
VERTEX
  8
C7
  10
526.000000
  20
389.000000
  0
VERTEX
  8
C7
  10
522.000000
  20
391.000000
  0
VERTEX
  8
C7
  10
522.354300
  20
390.132900
  0
VERTEX
  8
C7
  10
522.747000
  20
389.415100
  0
VERTEX
  8
C7
  10
523.171400
  20
388.839300
  0
VERTEX
  8
C7
  10
523.621100
  20
388.398300
  0
VERTEX
  8
C7
  10
524.089600
  20
388.084700
  0
VERTEX
  8
C7
  10
524.570400
  20
387.891300
  0
VERTEX
  8
C7
  10
525.056900
  20
387.810800
  0
VERTEX
  8
C7
  10
525.542600
  20
387.835800
  0
VERTEX
  8
C7
  10
526.021100
  20
387.959100
  0
VERTEX
  8
C7
  10
526.485900
  20
388.173500
  0
VERTEX
  8
C7
  10
526.930400
  20
388.471500
  0
VERTEX
  8
C7
  10
527.348100
  20
388.846000
  0
VERTEX
  8
C7
  10
527.732500
  20
389.289600
  0
VERTEX
  8
C7
  10
528.077200
  20
389.795100
  0
VERTEX
  8
C7
  10
528.375600
  20
390.355200
  0
VERTEX
  8
C7
  10
528.621300
  20
390.962600
  0
VERTEX
  8
C7
  10
528.807600
  20
391.609900
  0
VERTEX
  8
C7
  10
528.928100
  20
392.290000
  0
VERTEX
  8
C7
  10
528.976400
  20
392.995400
  0
VERTEX
  8
C7
  10
528.945800
  20
393.719100
  0
VERTEX
  8
C7
  10
528.829900
  20
394.453500
  0
VERTEX
  8
C7
  10
528.622200
  20
395.191600
  0
VERTEX
  8
C7
  10
528.316300
  20
395.925900
  0
VERTEX
  8
C7
  10
527.941500
  20
396.492800
  0
VERTEX
  8
C7
  10
527.424300
  20
396.977400
  0
VERTEX
  8
C7
  10
526.781000
  20
397.382800
  0
VERTEX
  8
C7
  10
526.027800
  20
397.712200
  0
VERTEX
  8
C7
  10
525.181000
  20
397.968800
  0
VERTEX
  8
C7
  10
524.256900
  20
398.155700
  0
VERTEX
  8
C7
  10
523.271700
  20
398.276100
  0
VERTEX
  8
C7
  10
522.241700
  20
398.333000
  0
VERTEX
  8
C7
  10
521.183200
  20
398.329800
  0
VERTEX
  8
C7
  10
520.112400
  20
398.269500
  0
VERTEX
  8
C7
  10
519.045500
  20
398.155300
  0
VERTEX
  8
C7
  10
517.999000
  20
397.990300
  0
VERTEX
  8
C7
  10
516.988900
  20
397.777800
  0
VERTEX
  8
C7
  10
516.031700
  20
397.520800
  0
VERTEX
  8
C7
  10
515.143400
  20
397.222500
  0
VERTEX
  8
C7
  10
514.340600
  20
396.886100
  0
VERTEX
  8
C7
  10
513.639300
  20
396.514700
  0
VERTEX
  8
C7
  10
513.055800
  20
396.111500
  0
VERTEX
  8
C7
  10
512.606500
  20
395.679700
  0
VERTEX
  8
C7
  10
512.041700
  20
394.864800
  0
VERTEX
  8
C7
  10
511.636800
  20
393.975000
  0
VERTEX
  8
C7
  10
511.364600
  20
393.026400
  0
VERTEX
  8
C7
  10
511.197900
  20
392.035000
  0
VERTEX
  8
C7
  10
511.109800
  20
391.017000
  0
VERTEX
  8
C7
  10
511.073000
  20
389.988400
  0
VERTEX
  8
C7
  10
511.060500
  20
388.965300
  0
VERTEX
  8
C7
  10
511.045200
  20
387.963800
  0
VERTEX
  8
C7
  10
511.000000
  20
387.000000
  0
SEQEND
  8
C7
  0
POLYLINE
  8
C7
  66
1
  10
406.000000
  20
398.000000
  0
VERTEX
  8
C7
  10
406.000000
  20
398.000000
  0
VERTEX
  8
C7
  10
406.000000
  20
387.000000
  0
VERTEX
  8
C7
  10
409.000000
  20
387.000000
  0
VERTEX
  8
C7
  10
409.000000
  20
392.000000
  0
VERTEX
  8
C7
  10
413.000000
  20
392.000000
  0
VERTEX
  8
C7
  10
413.000000
  20
394.000000
  0
VERTEX
  8
C7
  10
409.000000
  20
394.000000
  0
VERTEX
  8
C7
  10
409.000000
  20
396.000000
  0
VERTEX
  8
C7
  10
414.000000
  20
396.000000
  0
VERTEX
  8
C7
  10
414.000000
  20
398.000000
  0
VERTEX
  8
C7
  10
406.000000
  20
398.000000
  0
SEQEND
  8
C7
  0
POLYLINE
  8
C7
  66
1
  10
445.000000
  20
398.000000
  0
VERTEX
  8
C7
  10
445.000000
  20
398.000000
  0
VERTEX
  8
C7
  10
445.000000
  20
394.000000
  0
VERTEX
  8
C7
  10
438.000000
  20
394.000000
  0
VERTEX
  8
C7
  10
437.000000
  20
394.000000
  0
VERTEX
  8
C7
  10
431.000000
  20
394.000000
  0
VERTEX
  8
C7
  10
427.000000
  20
396.000000
  0
VERTEX
  8
C7
  10
427.000000
  20
390.000000
  0
VERTEX
  8
C7
  10
425.000000
  20
390.000000
  0
VERTEX
  8
C7
  10
425.000000
  20
396.000000
  0
VERTEX
  8
C7
  10
423.000000
  20
396.000000
  0
VERTEX
  8
C7
  10
423.016200
  20
395.114700
  0
VERTEX
  8
C7
  10
423.060600
  20
394.234000
  0
VERTEX
  8
C7
  10
423.136200
  20
393.367300
  0
VERTEX
  8
C7
  10
423.246000
  20
392.523800
  0
VERTEX
  8
C7
  10
423.392800
  20
391.712900
  0
VERTEX
  8
C7
  10
423.579600
  20
390.943900
  0
VERTEX
  8
C7
  10
423.809500
  20
390.226100
  0
VERTEX
  8
C7
  10
424.085300
  20
389.568800
  0
VERTEX
  8
C7
  10
424.410100
  20
388.981400
  0
VERTEX
  8
C7
  10
424.786700
  20
388.473200
  0
VERTEX
  8
C7
  10
425.218200
  20
388.053500
  0
VERTEX
  8
C7
  10
425.707500
  20
387.731600
  0
VERTEX
  8
C7
  10
426.257600
  20
387.516800
  0
VERTEX
  8
C7
  10
426.871400
  20
387.418500
  0
VERTEX
  8
C7
  10
427.551900
  20
387.445900
  0
VERTEX
  8
C7
  10
428.302000
  20
387.608500
  0
VERTEX
  8
C7
  10
429.124800
  20
387.915500
  0
VERTEX
  8
C7
  10
430.023100
  20
388.376200
  0
VERTEX
  8
C7
  10
431.000000
  20
389.000000
  0
VERTEX
  8
C7
  10
431.764400
  20
388.535500
  0
VERTEX
  8
C7
  10
432.589700
  20
388.152100
  0
VERTEX
  8
C7
  10
433.467800
  20
387.845800
  0
VERTEX
  8
C7
  10
434.390600
  20
387.612300
  0
VERTEX
  8
C7
  10
435.350000
  20
387.447700
  0
VERTEX
  8
C7
  10
436.337800
  20
387.347800
  0
VERTEX
  8
C7
  10
437.346000
  20
387.308400
  0
VERTEX
  8
C7
  10
438.366400
  20
387.325400
  0
VERTEX
  8
C7
  10
439.391000
  20
387.394800
  0
VERTEX
  8
C7
  10
440.411700
  20
387.512400
  0
VERTEX
  8
C7
  10
441.420400
  20
387.674100
  0
VERTEX
  8
C7
  10
442.409000
  20
387.875800
  0
VERTEX
  8
C7
  10
443.369300
  20
388.113300
  0
VERTEX
  8
C7
  10
444.293300
  20
388.382600
  0
VERTEX
  8
C7
  10
445.172900
  20
388.679500
  0
VERTEX
  8
C7
  10
446.000000
  20
389.000000
  0
VERTEX
  8
C7
  10
449.000000
  20
387.000000
  0
VERTEX
  8
C7
  10
448.000000
  20
398.000000
  0
VERTEX
  8
C7
  10
445.000000
  20
398.000000
  0
SEQEND
  8
C7
  0
POLYLINE
  8
C7
  66
1
  10
453.000000
  20
398.000000
  0
VERTEX
  8
C7
  10
453.000000
  20
398.000000
  0
VERTEX
  8
C7
  10
453.000000
  20
387.000000
  0
VERTEX
  8
C7
  10
456.000000
  20
387.000000
  0
VERTEX
  8
C7
  10
456.000000
  20
392.000000
  0
VERTEX
  8
C7
  10
460.000000
  20
392.000000
  0
VERTEX
  8
C7
  10
460.000000
  20
387.000000
  0
VERTEX
  8
C7
  10
462.000000
  20
387.000000
  0
VERTEX
  8
C7
  10
462.000000
  20
398.000000
  0
VERTEX
  8
C7
  10
460.000000
  20
398.000000
  0
VERTEX
  8
C7
  10
460.000000
  20
394.000000
  0
VERTEX
  8
C7
  10
456.000000
  20
394.000000
  0
VERTEX
  8
C7
  10
456.000000
  20
398.000000
  0
VERTEX
  8
C7
  10
453.000000
  20
398.000000
  0
SEQEND
  8
C7
  0
POLYLINE
  8
C7
  66
1
  10
471.000000
  20
398.000000
  0
VERTEX
  8
C7
  10
471.000000
  20
398.000000
  0
VERTEX
  8
C7
  10
471.000000
  20
393.000000
  0
VERTEX
  8
C7
  10
470.000000
  20
393.000000
  0
VERTEX
  8
C7
  10
469.584800
  20
393.602700
  0
VERTEX
  8
C7
  10
469.186200
  20
394.126200
  0
VERTEX
  8
C7
  10
468.804200
  20
394.573400
  0
VERTEX
  8
C7
  10
468.438800
  20
394.947700
  0
VERTEX
  8
C7
  10
468.090100
  20
395.252400
  0
VERTEX
  8
C7
  10
467.757900
  20
395.490600
  0
VERTEX
  8
C7
  10
467.442400
  20
395.665700
  0
VERTEX
  8
C7
  10
467.143400
  20
395.780800
  0
VERTEX
  8
C7
  10
466.861100
  20
395.839100
  0
VERTEX
  8
C7
  10
466.595400
  20
395.844000
  0
VERTEX
  8
C7
  10
466.346300
  20
395.798700
  0
VERTEX
  8
C7
  10
466.113800
  20
395.706400
  0
VERTEX
  8
C7
  10
465.897900
  20
395.570400
  0
VERTEX
  8
C7
  10
465.698600
  20
395.393800
  0
VERTEX
  8
C7
  10
465.515900
  20
395.180000
  0
VERTEX
  8
C7
  10
465.349800
  20
394.932100
  0
VERTEX
  8
C7
  10
465.200300
  20
394.653500
  0
VERTEX
  8
C7
  10
465.067500
  20
394.347300
  0
VERTEX
  8
C7
  10
464.951200
  20
394.016800
  0
VERTEX
  8
C7
  10
464.851600
  20
393.665200
  0
VERTEX
  8
C7
  10
464.768600
  20
393.295800
  0
VERTEX
  8
C7
  10
464.702100
  20
392.911900
  0
VERTEX
  8
C7
  10
464.652300
  20
392.516600
  0
VERTEX
  8
C7
  10
464.619100
  20
392.113200
  0
VERTEX
  8
C7
  10
464.602500
  20
391.704900
  0
VERTEX
  8
C7
  10
464.602500
  20
391.295000
  0
VERTEX
  8
C7
  10
464.619100
  20
390.886700
  0
VERTEX
  8
C7
  10
464.652300
  20
390.483300
  0
VERTEX
  8
C7
  10
464.702100
  20
390.088000
  0
VERTEX
  8
C7
  10
464.768600
  20
389.704100
  0
VERTEX
  8
C7
  10
464.851600
  20
389.334700
  0
VERTEX
  8
C7
  10
464.951200
  20
388.983100
  0
VERTEX
  8
C7
  10
465.067500
  20
388.652600
  0
VERTEX
  8
C7
  10
465.200400
  20
388.346400
  0
VERTEX
  8
C7
  10
465.349800
  20
388.067800
  0
VERTEX
  8
C7
  10
465.515900
  20
387.819900
  0
VERTEX
  8
C7
  10
465.698600
  20
387.606100
  0
VERTEX
  8
C7
  10
465.897900
  20
387.429500
  0
VERTEX
  8
C7
  10
466.113800
  20
387.293500
  0
VERTEX
  8
C7
  10
466.346300
  20
387.201200
  0
VERTEX
  8
C7
  10
466.595400
  20
387.155900
  0
VERTEX
  8
C7
  10
466.861100
  20
387.160800
  0
VERTEX
  8
C7
  10
467.143400
  20
387.219100
  0
VERTEX
  8
C7
  10
467.442400
  20
387.334200
  0
VERTEX
  8
C7
  10
467.757900
  20
387.509300
  0
VERTEX
  8
C7
  10
468.090100
  20
387.747500
  0
VERTEX
  8
C7
  10
468.438800
  20
388.052200
  0
VERTEX
  8
C7
  10
468.804200
  20
388.426500
  0
VERTEX
  8
C7
  10
469.186200
  20
388.873700
  0
VERTEX
  8
C7
  10
469.584800
  20
389.397200
  0
VERTEX
  8
C7
  10
470.000000
  20
390.000000
  0
VERTEX
  8
C7
  10
471.000000
  20
390.000000
  0
VERTEX
  8
C7
  10
473.000000
  20
387.000000
  0
VERTEX
  8
C7
  10
473.000000
  20
398.000000
  0
VERTEX
  8
C7
  10
471.000000
  20
398.000000
  0
SEQEND
  8
C7
  0
POLYLINE
  8
C7
  66
1
  10
486.000000
  20
398.000000
  0
VERTEX
  8
C7
  10
486.000000
  20
398.000000
  0
VERTEX
  8
C7
  10
486.000000
  20
387.000000
  0
VERTEX
  8
C7
  10
487.008100
  20
387.076800
  0
VERTEX
  8
C7
  10
487.953200
  20
387.208000
  0
VERTEX
  8
C7
  10
488.834900
  20
387.390000
  0
VERTEX
  8
C7
  10
489.653000
  20
387.619000
  0
VERTEX
  8
C7
  10
490.407400
  20
387.891300
  0
VERTEX
  8
C7
  10
491.097900
  20
388.203100
  0
VERTEX
  8
C7
  10
491.724300
  20
388.550800
  0
VERTEX
  8
C7
  10
492.286400
  20
388.930600
  0
VERTEX
  8
C7
  10
492.784000
  20
389.338800
  0
VERTEX
  8
C7
  10
493.216900
  20
389.771600
  0
VERTEX
  8
C7
  10
493.585000
  20
390.225400
  0
VERTEX
  8
C7
  10
493.888000
  20
390.696400
  0
VERTEX
  8
C7
  10
494.125900
  20
391.180900
  0
VERTEX
  8
C7
  10
494.298200
  20
391.675200
  0
VERTEX
  8
C7
  10
494.405000
  20
392.175500
  0
VERTEX
  8
C7
  10
494.446000
  20
392.678200
  0
VERTEX
  8
C7
  10
494.421000
  20
393.179500
  0
VERTEX
  8
C7
  10
494.329800
  20
393.675600
  0
VERTEX
  8
C7
  10
494.172300
  20
394.162900
  0
VERTEX
  8
C7
  10
493.948200
  20
394.637700
  0
VERTEX
  8
C7
  10
493.657400
  20
395.096200
  0
VERTEX
  8
C7
  10
493.299600
  20
395.534600
  0
VERTEX
  8
C7
  10
492.874800
  20
395.949400
  0
VERTEX
  8
C7
  10
492.382600
  20
396.336700
  0
VERTEX
  8
C7
  10
491.823000
  20
396.692800
  0
VERTEX
  8
C7
  10
491.195600
  20
397.014000
  0
VERTEX
  8
C7
  10
490.500400
  20
397.296600
  0
VERTEX
  8
C7
  10
489.737200
  20
397.536800
  0
VERTEX
  8
C7
  10
488.905700
  20
397.731000
  0
VERTEX
  8
C7
  10
488.005800
  20
397.875400
  0
VERTEX
  8
C7
  10
487.037300
  20
397.966300
  0
VERTEX
  8
C7
  10
486.000000
  20
398.000000
  0
SEQEND
  8
C7
  0
POLYLINE
  8
C7
  66
1
  10
496.000000
  20
398.000000
  0
VERTEX
  8
C7
  10
496.000000
  20
398.000000
  0
VERTEX
  8
C7
  10
496.000000
  20
387.000000
  0
VERTEX
  8
C7
  10
498.000000
  20
387.000000
  0
VERTEX
  8
C7
  10
498.000000
  20
398.000000
  0
VERTEX
  8
C7
  10
496.000000
  20
398.000000
  0
SEQEND
  8
C7
  0
POLYLINE
  8
C7
  66
1
  10
422.000000
  20
387.000000
  0
VERTEX
  8
C7
  10
422.000000
  20
387.000000
  0
VERTEX
  8
C7
  10
421.975000
  20
387.931500
  0
VERTEX
  8
C7
  10
421.918800
  20
388.790800
  0
VERTEX
  8
C7
  10
421.833600
  20
389.579700
  0
VERTEX
  8
C7
  10
421.721300
  20
390.300600
  0
VERTEX
  8
C7
  10
421.583900
  20
390.955600
  0
VERTEX
  8
C7
  10
421.423500
  20
391.546800
  0
VERTEX
  8
C7
  10
421.241900
  20
392.076300
  0
VERTEX
  8
C7
  10
421.041300
  20
392.546300
  0
VERTEX
  8
C7
  10
420.823600
  20
392.959000
  0
VERTEX
  8
C7
  10
420.590900
  20
393.316500
  0
VERTEX
  8
C7
  10
420.345200
  20
393.621000
  0
VERTEX
  8
C7
  10
420.088400
  20
393.874500
  0
VERTEX
  8
C7
  10
419.822600
  20
394.079200
  0
VERTEX
  8
C7
  10
419.549800
  20
394.237400
  0
VERTEX
  8
C7
  10
419.272000
  20
394.351100
  0
VERTEX
  8
C7
  10
418.991200
  20
394.422500
  0
VERTEX
  8
C7
  10
418.709400
  20
394.453700
  0
VERTEX
  8
C7
  10
418.428600
  20
394.446800
  0
VERTEX
  8
C7
  10
418.150900
  20
394.404100
  0
VERTEX
  8
C7
  10
417.878200
  20
394.327700
  0
VERTEX
  8
C7
  10
417.612500
  20
394.219700
  0
VERTEX
  8
C7
  10
417.355900
  20
394.082200
  0
VERTEX
  8
C7
  10
417.110400
  20
393.917500
  0
VERTEX
  8
C7
  10
416.877900
  20
393.727600
  0
VERTEX
  8
C7
  10
416.660500
  20
393.514800
  0
VERTEX
  8
C7
  10
416.460200
  20
393.281000
  0
VERTEX
  8
C7
  10
416.278900
  20
393.028600
  0
VERTEX
  8
C7
  10
416.118800
  20
392.759600
  0
VERTEX
  8
C7
  10
415.981800
  20
392.476200
  0
VERTEX
  8
C7
  10
415.869900
  20
392.180600
  0
VERTEX
  8
C7
  10
415.785200
  20
391.874900
  0
VERTEX
  8
C7
  10
415.729500
  20
391.561100
  0
VERTEX
  8
C7
  10
415.705100
  20
391.241600
  0
VERTEX
  8
C7
  10
415.713700
  20
390.918400
  0
VERTEX
  8
C7
  10
415.757600
  20
390.593700
  0
VERTEX
  8
C7
  10
415.838600
  20
390.269600
  0
VERTEX
  8
C7
  10
415.958800
  20
389.948200
  0
VERTEX
  8
C7
  10
416.120100
  20
389.631800
  0
VERTEX
  8
C7
  10
416.324700
  20
389.322500
  0
VERTEX
  8
C7
  10
416.574400
  20
389.022300
  0
VERTEX
  8
C7
  10
416.871400
  20
388.733500
  0
VERTEX
  8
C7
  10
417.217600
  20
388.458300
  0
VERTEX
  8
C7
  10
417.615000
  20
388.198600
  0
VERTEX
  8
C7
  10
418.065700
  20
387.956800
  0
VERTEX
  8
C7
  10
418.571500
  20
387.735000
  0
VERTEX
  8
C7
  10
419.134700
  20
387.535200
  0
VERTEX
  8
C7
  10
419.757100
  20
387.359600
  0
VERTEX
  8
C7
  10
420.440800
  20
387.210500
  0
VERTEX
  8
C7
  10
421.187700
  20
387.089900
  0
VERTEX
  8
C7
  10
422.000000
  20
387.000000
  0
SEQEND
  8
C7
  0
POLYLINE
  8
C7
  66
1
  10
476.303223
  20
394.913574
  0
VERTEX
  8
C7
  10
476.303223
  20
394.913574
  0
VERTEX
  8
C7
  10
475.661900
  20
394.443800
  0
VERTEX
  8
C7
  10
475.171000
  20
393.883700
  0
VERTEX
  8
C7
  10
474.822200
  20
393.253900
  0
VERTEX
  8
C7
  10
474.607200
  20
392.575400
  0
VERTEX
  8
C7
  10
474.518000
  20
391.869100
  0
VERTEX
  8
C7
  10
474.546300
  20
391.155800
  0
VERTEX
  8
C7
  10
474.683800
  20
390.456400
  0
VERTEX
  8
C7
  10
474.922500
  20
389.791900
  0
VERTEX
  8
C7
  10
475.254000
  20
389.183200
  0
VERTEX
  8
C7
  10
475.670200
  20
388.651000
  0
VERTEX
  8
C7
  10
476.162900
  20
388.216400
  0
VERTEX
  8
C7
  10
476.723900
  20
387.900200
  0
VERTEX
  8
C7
  10
477.345000
  20
387.723400
  0
VERTEX
  8
C7
  10
478.018000
  20
387.706700
  0
VERTEX
  8
C7
  10
478.734700
  20
387.871100
  0
VERTEX
  8
C7
  10
479.486900
  20
388.237600
  0
SEQEND
  8
C7
  0
POLYLINE
  8
C7
  66
1
  10
479.486800
  20
388.237600
  0
VERTEX
  8
C7
  10
479.486800
  20
388.237600
  0
VERTEX
  8
C7
  10
480.090600
  20
388.706300
  0
VERTEX
  8
C7
  10
480.554600
  20
389.262900
  0
VERTEX
  8
C7
  10
480.885700
  20
389.886900
  0
VERTEX
  8
C7
  10
481.091000
  20
390.558300
  0
VERTEX
  8
C7
  10
481.177600
  20
391.256500
  0
VERTEX
  8
C7
  10
481.152400
  20
391.961400
  0
VERTEX
  8
C7
  10
481.022600
  20
392.652700
  0
VERTEX
  8
C7
  10
480.795100
  20
393.310100
  0
VERTEX
  8
C7
  10
480.476900
  20
393.913300
  0
VERTEX
  8
C7
  10
480.075100
  20
394.441900
  0
VERTEX
  8
C7
  10
479.596800
  20
394.875800
  0
VERTEX
  8
C7
  10
479.049000
  20
395.194600
  0
VERTEX
  8
C7
  10
478.438700
  20
395.378100
  0
VERTEX
  8
C7
  10
477.772900
  20
395.405900
  0
VERTEX
  8
C7
  10
477.058700
  20
395.257800
  0
VERTEX
  8
C7
  10
476.303200
  20
394.913500
  0
SEQEND
  8
C7
  0
POLYLINE
  8
C7
  66
1
  10
488.000000
  20
396.000000
  0
VERTEX
  8
C7
  10
488.000000
  20
396.000000
  0
VERTEX
  8
C7
  10
488.000000
  20
390.000000
  0
VERTEX
  8
C7
  10
489.004000
  20
390.221600
  0
VERTEX
  8
C7
  10
489.864600
  20
390.519700
  0
VERTEX
  8
C7
  10
490.581800
  20
390.882500
  0
VERTEX
  8
C7
  10
491.155500
  20
391.298100
  0
VERTEX
  8
C7
  10
491.585800
  20
391.755000
  0
VERTEX
  8
C7
  10
491.872700
  20
392.241200
  0
VERTEX
  8
C7
  10
492.016200
  20
392.745000
  0
VERTEX
  8
C7
  10
492.016200
  20
393.254800
  0
VERTEX
  8
C7
  10
491.872700
  20
393.758600
  0
VERTEX
  8
C7
  10
491.585900
  20
394.244900
  0
VERTEX
  8
C7
  10
491.155600
  20
394.701700
  0
VERTEX
  8
C7
  10
490.581800
  20
395.117400
  0
VERTEX
  8
C7
  10
489.864600
  20
395.480100
  0
VERTEX
  8
C7
  10
489.004000
  20
395.778300
  0
VERTEX
  8
C7
  10
488.000000
  20
396.000000
  0
SEQEND
  8
C7
  0
POLYLINE
  8
C7
  66
1
  10
499.000000
  20
395.000000
  0
VERTEX
  8
C7
  10
499.000000
  20
395.000000
  0
VERTEX
  8
C7
  10
499.033600
  20
394.130900
  0
VERTEX
  8
C7
  10
499.016300
  20
393.138600
  0
VERTEX
  8
C7
  10
498.992600
  20
392.080400
  0
VERTEX
  8
C7
  10
499.006800
  20
391.013400
  0
VERTEX
  8
C7
  10
499.103400
  20
389.995100
  0
VERTEX
  8
C7
  10
499.327100
  20
389.082600
  0
VERTEX
  8
C7
  10
499.722200
  20
388.333300
  0
VERTEX
  8
C7
  10
500.286300
  20
387.753500
  0
VERTEX
  8
C7
  10
500.977000
  20
387.300300
  0
VERTEX
  8
C7
  10
501.769200
  20
386.968900
  0
VERTEX
  8
C7
  10
502.637700
  20
386.754600
  0
VERTEX
  8
C7
  10
503.557500
  20
386.652600
  0
VERTEX
  8
C7
  10
504.503400
  20
386.658000
  0
VERTEX
  8
C7
  10
505.450400
  20
386.766200
  0
VERTEX
  8
C7
  10
506.373300
  20
386.972400
  0
VERTEX
  8
C7
  10
507.247000
  20
387.271800
  0
VERTEX
  8
C7
  10
508.046500
  20
387.659600
  0
VERTEX
  8
C7
  10
508.746600
  20
388.131100
  0
VERTEX
  8
C7
  10
509.322300
  20
388.681500
  0
VERTEX
  8
C7
  10
509.748500
  20
389.306000
  0
VERTEX
  8
C7
  10
510.000000
  20
390.000000
  0
VERTEX
  8
C7
  10
507.000000
  20
388.000000
  0
VERTEX
  8
C7
  10
506.676500
  20
389.079100
  0
VERTEX
  8
C7
  10
506.381000
  20
390.089600
  0
VERTEX
  8
C7
  10
506.097000
  20
391.026400
  0
VERTEX
  8
C7
  10
505.808000
  20
391.884300
  0
VERTEX
  8
C7
  10
505.497300
  20
392.658200
  0
VERTEX
  8
C7
  10
505.148500
  20
393.343000
  0
VERTEX
  8
C7
  10
504.745000
  20
393.933600
  0
VERTEX
  8
C7
  10
504.270300
  20
394.424800
  0
VERTEX
  8
C7
  10
503.707800
  20
394.811600
  0
VERTEX
  8
C7
  10
503.041000
  20
395.088900
  0
VERTEX
  8
C7
  10
502.253400
  20
395.251500
  0
VERTEX
  8
C7
  10
501.328300
  20
395.294200
  0
VERTEX
  8
C7
  10
500.249400
  20
395.212100
  0
VERTEX
  8
C7
  10
499.000000
  20
395.000000
  0
SEQEND
  8
C7
  0
POLYLINE
  8
C7
  66
1
  10
513.000000
  20
391.000000
  0
VERTEX
  8
C7
  10
513.000000
  20
391.000000
  0
VERTEX
  8
C7
  10
518.000000
  20
396.000000
  0
VERTEX
  8
C7
  10
516.837900
  20
395.753800
  0
VERTEX
  8
C7
  10
515.885400
  20
395.442000
  0
VERTEX
  8
C7
  10
515.114400
  20
395.043100
  0
VERTEX
  8
C7
  10
514.496800
  20
394.536000
  0
VERTEX
  8
C7
  10
514.004600
  20
393.899400
  0
VERTEX
  8
C7
  10
513.609700
  20
393.112100
  0
VERTEX
  8
C7
  10
513.284200
  20
392.152700
  0
VERTEX
  8
C7
  10
513.000000
  20
391.000000
  0
SEQEND
  8
C7
  0
POLYLINE
  8
C7
  66
1
  10
533.333313
  20
395.333344
  0
VERTEX
  8
C7
  10
533.333313
  20
395.333344
  0
VERTEX
  8
C7
  10
533.666687
  20
394.666656
  0
VERTEX
  8
C7
  10
533.333313
  20
395.333344
  0
SEQEND
  8
C7
  0
POLYLINE
  8
C7
  66
1
  10
417.666656
  20
393.666656
  0
VERTEX
  8
C7
  10
417.666656
  20
393.666656
  0
VERTEX
  8
C7
  10
418.333344
  20
393.333344
  0
VERTEX
  8
C7
  10
417.666656
  20
393.666656
  0
SEQEND
  8
C7
  0
POLYLINE
  8
C7
  66
1
  10
433.000000
  20
394.000000
  0
VERTEX
  8
C7
  10
433.000000
  20
394.000000
  0
VERTEX
  8
C7
  10
433.000000
  20
389.000000
  0
VERTEX
  8
C7
  10
437.000000
  20
391.000000
  0
VERTEX
  8
C7
  10
437.000000
  20
392.000000
  0
VERTEX
  8
C7
  10
433.000000
  20
394.000000
  0
SEQEND
  8
C7
  0
POLYLINE
  8
C7
  66
1
  10
441.000000
  20
394.000000
  0
VERTEX
  8
C7
  10
441.000000
  20
394.000000
  0
VERTEX
  8
C7
  10
442.000000
  20
393.000000
  0
VERTEX
  8
C7
  10
441.000000
  20
394.000000
  0
SEQEND
  8
C7
  0
POLYLINE
  8
C7
  66
1
  10
466.000000
  20
394.000000
  0
VERTEX
  8
C7
  10
466.000000
  20
394.000000
  0
VERTEX
  8
C7
  10
466.000000
  20
389.000000
  0
VERTEX
  8
C7
  10
467.000000
  20
389.000000
  0
VERTEX
  8
C7
  10
466.000000
  20
394.000000
  0
SEQEND
  8
C7
  0
POLYLINE
  8
C7
  66
1
  10
477.000000
  20
394.000000
  0
VERTEX
  8
C7
  10
477.000000
  20
394.000000
  0
VERTEX
  8
C7
  10
478.000000
  20
393.000000
  0
VERTEX
  8
C7
  10
477.000000
  20
394.000000
  0
SEQEND
  8
C7
  0
POLYLINE
  8
C7
  66
1
  10
502.000000
  20
394.000000
  0
VERTEX
  8
C7
  10
502.000000
  20
394.000000
  0
VERTEX
  8
C7
  10
503.000000
  20
393.000000
  0
VERTEX
  8
C7
  10
502.000000
  20
394.000000
  0
SEQEND
  8
C7
  0
POLYLINE
  8
C7
  66
1
  10
249.000000
  20
393.000000
  0
VERTEX
  8
C7
  10
249.000000
  20
393.000000
  0
VERTEX
  8
C7
  10
249.000000
  20
388.000000
  0
VERTEX
  8
C7
  10
250.000000
  20
388.000000
  0
VERTEX
  8
C7
  10
249.000000
  20
393.000000
  0
SEQEND
  8
C7
  0
POLYLINE
  8
C7
  66
1
  10
515.000000
  20
389.000000
  0
VERTEX
  8
C7
  10
515.000000
  20
389.000000
  0
VERTEX
  8
C7
  10
520.000000
  20
393.000000
  0
VERTEX
  8
C7
  10
515.000000
  20
389.000000
  0
SEQEND
  8
C7
  0
POLYLINE
  8
C7
  66
1
  10
532.000000
  20
392.000000
  0
VERTEX
  8
C7
  10
532.000000
  20
392.000000
  0
VERTEX
  8
C7
  10
533.000000
  20
389.000000
  0
VERTEX
  8
C7
  10
534.000000
  20
389.000000
  0
VERTEX
  8
C7
  10
535.000000
  20
392.000000
  0
VERTEX
  8
C7
  10
532.000000
  20
392.000000
  0
SEQEND
  8
C7
  0
POLYLINE
  8
C7
  66
1
  10
418.000000
  20
391.000000
  0
VERTEX
  8
C7
  10
418.000000
  20
391.000000
  0
VERTEX
  8
C7
  10
417.000000
  20
389.000000
  0
VERTEX
  8
C7
  10
418.000000
  20
391.000000
  0
SEQEND
  8
C7
  0
POLYLINE
  8
C7
  66
1
  10
440.000000
  20
391.000000
  0
VERTEX
  8
C7
  10
440.000000
  20
391.000000
  0
VERTEX
  8
C7
  10
442.000000
  20
389.000000
  0
VERTEX
  8
C7
  10
442.000000
  20
391.000000
  0
VERTEX
  8
C7
  10
440.000000
  20
391.000000
  0
SEQEND
  8
C7
  0
POLYLINE
  8
C7
  66
1
  10
476.000000
  20
391.000000
  0
VERTEX
  8
C7
  10
476.000000
  20
391.000000
  0
VERTEX
  8
C7
  10
477.000000
  20
389.000000
  0
VERTEX
  8
C7
  10
478.000000
  20
389.000000
  0
VERTEX
  8
C7
  10
479.000000
  20
391.000000
  0
VERTEX
  8
C7
  10
476.000000
  20
391.000000
  0
SEQEND
  8
C7
  0
POLYLINE
  8
C7
  66
1
  10
502.000000
  20
391.000000
  0
VERTEX
  8
C7
  10
502.000000
  20
391.000000
  0
VERTEX
  8
C7
  10
502.000000
  20
389.000000
  0
VERTEX
  8
C7
  10
504.000000
  20
391.000000
  0
VERTEX
  8
C7
  10
502.000000
  20
391.000000
  0
SEQEND
  8
C7
  0
POLYLINE
  8
C7
  66
1
  10
249.000000
  20
384.000000
  0
VERTEX
  8
C7
  10
249.000000
  20
384.000000
  0
VERTEX
  8
C7
  10
249.000000
  20
378.000000
  0
VERTEX
  8
C7
  10
250.000000
  20
378.000000
  0
VERTEX
  8
C7
  10
249.000000
  20
384.000000
  0
SEQEND
  8
C7
  0
POLYLINE
  8
C7
  66
1
  10
537.000000
  20
384.000000
  0
VERTEX
  8
C7
  10
537.000000
  20
384.000000
  0
VERTEX
  8
C7
  10
537.000000
  20
378.000000
  0
VERTEX
  8
C7
  10
538.000000
  20
378.000000
  0
VERTEX
  8
C7
  10
537.000000
  20
384.000000
  0
SEQEND
  8
C7
  0
POLYLINE
  8
C7
  66
1
  10
249.000000
  20
374.000000
  0
VERTEX
  8
C7
  10
249.000000
  20
374.000000
  0
VERTEX
  8
C7
  10
249.000000
  20
368.000000
  0
VERTEX
  8
C7
  10
250.000000
  20
368.000000
  0
VERTEX
  8
C7
  10
249.000000
  20
374.000000
  0
SEQEND
  8
C7
  0
POLYLINE
  8
C7
  66
1
  10
537.000000
  20
374.000000
  0
VERTEX
  8
C7
  10
537.000000
  20
374.000000
  0
VERTEX
  8
C7
  10
537.000000
  20
368.000000
  0
VERTEX
  8
C7
  10
538.000000
  20
368.000000
  0
VERTEX
  8
C7
  10
537.000000
  20
374.000000
  0
SEQEND
  8
C7
  0
POLYLINE
  8
C7
  66
1
  10
320.000000
  20
370.000000
  0
VERTEX
  8
C7
  10
320.000000
  20
370.000000
  0
VERTEX
  8
C7
  10
320.000000
  20
355.000000
  0
VERTEX
  8
C7
  10
330.000000
  20
355.000000
  0
VERTEX
  8
C7
  10
330.000000
  20
357.000000
  0
VERTEX
  8
C7
  10
323.000000
  20
357.000000
  0
VERTEX
  8
C7
  10
323.000000
  20
370.000000
  0
VERTEX
  8
C7
  10
320.000000
  20
370.000000
  0
SEQEND
  8
C7
  0
POLYLINE
  8
C7
  66
1
  10
332.000000
  20
370.000000
  0
VERTEX
  8
C7
  10
332.000000
  20
370.000000
  0
VERTEX
  8
C7
  10
332.000000
  20
355.000000
  0
VERTEX
  8
C7
  10
332.876400
  20
354.981100
  0
VERTEX
  8
C7
  10
333.824400
  20
354.937500
  0
VERTEX
  8
C7
  10
334.822900
  20
354.888500
  0
VERTEX
  8
C7
  10
335.851000
  20
354.853500
  0
VERTEX
  8
C7
  10
336.887900
  20
354.852000
  0
VERTEX
  8
C7
  10
337.912600
  20
354.903500
  0
VERTEX
  8
C7
  10
338.904100
  20
355.027400
  0
VERTEX
  8
C7
  10
339.841600
  20
355.243000
  0
VERTEX
  8
C7
  10
340.704000
  20
355.570000
  0
VERTEX
  8
C7
  10
341.470600
  20
356.027700
  0
VERTEX
  8
C7
  10
342.273900
  20
356.676200
  0
VERTEX
  8
C7
  10
342.948900
  20
357.326900
  0
VERTEX
  8
C7
  10
343.501200
  20
357.978200
  0
VERTEX
  8
C7
  10
343.936300
  20
358.628400
  0
VERTEX
  8
C7
  10
344.260000
  20
359.276000
  0
VERTEX
  8
C7
  10
344.477900
  20
359.919400
  0
VERTEX
  8
C7
  10
344.595500
  20
360.557100
  0
VERTEX
  8
C7
  10
344.618500
  20
361.187300
  0
VERTEX
  8
C7
  10
344.552600
  20
361.808600
  0
VERTEX
  8
C7
  10
344.403400
  20
362.419400
  0
VERTEX
  8
C7
  10
344.176500
  20
363.018000
  0
VERTEX
  8
C7
  10
343.877600
  20
363.602900
  0
VERTEX
  8
C7
  10
343.512200
  20
364.172500
  0
VERTEX
  8
C7
  10
343.086100
  20
364.725200
  0
VERTEX
  8
C7
  10
342.604800
  20
365.259400
  0
VERTEX
  8
C7
  10
342.074000
  20
365.773500
  0
VERTEX
  8
C7
  10
341.499300
  20
366.266000
  0
VERTEX
  8
C7
  10
340.886400
  20
366.735300
  0
VERTEX
  8
C7
  10
340.240800
  20
367.179800
  0
VERTEX
  8
C7
  10
339.568300
  20
367.597800
  0
VERTEX
  8
C7
  10
338.874400
  20
367.987900
  0
VERTEX
  8
C7
  10
338.164700
  20
368.348400
  0
VERTEX
  8
C7
  10
337.445000
  20
368.677700
  0
VERTEX
  8
C7
  10
336.720800
  20
368.974200
  0
VERTEX
  8
C7
  10
335.997800
  20
369.236500
  0
VERTEX
  8
C7
  10
335.281700
  20
369.462800
  0
VERTEX
  8
C7
  10
334.577900
  20
369.651600
  0
VERTEX
  8
C7
  10
333.892200
  20
369.801300
  0
VERTEX
  8
C7
  10
333.230300
  20
369.910300
  0
VERTEX
  8
C7
  10
332.597600
  20
369.977000
  0
VERTEX
  8
C7
  10
332.000000
  20
370.000000
  0
SEQEND
  8
C7
  0
POLYLINE
  8
C7
  66
1
  10
344.000000
  20
370.000000
  0
VERTEX
  8
C7
  10
344.000000
  20
370.000000
  0
VERTEX
  8
C7
  10
344.000000
  20
367.000000
  0
VERTEX
  8
C7
  10
349.000000
  20
367.000000
  0
VERTEX
  8
C7
  10
349.000000
  20
355.000000
  0
VERTEX
  8
C7
  10
352.000000
  20
355.000000
  0
VERTEX
  8
C7
  10
352.000000
  20
367.000000
  0
VERTEX
  8
C7
  10
356.000000
  20
367.000000
  0
VERTEX
  8
C7
  10
356.000000
  20
370.000000
  0
VERTEX
  8
C7
  10
344.000000
  20
370.000000
  0
SEQEND
  8
C7
  0
POLYLINE
  8
C7
  66
1
  10
357.000000
  20
365.000000
  0
VERTEX
  8
C7
  10
357.000000
  20
365.000000
  0
VERTEX
  8
C7
  10
364.000000
  20
367.000000
  0
VERTEX
  8
C7
  10
356.000000
  20
355.000000
  0
VERTEX
  8
C7
  10
367.000000
  20
355.000000
  0
VERTEX
  8
C7
  10
367.000000
  20
357.000000
  0
VERTEX
  8
C7
  10
361.000000
  20
357.000000
  0
VERTEX
  8
C7
  10
361.645000
  20
357.650600
  0
VERTEX
  8
C7
  10
362.335500
  20
358.333000
  0
VERTEX
  8
C7
  10
363.046900
  20
359.047500
  0
VERTEX
  8
C7
  10
363.754400
  20
359.794200
  0
VERTEX
  8
C7
  10
364.433600
  20
360.573400
  0
VERTEX
  8
C7
  10
365.059700
  20
361.385300
  0
VERTEX
  8
C7
  10
365.608300
  20
362.230000
  0
VERTEX
  8
C7
  10
366.054500
  20
363.107700
  0
VERTEX
  8
C7
  10
366.374000
  20
364.018700
  0
VERTEX
  8
C7
  10
366.542000
  20
364.963200
  0
VERTEX
  8
C7
  10
366.533900
  20
365.941300
  0
VERTEX
  8
C7
  10
366.370300
  20
366.896300
  0
VERTEX
  8
C7
  10
366.104200
  20
367.696800
  0
VERTEX
  8
C7
  10
365.747100
  20
368.350300
  0
VERTEX
  8
C7
  10
365.310400
  20
368.864400
  0
VERTEX
  8
C7
  10
364.805600
  20
369.246700
  0
VERTEX
  8
C7
  10
364.244100
  20
369.504800
  0
VERTEX
  8
C7
  10
363.637400
  20
369.646100
  0
VERTEX
  8
C7
  10
362.997000
  20
369.678400
  0
VERTEX
  8
C7
  10
362.334200
  20
369.609200
  0
VERTEX
  8
C7
  10
361.660600
  20
369.446000
  0
VERTEX
  8
C7
  10
360.987600
  20
369.196500
  0
VERTEX
  8
C7
  10
360.326700
  20
368.868200
  0
VERTEX
  8
C7
  10
359.689300
  20
368.468600
  0
VERTEX
  8
C7
  10
359.086800
  20
368.005400
  0
VERTEX
  8
C7
  10
358.530800
  20
367.486200
  0
VERTEX
  8
C7
  10
358.032600
  20
366.918400
  0
VERTEX
  8
C7
  10
357.603800
  20
366.309700
  0
VERTEX
  8
C7
  10
357.255800
  20
365.667700
  0
VERTEX
  8
C7
  10
357.000000
  20
365.000000
  0
SEQEND
  8
C7
  0
POLYLINE
  8
C7
  66
1
  10
367.000000
  20
358.000000
  0
VERTEX
  8
C7
  10
367.000000
  20
358.000000
  0
VERTEX
  8
C7
  10
375.000000
  20
355.000000
  0
VERTEX
  8
C7
  10
376.000000
  20
370.000000
  0
VERTEX
  8
C7
  10
375.107800
  20
369.529600
  0
VERTEX
  8
C7
  10
374.261900
  20
369.014300
  0
VERTEX
  8
C7
  10
373.461800
  20
368.455800
  0
VERTEX
  8
C7
  10
372.707000
  20
367.855700
  0
VERTEX
  8
C7
  10
371.997100
  20
367.215600
  0
VERTEX
  8
C7
  10
371.331400
  20
366.537100
  0
VERTEX
  8
C7
  10
370.709500
  20
365.821900
  0
VERTEX
  8
C7
  10
370.130900
  20
365.071500
  0
VERTEX
  8
C7
  10
369.595100
  20
364.287700
  0
VERTEX
  8
C7
  10
369.101600
  20
363.472000
  0
VERTEX
  8
C7
  10
368.649800
  20
362.626000
  0
VERTEX
  8
C7
  10
368.239300
  20
361.751500
  0
VERTEX
  8
C7
  10
367.869600
  20
360.850000
  0
VERTEX
  8
C7
  10
367.540100
  20
359.923200
  0
VERTEX
  8
C7
  10
367.250400
  20
358.972600
  0
VERTEX
  8
C7
  10
367.000000
  20
358.000000
  0
SEQEND
  8
C7
  0
POLYLINE
  8
C7
  66
1
  10
380.000000
  20
364.000000
  0
VERTEX
  8
C7
  10
380.000000
  20
364.000000
  0
VERTEX
  8
C7
  10
384.000000
  20
365.000000
  0
VERTEX
  8
C7
  10
384.000000
  20
355.000000
  0
VERTEX
  8
C7
  10
387.000000
  20
355.000000
  0
VERTEX
  8
C7
  10
387.000000
  20
370.000000
  0
VERTEX
  8
C7
  10
380.000000
  20
364.000000
  0
SEQEND
  8
C7
  0
POLYLINE
  8
C7
  66
1
  10
393.317139
  20
368.952942
  0
VERTEX
  8
C7
  10
393.317139
  20
368.952942
  0
VERTEX
  8
C7
  10
392.809200
  20
368.585700
  0
VERTEX
  8
C7
  10
392.350300
  20
368.143000
  0
VERTEX
  8
C7
  10
391.940100
  20
367.632100
  0
VERTEX
  8
C7
  10
391.578400
  20
367.060800
  0
VERTEX
  8
C7
  10
391.265000
  20
366.436400
  0
VERTEX
  8
C7
  10
390.999800
  20
365.766700
  0
VERTEX
  8
C7
  10
390.782500
  20
365.059100
  0
VERTEX
  8
C7
  10
390.613000
  20
364.321300
  0
VERTEX
  8
C7
  10
390.491200
  20
363.560700
  0
VERTEX
  8
C7
  10
390.416700
  20
362.784900
  0
VERTEX
  8
C7
  10
390.389500
  20
362.001600
  0
VERTEX
  8
C7
  10
390.409400
  20
361.218200
  0
VERTEX
  8
C7
  10
390.476100
  20
360.442400
  0
VERTEX
  8
C7
  10
390.589600
  20
359.681700
  0
VERTEX
  8
C7
  10
390.749500
  20
358.943600
  0
VERTEX
  8
C7
  10
390.955800
  20
358.235700
  0
VERTEX
  8
C7
  10
391.208200
  20
357.565600
  0
VERTEX
  8
C7
  10
391.506600
  20
356.940800
  0
VERTEX
  8
C7
  10
391.850800
  20
356.368900
  0
VERTEX
  8
C7
  10
392.240600
  20
355.857500
  0
VERTEX
  8
C7
  10
392.675800
  20
355.414100
  0
VERTEX
  8
C7
  10
393.156200
  20
355.046300
  0
VERTEX
  8
C7
  10
393.681700
  20
354.761600
  0
VERTEX
  8
C7
  10
394.252100
  20
354.567600
  0
VERTEX
  8
C7
  10
394.867200
  20
354.471900
  0
VERTEX
  8
C7
  10
395.526700
  20
354.482000
  0
VERTEX
  8
C7
  10
396.230700
  20
354.605500
  0
VERTEX
  8
C7
  10
396.978700
  20
354.850000
  0
VERTEX
  8
C7
  10
397.770800
  20
355.223000
  0
SEQEND
  8
C7
  0
POLYLINE
  8
C7
  66
1
  10
397.770800
  20
355.222900
  0
VERTEX
  8
C7
  10
397.770800
  20
355.222900
  0
VERTEX
  8
C7
  10
398.287900
  20
355.560200
  0
VERTEX
  8
C7
  10
398.746700
  20
355.976300
  0
VERTEX
  8
C7
  10
399.148400
  20
356.463600
  0
VERTEX
  8
C7
  10
399.494000
  20
357.014400
  0
VERTEX
  8
C7
  10
399.784800
  20
357.620900
  0
VERTEX
  8
C7
  10
400.021900
  20
358.275600
  0
VERTEX
  8
C7
  10
400.206500
  20
358.970700
  0
VERTEX
  8
C7
  10
400.339700
  20
359.698500
  0
VERTEX
  8
C7
  10
400.422600
  20
360.451400
  0
VERTEX
  8
C7
  10
400.456500
  20
361.221700
  0
VERTEX
  8
C7
  10
400.442500
  20
362.001700
  0
VERTEX
  8
C7
  10
400.381700
  20
362.783800
  0
VERTEX
  8
C7
  10
400.275300
  20
363.560300
  0
VERTEX
  8
C7
  10
400.124500
  20
364.323400
  0
VERTEX
  8
C7
  10
399.930500
  20
365.065600
  0
VERTEX
  8
C7
  10
399.694200
  20
365.779000
  0
VERTEX
  8
C7
  10
399.417100
  20
366.456200
  0
VERTEX
  8
C7
  10
399.100100
  20
367.089300
  0
VERTEX
  8
C7
  10
398.744500
  20
367.670800
  0
VERTEX
  8
C7
  10
398.351300
  20
368.192800
  0
VERTEX
  8
C7
  10
397.921900
  20
368.647800
  0
VERTEX
  8
C7
  10
397.457300
  20
369.028100
  0
VERTEX
  8
C7
  10
396.958600
  20
369.326000
  0
VERTEX
  8
C7
  10
396.427100
  20
369.533800
  0
VERTEX
  8
C7
  10
395.863900
  20
369.643800
  0
VERTEX
  8
C7
  10
395.270100
  20
369.648400
  0
VERTEX
  8
C7
  10
394.646900
  20
369.539900
  0
VERTEX
  8
C7
  10
393.995500
  20
369.310600
  0
VERTEX
  8
C7
  10
393.317100
  20
368.952900
  0
SEQEND
  8
C7
  0
POLYLINE
  8
C7
  66
1
  10
402.000000
  20
370.000000
  0
VERTEX
  8
C7
  10
402.000000
  20
370.000000
  0
VERTEX
  8
C7
  10
402.000000
  20
367.000000
  0
VERTEX
  8
C7
  10
407.000000
  20
367.000000
  0
VERTEX
  8
C7
  10
404.000000
  20
355.000000
  0
VERTEX
  8
C7
  10
413.000000
  20
367.000000
  0
VERTEX
  8
C7
  10
413.081600
  20
366.017200
  0
VERTEX
  8
C7
  10
413.172700
  20
365.027200
  0
VERTEX
  8
C7
  10
413.281500
  20
364.037600
  0
VERTEX
  8
C7
  10
413.416300
  20
363.056100
  0
VERTEX
  8
C7
  10
413.585500
  20
362.090400
  0
VERTEX
  8
C7
  10
413.797400
  20
361.148300
  0
VERTEX
  8
C7
  10
414.060300
  20
360.237400
  0
VERTEX
  8
C7
  10
414.382600
  20
359.365500
  0
VERTEX
  8
C7
  10
414.772500
  20
358.540200
  0
VERTEX
  8
C7
  10
415.238500
  20
357.769300
  0
VERTEX
  8
C7
  10
415.788800
  20
357.060500
  0
VERTEX
  8
C7
  10
416.431800
  20
356.421400
  0
VERTEX
  8
C7
  10
417.175700
  20
355.859800
  0
VERTEX
  8
C7
  10
418.029000
  20
355.383400
  0
VERTEX
  8
C7
  10
419.000000
  20
355.000000
  0
VERTEX
  8
C7
  10
421.000000
  20
365.000000
  0
VERTEX
  8
C7
  10
422.000000
  20
365.000000
  0
VERTEX
  8
C7
  10
424.000000
  20
355.000000
  0
VERTEX
  8
C7
  10
428.000000
  20
355.000000
  0
VERTEX
  8
C7
  10
431.000000
  20
370.000000
  0
VERTEX
  8
C7
  10
428.000000
  20
370.000000
  0
VERTEX
  8
C7
  10
427.000000
  20
362.000000
  0
VERTEX
  8
C7
  10
425.000000
  20
362.000000
  0
VERTEX
  8
C7
  10
424.000000
  20
370.000000
  0
VERTEX
  8
C7
  10
422.945000
  20
369.754400
  0
VERTEX
  8
C7
  10
422.034200
  20
369.414100
  0
VERTEX
  8
C7
  10
421.255300
  20
368.984600
  0
VERTEX
  8
C7
  10
420.595900
  20
368.471400
  0
VERTEX
  8
C7
  10
420.043700
  20
367.880100
  0
VERTEX
  8
C7
  10
419.586200
  20
367.216100
  0
VERTEX
  8
C7
  10
419.211100
  20
366.485000
  0
VERTEX
  8
C7
  10
418.906200
  20
365.692400
  0
VERTEX
  8
C7
  10
418.658900
  20
364.843800
  0
VERTEX
  8
C7
  10
418.457000
  20
363.944700
  0
VERTEX
  8
C7
  10
418.288100
  20
363.000700
  0
VERTEX
  8
C7
  10
418.139900
  20
362.017200
  0
VERTEX
  8
C7
  10
418.000000
  20
361.000000
  0
VERTEX
  8
C7
  10
417.000000
  20
361.000000
  0
VERTEX
  8
C7
  10
415.000000
  20
370.000000
  0
VERTEX
  8
C7
  10
402.000000
  20
370.000000
  0
SEQEND
  8
C7
  0
POLYLINE
  8
C7
  66
1
  10
432.000000
  20
365.000000
  0
VERTEX
  8
C7
  10
432.000000
  20
365.000000
  0
VERTEX
  8
C7
  10
436.000000
  20
368.000000
  0
VERTEX
  8
C7
  10
437.000000
  20
368.000000
  0
VERTEX
  8
C7
  10
438.000000
  20
365.000000
  0
VERTEX
  8
C7
  10
435.000000
  20
361.000000
  0
VERTEX
  8
C7
  10
439.000000
  20
360.000000
  0
VERTEX
  8
C7
  10
439.000000
  20
358.000000
  0
VERTEX
  8
C7
  10
435.000000
  20
357.000000
  0
VERTEX
  8
C7
  10
434.000000
  20
360.000000
  0
VERTEX
  8
C7
  10
433.552600
  20
359.235600
  0
VERTEX
  8
C7
  10
433.266900
  20
358.524800
  0
VERTEX
  8
C7
  10
433.130000
  20
357.869900
  0
VERTEX
  8
C7
  10
433.129000
  20
357.272900
  0
VERTEX
  8
C7
  10
433.250800
  20
356.736200
  0
VERTEX
  8
C7
  10
433.482600
  20
356.261800
  0
VERTEX
  8
C7
  10
433.811500
  20
355.851900
  0
VERTEX
  8
C7
  10
434.224400
  20
355.508700
  0
VERTEX
  8
C7
  10
434.708400
  20
355.234400
  0
VERTEX
  8
C7
  10
435.250700
  20
355.031200
  0
VERTEX
  8
C7
  10
435.838200
  20
354.901200
  0
VERTEX
  8
C7
  10
436.458100
  20
354.846600
  0
VERTEX
  8
C7
  10
437.097400
  20
354.869700
  0
VERTEX
  8
C7
  10
437.743100
  20
354.972500
  0
VERTEX
  8
C7
  10
438.382300
  20
355.157200
  0
VERTEX
  8
C7
  10
439.002200
  20
355.426100
  0
VERTEX
  8
C7
  10
439.589600
  20
355.781300
  0
VERTEX
  8
C7
  10
440.131800
  20
356.225000
  0
VERTEX
  8
C7
  10
440.615700
  20
356.759400
  0
VERTEX
  8
C7
  10
441.028500
  20
357.386500
  0
VERTEX
  8
C7
  10
441.357200
  20
358.108800
  0
SEQEND
  8
C7
  0
POLYLINE
  8
C7
  66
1
  10
441.357200
  20
358.108700
  0
VERTEX
  8
C7
  10
441.357200
  20
358.108700
  0
VERTEX
  8
C7
  10
441.576100
  20
358.810600
  0
VERTEX
  8
C7
  10
441.726500
  20
359.524600
  0
VERTEX
  8
C7
  10
441.811900
  20
360.246300
  0
VERTEX
  8
C7
  10
441.835800
  20
360.970900
  0
VERTEX
  8
C7
  10
441.801500
  20
361.693900
  0
VERTEX
  8
C7
  10
441.712800
  20
362.410900
  0
VERTEX
  8
C7
  10
441.573000
  20
363.117100
  0
VERTEX
  8
C7
  10
441.385600
  20
363.808100
  0
VERTEX
  8
C7
  10
441.154200
  20
364.479300
  0
VERTEX
  8
C7
  10
440.882200
  20
365.126100
  0
VERTEX
  8
C7
  10
440.573200
  20
365.744000
  0
VERTEX
  8
C7
  10
440.230600
  20
366.328400
  0
VERTEX
  8
C7
  10
439.858000
  20
366.874700
  0
VERTEX
  8
C7
  10
439.458800
  20
367.378400
  0
VERTEX
  8
C7
  10
439.036500
  20
367.835000
  0
VERTEX
  8
C7
  10
438.594700
  20
368.239800
  0
VERTEX
  8
C7
  10
438.136900
  20
368.588200
  0
VERTEX
  8
C7
  10
437.666400
  20
368.875900
  0
VERTEX
  8
C7
  10
437.186900
  20
369.098000
  0
VERTEX
  8
C7
  10
436.701900
  20
369.250200
  0
VERTEX
  8
C7
  10
436.214800
  20
369.327900
  0
VERTEX
  8
C7
  10
435.729100
  20
369.326400
  0
VERTEX
  8
C7
  10
435.248400
  20
369.241200
  0
VERTEX
  8
C7
  10
434.776000
  20
369.067800
  0
VERTEX
  8
C7
  10
434.315700
  20
368.801600
  0
VERTEX
  8
C7
  10
433.870700
  20
368.438000
  0
VERTEX
  8
C7
  10
433.444700
  20
367.972500
  0
VERTEX
  8
C7
  10
433.041100
  20
367.400500
  0
VERTEX
  8
C7
  10
432.663500
  20
366.717500
  0
VERTEX
  8
C7
  10
432.315200
  20
365.918800
  0
VERTEX
  8
C7
  10
432.000000
  20
365.000000
  0
SEQEND
  8
C7
  0
POLYLINE
  8
C7
  66
1
  10
445.320221
  20
368.967590
  0
VERTEX
  8
C7
  10
445.320221
  20
368.967590
  0
VERTEX
  8
C7
  10
444.853700
  20
368.606300
  0
VERTEX
  8
C7
  10
444.436700
  20
368.170700
  0
VERTEX
  8
C7
  10
444.068600
  20
367.667900
  0
VERTEX
  8
C7
  10
443.748800
  20
367.105200
  0
VERTEX
  8
C7
  10
443.476800
  20
366.489800
  0
VERTEX
  8
C7
  10
443.252000
  20
365.829000
  0
VERTEX
  8
C7
  10
443.073900
  20
365.130100
  0
VERTEX
  8
C7
  10
442.941900
  20
364.400200
  0
VERTEX
  8
C7
  10
442.855400
  20
363.646600
  0
VERTEX
  8
C7
  10
442.813900
  20
362.876600
  0
VERTEX
  8
C7
  10
442.816800
  20
362.097500
  0
VERTEX
  8
C7
  10
442.863500
  20
361.316400
  0
VERTEX
  8
C7
  10
442.953600
  20
360.540700
  0
VERTEX
  8
C7
  10
443.086400
  20
359.777600
  0
VERTEX
  8
C7
  10
443.261300
  20
359.034200
  0
VERTEX
  8
C7
  10
443.477900
  20
358.318000
  0
VERTEX
  8
C7
  10
443.735600
  20
357.636100
  0
VERTEX
  8
C7
  10
444.033700
  20
356.995800
  0
VERTEX
  8
C7
  10
444.371800
  20
356.404300
  0
VERTEX
  8
C7
  10
444.749200
  20
355.868900
  0
VERTEX
  8
C7
  10
445.165500
  20
355.396800
  0
VERTEX
  8
C7
  10
445.620000
  20
354.995300
  0
VERTEX
  8
C7
  10
446.112200
  20
354.671700
  0
VERTEX
  8
C7
  10
446.641600
  20
354.433100
  0
VERTEX
  8
C7
  10
447.207500
  20
354.286800
  0
VERTEX
  8
C7
  10
447.809500
  20
354.240200
  0
VERTEX
  8
C7
  10
448.446900
  20
354.300300
  0
VERTEX
  8
C7
  10
449.119200
  20
354.474600
  0
VERTEX
  8
C7
  10
449.825800
  20
354.770200
  0
VERTEX
  8
C7
  10
450.566300
  20
355.194400
  0
VERTEX
  8
C7
  10
451.027100
  20
355.553100
  0
VERTEX
  8
C7
  10
451.434400
  20
355.991600
  0
VERTEX
  8
C7
  10
451.789000
  20
356.501700
  0
VERTEX
  8
C7
  10
452.091800
  20
357.075600
  0
VERTEX
  8
C7
  10
452.343500
  20
357.705400
  0
VERTEX
  8
C7
  10
452.545200
  20
358.383000
  0
VERTEX
  8
C7
  10
452.697600
  20
359.100700
  0
VERTEX
  8
C7
  10
452.801500
  20
359.850500
  0
VERTEX
  8
C7
  10
452.858000
  20
360.624400
  0
VERTEX
  8
C7
  10
452.867700
  20
361.414500
  0
VERTEX
  8
C7
  10
452.831600
  20
362.213000
  0
VERTEX
  8
C7
  10
452.750500
  20
363.011800
  0
VERTEX
  8
C7
  10
452.625200
  20
363.803000
  0
VERTEX
  8
C7
  10
452.456700
  20
364.578800
  0
VERTEX
  8
C7
  10
452.245800
  20
365.331100
  0
VERTEX
  8
C7
  10
451.993400
  20
366.052100
  0
VERTEX
  8
C7
  10
451.700200
  20
366.733900
  0
VERTEX
  8
C7
  10
451.367200
  20
367.368500
  0
VERTEX
  8
C7
  10
450.995300
  20
367.947900
  0
VERTEX
  8
C7
  10
450.585200
  20
368.464300
  0
VERTEX
  8
C7
  10
450.137800
  20
368.909800
  0
VERTEX
  8
C7
  10
449.654000
  20
369.276400
  0
VERTEX
  8
C7
  10
449.134700
  20
369.556100
  0
VERTEX
  8
C7
  10
448.580700
  20
369.741100
  0
VERTEX
  8
C7
  10
447.992800
  20
369.823400
  0
VERTEX
  8
C7
  10
447.372000
  20
369.795200
  0
VERTEX
  8
C7
  10
446.719000
  20
369.648400
  0
VERTEX
  8
C7
  10
446.034800
  20
369.375200
  0
VERTEX
  8
C7
  10
445.320200
  20
368.967600
  0
SEQEND
  8
C7
  0
POLYLINE
  8
C7
  66
1
  10
395.000000
  20
368.000000
  0
VERTEX
  8
C7
  10
395.000000
  20
368.000000
  0
VERTEX
  8
C7
  10
395.000000
  20
364.000000
  0
VERTEX
  8
C7
  10
396.000000
  20
364.000000
  0
VERTEX
  8
C7
  10
395.000000
  20
368.000000
  0
SEQEND
  8
C7
  0
POLYLINE
  8
C7
  66
1
  10
335.000000
  20
367.000000
  0
VERTEX
  8
C7
  10
335.000000
  20
367.000000
  0
VERTEX
  8
C7
  10
335.000000
  20
364.000000
  0
VERTEX
  8
C7
  10
340.000000
  20
365.000000
  0
VERTEX
  8
C7
  10
335.000000
  20
367.000000
  0
SEQEND
  8
C7
  0
POLYLINE
  8
C7
  66
1
  10
446.000000
  20
367.000000
  0
VERTEX
  8
C7
  10
446.000000
  20
367.000000
  0
VERTEX
  8
C7
  10
449.000000
  20
364.000000
  0
VERTEX
  8
C7
  10
446.000000
  20
367.000000
  0
SEQEND
  8
C7
  0
POLYLINE
  8
C7
  66
1
  10
249.000000
  20
365.000000
  0
VERTEX
  8
C7
  10
249.000000
  20
365.000000
  0
VERTEX
  8
C7
  10
249.000000
  20
359.000000
  0
VERTEX
  8
C7
  10
250.000000
  20
359.000000
  0
VERTEX
  8
C7
  10
249.000000
  20
365.000000
  0
SEQEND
  8
C7
  0
POLYLINE
  8
C7
  66
1
  10
373.000000
  20
365.000000
  0
VERTEX
  8
C7
  10
373.000000
  20
365.000000
  0
VERTEX
  8
C7
  10
371.000000
  20
361.000000
  0
VERTEX
  8
C7
  10
372.161900
  20
361.325800
  0
VERTEX
  8
C7
  10
372.996800
  20
361.753200
  0
VERTEX
  8
C7
  10
373.501300
  20
362.308200
  0
VERTEX
  8
C7
  10
373.672200
  20
363.016900
  0
VERTEX
  8
C7
  10
373.506200
  20
363.905500
  0
VERTEX
  8
C7
  10
373.000000
  20
365.000000
  0
SEQEND
  8
C7
  0
POLYLINE
  8
C7
  66
1
  10
537.000000
  20
365.000000
  0
VERTEX
  8
C7
  10
537.000000
  20
365.000000
  0
VERTEX
  8
C7
  10
537.000000
  20
359.000000
  0
VERTEX
  8
C7
  10
538.000000
  20
359.000000
  0
VERTEX
  8
C7
  10
537.000000
  20
365.000000
  0
SEQEND
  8
C7
  0
POLYLINE
  8
C7
  66
1
  10
395.000000
  20
362.000000
  0
VERTEX
  8
C7
  10
395.000000
  20
362.000000
  0
VERTEX
  8
C7
  10
393.000000
  20
358.000000
  0
VERTEX
  8
C7
  10
397.000000
  20
357.000000
  0
VERTEX
  8
C7
  10
395.000000
  20
362.000000
  0
SEQEND
  8
C7
  0
POLYLINE
  8
C7
  66
1
  10
335.000000
  20
361.000000
  0
VERTEX
  8
C7
  10
335.000000
  20
361.000000
  0
VERTEX
  8
C7
  10
335.000000
  20
357.000000
  0
VERTEX
  8
C7
  10
340.000000
  20
361.000000
  0
VERTEX
  8
C7
  10
335.000000
  20
361.000000
  0
SEQEND
  8
C7
  0
POLYLINE
  8
C7
  66
1
  10
446.000000
  20
361.000000
  0
VERTEX
  8
C7
  10
446.000000
  20
361.000000
  0
VERTEX
  8
C7
  10
447.000000
  20
357.000000
  0
VERTEX
  8
C7
  10
449.000000
  20
357.000000
  0
VERTEX
  8
C7
  10
450.000000
  20
361.000000
  0
VERTEX
  8
C7
  10
446.000000
  20
361.000000
  0
SEQEND
  8
C7
  0
POLYLINE
  8
C7
  66
1
  10
249.000000
  20
355.000000
  0
VERTEX
  8
C7
  10
249.000000
  20
355.000000
  0
VERTEX
  8
C7
  10
249.000000
  20
349.000000
  0
VERTEX
  8
C7
  10
250.000000
  20
349.000000
  0
VERTEX
  8
C7
  10
249.000000
  20
355.000000
  0
SEQEND
  8
C7
  0
POLYLINE
  8
C7
  66
1
  10
537.000000
  20
355.000000
  0
VERTEX
  8
C7
  10
537.000000
  20
355.000000
  0
VERTEX
  8
C7
  10
537.000000
  20
349.000000
  0
VERTEX
  8
C7
  10
538.000000
  20
349.000000
  0
VERTEX
  8
C7
  10
537.000000
  20
355.000000
  0
SEQEND
  8
C7
  0
POLYLINE
  8
C7
  66
1
  10
249.000000
  20
346.000000
  0
VERTEX
  8
C7
  10
249.000000
  20
346.000000
  0
VERTEX
  8
C7
  10
249.000000
  20
340.000000
  0
VERTEX
  8
C7
  10
250.000000
  20
340.000000
  0
VERTEX
  8
C7
  10
249.000000
  20
346.000000
  0
SEQEND
  8
C7
  0
POLYLINE
  8
C7
  66
1
  10
537.000000
  20
346.000000
  0
VERTEX
  8
C7
  10
537.000000
  20
346.000000
  0
VERTEX
  8
C7
  10
537.000000
  20
340.000000
  0
VERTEX
  8
C7
  10
538.000000
  20
340.000000
  0
VERTEX
  8
C7
  10
537.000000
  20
346.000000
  0
SEQEND
  8
C7
  0
POLYLINE
  8
C7
  66
1
  10
249.000000
  20
336.000000
  0
VERTEX
  8
C7
  10
249.000000
  20
336.000000
  0
VERTEX
  8
C7
  10
249.000000
  20
330.000000
  0
VERTEX
  8
C7
  10
250.000000
  20
330.000000
  0
VERTEX
  8
C7
  10
249.000000
  20
336.000000
  0
SEQEND
  8
C7
  0
POLYLINE
  8
C7
  66
1
  10
537.000000
  20
336.000000
  0
VERTEX
  8
C7
  10
537.000000
  20
336.000000
  0
VERTEX
  8
C7
  10
537.000000
  20
330.000000
  0
VERTEX
  8
C7
  10
538.000000
  20
330.000000
  0
VERTEX
  8
C7
  10
537.000000
  20
336.000000
  0
SEQEND
  8
C7
  0
POLYLINE
  8
C7
  66
1
  10
106.000000
  20
333.000000
  0
VERTEX
  8
C7
  10
106.000000
  20
333.000000
  0
VERTEX
  8
C7
  10
105.756200
  20
332.248900
  0
VERTEX
  8
C7
  10
105.504500
  20
331.462900
  0
VERTEX
  8
C7
  10
105.250000
  20
330.646400
  0
VERTEX
  8
C7
  10
104.997500
  20
329.803900
  0
VERTEX
  8
C7
  10
104.752000
  20
328.939800
  0
VERTEX
  8
C7
  10
104.518600
  20
328.058500
  0
VERTEX
  8
C7
  10
104.302200
  20
327.164700
  0
VERTEX
  8
C7
  10
104.107800
  20
326.262600
  0
VERTEX
  8
C7
  10
103.940400
  20
325.356900
  0
VERTEX
  8
C7
  10
103.805000
  20
324.451900
  0
VERTEX
  8
C7
  10
103.706500
  20
323.552000
  0
VERTEX
  8
C7
  10
103.650000
  20
322.661900
  0
VERTEX
  8
C7
  10
103.640400
  20
321.785900
  0
VERTEX
  8
C7
  10
103.682700
  20
320.928400
  0
VERTEX
  8
C7
  10
103.781900
  20
320.094100
  0
VERTEX
  8
C7
  10
103.943000
  20
319.287200
  0
VERTEX
  8
C7
  10
104.171000
  20
318.512300
  0
VERTEX
  8
C7
  10
104.470800
  20
317.773900
  0
VERTEX
  8
C7
  10
104.847400
  20
317.076300
  0
VERTEX
  8
C7
  10
105.305900
  20
316.424200
  0
VERTEX
  8
C7
  10
105.851200
  20
315.821800
  0
VERTEX
  8
C7
  10
106.488200
  20
315.273800
  0
VERTEX
  8
C7
  10
107.222000
  20
314.784500
  0
VERTEX
  8
C7
  10
108.057600
  20
314.358400
  0
VERTEX
  8
C7
  10
109.000000
  20
314.000000
  0
VERTEX
  8
C7
  10
108.600600
  20
315.118600
  0
VERTEX
  8
C7
  10
108.251800
  20
316.197100
  0
VERTEX
  8
C7
  10
107.952200
  20
317.240300
  0
VERTEX
  8
C7
  10
107.701000
  20
318.252900
  0
VERTEX
  8
C7
  10
107.497000
  20
319.239700
  0
VERTEX
  8
C7
  10
107.339100
  20
320.205400
  0
VERTEX
  8
C7
  10
107.226300
  20
321.154800
  0
VERTEX
  8
C7
  10
107.157600
  20
322.092600
  0
VERTEX
  8
C7
  10
107.131700
  20
323.023500
  0
VERTEX
  8
C7
  10
107.147800
  20
323.952300
  0
VERTEX
  8
C7
  10
107.204600
  20
324.883800
  0
VERTEX
  8
C7
  10
107.301200
  20
325.822600
  0
VERTEX
  8
C7
  10
107.436400
  20
326.773600
  0
VERTEX
  8
C7
  10
107.609300
  20
327.741400
  0
VERTEX
  8
C7
  10
107.818600
  20
328.730900
  0
VERTEX
  8
C7
  10
108.063500
  20
329.746800
  0
VERTEX
  8
C7
  10
108.342700
  20
330.793700
  0
VERTEX
  8
C7
  10
108.655200
  20
331.876500
  0
VERTEX
  8
C7
  10
109.000000
  20
333.000000
  0
VERTEX
  8
C7
  10
106.000000
  20
333.000000
  0
SEQEND
  8
C7
  0
POLYLINE
  8
C7
  66
1
  10
172.000000
  20
333.000000
  0
VERTEX
  8
C7
  10
172.000000
  20
333.000000
  0
VERTEX
  8
C7
  10
172.000000
  20
314.000000
  0
VERTEX
  8
C7
  10
172.745400
  20
314.438100
  0
VERTEX
  8
C7
  10
173.432000
  20
314.935900
  0
VERTEX
  8
C7
  10
174.059700
  20
315.488700
  0
VERTEX
  8
C7
  10
174.629000
  20
316.091800
  0
VERTEX
  8
C7
  10
175.139800
  20
316.740500
  0
VERTEX
  8
C7
  10
175.592500
  20
317.430000
  0
VERTEX
  8
C7
  10
175.987200
  20
318.155600
  0
VERTEX
  8
C7
  10
176.324100
  20
318.912700
  0
VERTEX
  8
C7
  10
176.603400
  20
319.696500
  0
VERTEX
  8
C7
  10
176.825300
  20
320.502300
  0
VERTEX
  8
C7
  10
176.990000
  20
321.325400
  0
VERTEX
  8
C7
  10
177.097700
  20
322.161000
  0
VERTEX
  8
C7
  10
177.148500
  20
323.004500
  0
VERTEX
  8
C7
  10
177.142700
  20
323.851200
  0
VERTEX
  8
C7
  10
177.080400
  20
324.696300
  0
VERTEX
  8
C7
  10
176.961900
  20
325.535100
  0
VERTEX
  8
C7
  10
176.787300
  20
326.362900
  0
VERTEX
  8
C7
  10
176.556800
  20
327.175100
  0
VERTEX
  8
C7
  10
176.270700
  20
327.966800
  0
VERTEX
  8
C7
  10
175.929000
  20
328.733400
  0
VERTEX
  8
C7
  10
175.532100
  20
329.470100
  0
VERTEX
  8
C7
  10
175.080100
  20
330.172300
  0
VERTEX
  8
C7
  10
174.573100
  20
330.835200
  0
VERTEX
  8
C7
  10
174.011400
  20
331.454100
  0
VERTEX
  8
C7
  10
173.395200
  20
332.024400
  0
VERTEX
  8
C7
  10
172.724700
  20
332.541200
  0
VERTEX
  8
C7
  10
172.000000
  20
333.000000
  0
SEQEND
  8
C7
  0
POLYLINE
  8
C7
  66
1
  10
35.000000
  20
326.000000
  0
VERTEX
  8
C7
  10
35.000000
  20
326.000000
  0
VERTEX
  8
C7
  10
38.000000
  20
327.000000
  0
VERTEX
  8
C7
  10
38.000000
  20
318.000000
  0
VERTEX
  8
C7
  10
41.000000
  20
318.000000
  0
VERTEX
  8
C7
  10
41.000000
  20
332.000000
  0
VERTEX
  8
C7
  10
35.000000
  20
326.000000
  0
SEQEND
  8
C7
  0
POLYLINE
  8
C7
  66
1
  10
46.601852
  20
330.967590
  0
VERTEX
  8
C7
  10
46.601852
  20
330.967590
  0
VERTEX
  8
C7
  10
46.132800
  20
330.548500
  0
VERTEX
  8
C7
  10
45.719600
  20
330.057400
  0
VERTEX
  8
C7
  10
45.361300
  20
329.502500
  0
VERTEX
  8
C7
  10
45.057500
  20
328.892400
  0
VERTEX
  8
C7
  10
44.807600
  20
328.235400
  0
VERTEX
  8
C7
  10
44.610800
  20
327.540000
  0
VERTEX
  8
C7
  10
44.466600
  20
326.814800
  0
VERTEX
  8
C7
  10
44.374300
  20
326.068000
  0
VERTEX
  8
C7
  10
44.333500
  20
325.308100
  0
VERTEX
  8
C7
  10
44.343300
  20
324.543700
  0
VERTEX
  8
C7
  10
44.403300
  20
323.783200
  0
VERTEX
  8
C7
  10
44.512800
  20
323.034900
  0
VERTEX
  8
C7
  10
44.671200
  20
322.307400
  0
VERTEX
  8
C7
  10
44.877800
  20
321.609100
  0
VERTEX
  8
C7
  10
45.132200
  20
320.948400
  0
VERTEX
  8
C7
  10
45.433500
  20
320.333900
  0
VERTEX
  8
C7
  10
45.781300
  20
319.773900
  0
VERTEX
  8
C7
  10
46.175000
  20
319.276900
  0
VERTEX
  8
C7
  10
46.613800
  20
318.851300
  0
VERTEX
  8
C7
  10
47.097200
  20
318.505600
  0
VERTEX
  8
C7
  10
47.624700
  20
318.248200
  0
VERTEX
  8
C7
  10
48.195400
  20
318.087700
  0
VERTEX
  8
C7
  10
48.808900
  20
318.032400
  0
VERTEX
  8
C7
  10
49.464600
  20
318.090700
  0
VERTEX
  8
C7
  10
50.161700
  20
318.271200
  0
VERTEX
  8
C7
  10
50.899800
  20
318.582300
  0
VERTEX
  8
C7
  10
51.678200
  20
319.032400
  0
VERTEX
  8
C7
  10
52.155900
  20
319.413800
  0
VERTEX
  8
C7
  10
52.564600
  20
319.880200
  0
VERTEX
  8
C7
  10
52.906300
  20
320.421900
  0
VERTEX
  8
C7
  10
53.182700
  20
321.028900
  0
VERTEX
  8
C7
  10
53.395900
  20
321.691300
  0
VERTEX
  8
C7
  10
53.547600
  20
322.399400
  0
VERTEX
  8
C7
  10
53.639800
  20
323.143200
  0
VERTEX
  8
C7
  10
53.674300
  20
323.912900
  0
VERTEX
  8
C7
  10
53.653200
  20
324.698800
  0
VERTEX
  8
C7
  10
53.578200
  20
325.490800
  0
VERTEX
  8
C7
  10
53.451200
  20
326.279100
  0
VERTEX
  8
C7
  10
53.274200
  20
327.054000
  0
VERTEX
  8
C7
  10
53.049100
  20
327.805500
  0
VERTEX
  8
C7
  10
52.777600
  20
328.523900
  0
VERTEX
  8
C7
  10
52.461900
  20
329.199100
  0
VERTEX
  8
C7
  10
52.103600
  20
329.821500
  0
VERTEX
  8
C7
  10
51.704800
  20
330.381100
  0
VERTEX
  8
C7
  10
51.267200
  20
330.868100
  0
VERTEX
  8
C7
  10
50.792900
  20
331.272600
  0
VERTEX
  8
C7
  10
50.283700
  20
331.584800
  0
VERTEX
  8
C7
  10
49.741500
  20
331.794800
  0
VERTEX
  8
C7
  10
49.168200
  20
331.892900
  0
VERTEX
  8
C7
  10
48.565700
  20
331.869000
  0
VERTEX
  8
C7
  10
47.935800
  20
331.713400
  0
VERTEX
  8
C7
  10
47.280500
  20
331.416200
  0
VERTEX
  8
C7
  10
46.601800
  20
330.967600
  0
SEQEND
  8
C7
  0
POLYLINE
  8
C7
  66
1
  10
61.000000
  20
332.000000
  0
VERTEX
  8
C7
  10
61.000000
  20
332.000000
  0
VERTEX
  8
C7
  10
60.000000
  20
324.000000
  0
VERTEX
  8
C7
  10
67.000000
  20
324.000000
  0
VERTEX
  8
C7
  10
65.000000
  20
320.000000
  0
VERTEX
  8
C7
  10
64.000000
  20
320.000000
  0
VERTEX
  8
C7
  10
60.000000
  20
323.000000
  0
VERTEX
  8
C7
  10
60.235400
  20
321.957000
  0
VERTEX
  8
C7
  10
60.562200
  20
321.068400
  0
VERTEX
  8
C7
  10
60.973900
  20
320.322000
  0
VERTEX
  8
C7
  10
61.463900
  20
319.705700
  0
VERTEX
  8
C7
  10
62.025800
  20
319.207300
  0
VERTEX
  8
C7
  10
62.652900
  20
318.814700
  0
VERTEX
  8
C7
  10
63.338900
  20
318.515700
  0
VERTEX
  8
C7
  10
64.077100
  20
318.298100
  0
VERTEX
  8
C7
  10
64.861200
  20
318.149900
  0
VERTEX
  8
C7
  10
65.684500
  20
318.058700
  0
VERTEX
  8
C7
  10
66.540500
  20
318.012600
  0
VERTEX
  8
C7
  10
67.422800
  20
317.999300
  0
VERTEX
  8
C7
  10
68.324800
  20
318.006700
  0
VERTEX
  8
C7
  10
69.240100
  20
318.022600
  0
VERTEX
  8
C7
  10
70.162000
  20
318.034900
  0
VERTEX
  8
C7
  10
71.084100
  20
318.031400
  0
VERTEX
  8
C7
  10
72.000000
  20
318.000000
  0
VERTEX
  8
C7
  10
76.000000
  20
332.000000
  0
VERTEX
  8
C7
  10
75.073600
  20
331.650500
  0
VERTEX
  8
C7
  10
74.275400
  20
331.190500
  0
VERTEX
  8
C7
  10
73.595000
  20
330.631000
  0
VERTEX
  8
C7
  10
73.022100
  20
329.983000
  0
VERTEX
  8
C7
  10
72.546300
  20
329.257800
  0
VERTEX
  8
C7
  10
72.157400
  20
328.466200
  0
VERTEX
  8
C7
  10
71.845000
  20
327.619500
  0
VERTEX
  8
C7
  10
71.598900
  20
326.728600
  0
VERTEX
  8
C7
  10
71.408600
  20
325.804700
  0
VERTEX
  8
C7
  10
71.263900
  20
324.858800
  0
VERTEX
  8
C7
  10
71.154400
  20
323.902000
  0
VERTEX
  8
C7
  10
71.069900
  20
322.945300
  0
VERTEX
  8
C7
  10
71.000000
  20
322.000000
  0
VERTEX
  8
C7
  10
70.000000
  20
322.000000
  0
VERTEX
  8
C7
  10
69.641000
  20
323.163000
  0
VERTEX
  8
C7
  10
69.242800
  20
324.170200
  0
VERTEX
  8
C7
  10
68.791500
  20
325.033000
  0
VERTEX
  8
C7
  10
68.273400
  20
325.763000
  0
VERTEX
  8
C7
  10
67.675100
  20
326.371800
  0
VERTEX
  8
C7
  10
66.982700
  20
326.870800
  0
VERTEX
  8
C7
  10
66.182700
  20
327.271600
  0
VERTEX
  8
C7
  10
65.261300
  20
327.585700
  0
VERTEX
  8
C7
  10
64.205000
  20
327.824600
  0
VERTEX
  8
C7
  10
63.000000
  20
328.000000
  0
VERTEX
  8
C7
  10
63.000000
  20
329.000000
  0
VERTEX
  8
C7
  10
69.000000
  20
330.000000
  0
VERTEX
  8
C7
  10
69.000000
  20
332.000000
  0
VERTEX
  8
C7
  10
61.000000
  20
332.000000
  0
SEQEND
  8
C7
  0
POLYLINE
  8
C7
  66
1
  10
77.000000
  20
326.000000
  0
VERTEX
  8
C7
  10
77.000000
  20
326.000000
  0
VERTEX
  8
C7
  10
80.000000
  20
327.000000
  0
VERTEX
  8
C7
  10
80.000000
  20
318.000000
  0
VERTEX
  8
C7
  10
83.000000
  20
318.000000
  0
VERTEX
  8
C7
  10
83.000000
  20
332.000000
  0
VERTEX
  8
C7
  10
77.000000
  20
326.000000
  0
SEQEND
  8
C7
  0
POLYLINE
  8
C7
  66
1
  10
93.000000
  20
327.000000
  0
VERTEX
  8
C7
  10
93.000000
  20
327.000000
  0
VERTEX
  8
C7
  10
93.436100
  20
327.851100
  0
VERTEX
  8
C7
  10
93.668900
  20
328.663900
  0
VERTEX
  8
C7
  10
93.714800
  20
329.421500
  0
VERTEX
  8
C7
  10
93.590300
  20
330.106800
  0
VERTEX
  8
C7
  10
93.311800
  20
330.703200
  0
VERTEX
  8
C7
  10
92.895800
  20
331.193600
  0
VERTEX
  8
C7
  10
92.358700
  20
331.561300
  0
VERTEX
  8
C7
  10
91.717000
  20
331.789300
  0
VERTEX
  8
C7
  10
90.987100
  20
331.860900
  0
VERTEX
  8
C7
  10
90.185400
  20
331.759000
  0
VERTEX
  8
C7
  10
89.328500
  20
331.466800
  0
VERTEX
  8
C7
  10
88.432800
  20
330.967600
  0
SEQEND
  8
C7
  0
POLYLINE
  8
C7
  66
1
  10
88.432800
  20
330.967500
  0
VERTEX
  8
C7
  10
88.432800
  20
330.967500
  0
VERTEX
  8
C7
  10
87.812700
  20
330.534800
  0
VERTEX
  8
C7
  10
87.250000
  20
330.105600
  0
VERTEX
  8
C7
  10
86.743100
  20
329.680400
  0
VERTEX
  8
C7
  10
86.290300
  20
329.259300
  0
VERTEX
  8
C7
  10
85.889800
  20
328.842800
  0
VERTEX
  8
C7
  10
85.540200
  20
328.431200
  0
VERTEX
  8
C7
  10
85.239600
  20
328.024900
  0
VERTEX
  8
C7
  10
84.986400
  20
327.624000
  0
VERTEX
  8
C7
  10
84.779000
  20
327.229100
  0
VERTEX
  8
C7
  10
84.615600
  20
326.840400
  0
VERTEX
  8
C7
  10
84.494700
  20
326.458300
  0
VERTEX
  8
C7
  10
84.414500
  20
326.083000
  0
VERTEX
  8
C7
  10
84.373400
  20
325.715000
  0
VERTEX
  8
C7
  10
84.369600
  20
325.354600
  0
VERTEX
  8
C7
  10
84.401700
  20
325.002100
  0
VERTEX
  8
C7
  10
84.467800
  20
324.657800
  0
VERTEX
  8
C7
  10
84.566300
  20
324.322100
  0
VERTEX
  8
C7
  10
84.695600
  20
323.995300
  0
VERTEX
  8
C7
  10
84.853900
  20
323.677800
  0
VERTEX
  8
C7
  10
85.039700
  20
323.369800
  0
VERTEX
  8
C7
  10
85.251200
  20
323.071700
  0
VERTEX
  8
C7
  10
85.486700
  20
322.783900
  0
VERTEX
  8
C7
  10
85.744700
  20
322.506700
  0
VERTEX
  8
C7
  10
86.023400
  20
322.240400
  0
VERTEX
  8
C7
  10
86.321200
  20
321.985400
  0
VERTEX
  8
C7
  10
86.636400
  20
321.742000
  0
VERTEX
  8
C7
  10
86.967300
  20
321.510500
  0
VERTEX
  8
C7
  10
87.312300
  20
321.291200
  0
VERTEX
  8
C7
  10
87.669700
  20
321.084600
  0
VERTEX
  8
C7
  10
88.037900
  20
320.890900
  0
VERTEX
  8
C7
  10
88.415100
  20
320.710400
  0
VERTEX
  8
C7
  10
88.799700
  20
320.543600
  0
VERTEX
  8
C7
  10
89.190100
  20
320.390700
  0
VERTEX
  8
C7
  10
89.584500
  20
320.252100
  0
VERTEX
  8
C7
  10
89.981300
  20
320.128100
  0
VERTEX
  8
C7
  10
90.378900
  20
320.019100
  0
VERTEX
  8
C7
  10
90.775500
  20
319.925300
  0
VERTEX
  8
C7
  10
91.169500
  20
319.847100
  0
VERTEX
  8
C7
  10
91.559300
  20
319.784900
  0
VERTEX
  8
C7
  10
91.943100
  20
319.739000
  0
VERTEX
  8
C7
  10
92.319400
  20
319.709700
  0
VERTEX
  8
C7
  10
92.686300
  20
319.697400
  0
VERTEX
  8
C7
  10
93.042400
  20
319.702300
  0
VERTEX
  8
C7
  10
93.385800
  20
319.724900
  0
VERTEX
  8
C7
  10
93.715000
  20
319.765500
  0
VERTEX
  8
C7
  10
94.028200
  20
319.824300
  0
VERTEX
  8
C7
  10
94.323800
  20
319.901800
  0
VERTEX
  8
C7
  10
94.600200
  20
319.998300
  0
VERTEX
  8
C7
  10
94.855600
  20
320.114100
  0
VERTEX
  8
C7
  10
95.088400
  20
320.249500
  0
VERTEX
  8
C7
  10
95.296900
  20
320.404800
  0
VERTEX
  8
C7
  10
95.479600
  20
320.580500
  0
VERTEX
  8
C7
  10
95.634600
  20
320.776900
  0
VERTEX
  8
C7
  10
95.760300
  20
320.994200
  0
VERTEX
  8
C7
  10
95.855100
  20
321.232800
  0
VERTEX
  8
C7
  10
95.917300
  20
321.493100
  0
VERTEX
  8
C7
  10
95.945200
  20
321.775400
  0
VERTEX
  8
C7
  10
95.937100
  20
322.080000
  0
VERTEX
  8
C7
  10
95.891500
  20
322.407300
  0
VERTEX
  8
C7
  10
95.806600
  20
322.757600
  0
VERTEX
  8
C7
  10
95.680700
  20
323.131100
  0
VERTEX
  8
C7
  10
95.512300
  20
323.528400
  0
VERTEX
  8
C7
  10
95.299500
  20
323.949700
  0
VERTEX
  8
C7
  10
95.040800
  20
324.395200
  0
VERTEX
  8
C7
  10
94.734600
  20
324.865500
  0
VERTEX
  8
C7
  10
94.379000
  20
325.360800
  0
VERTEX
  8
C7
  10
93.972500
  20
325.881400
  0
VERTEX
  8
C7
  10
93.513400
  20
326.427700
  0
VERTEX
  8
C7
  10
93.000000
  20
327.000000
  0
SEQEND
  8
C7
  0
POLYLINE
  8
C7
  66
1
  10
96.000000
  20
332.000000
  0
VERTEX
  8
C7
  10
96.000000
  20
332.000000
  0
VERTEX
  8
C7
  10
96.000000
  20
327.000000
  0
VERTEX
  8
C7
  10
99.000000
  20
329.000000
  0
VERTEX
  8
C7
  10
100.000000
  20
329.000000
  0
VERTEX
  8
C7
  10
102.000000
  20
327.000000
  0
VERTEX
  8
C7
  10
102.000000
  20
332.000000
  0
VERTEX
  8
C7
  10
96.000000
  20
332.000000
  0
SEQEND
  8
C7
  0
POLYLINE
  8
C7
  66
1
  10
109.000000
  20
321.000000
  0
VERTEX
  8
C7
  10
109.000000
  20
321.000000
  0
VERTEX
  8
C7
  10
114.000000
  20
318.000000
  0
VERTEX
  8
C7
  10
117.000000
  20
318.000000
  0
VERTEX
  8
C7
  10
119.000000
  20
323.000000
  0
VERTEX
  8
C7
  10
120.000000
  20
323.000000
  0
VERTEX
  8
C7
  10
120.299200
  20
322.138400
  0
VERTEX
  8
C7
  10
120.638000
  20
321.382100
  0
VERTEX
  8
C7
  10
121.011600
  20
320.727000
  0
VERTEX
  8
C7
  10
121.415400
  20
320.168900
  0
VERTEX
  8
C7
  10
121.844600
  20
319.703600
  0
VERTEX
  8
C7
  10
122.294700
  20
319.327000
  0
VERTEX
  8
C7
  10
122.761000
  20
319.034800
  0
VERTEX
  8
C7
  10
123.238700
  20
318.823000
  0
VERTEX
  8
C7
  10
123.723200
  20
318.687300
  0
VERTEX
  8
C7
  10
124.209900
  20
318.623600
  0
VERTEX
  8
C7
  10
124.694000
  20
318.627700
  0
VERTEX
  8
C7
  10
125.170900
  20
318.695500
  0
VERTEX
  8
C7
  10
125.636000
  20
318.822700
  0
VERTEX
  8
C7
  10
126.084400
  20
319.005300
  0
VERTEX
  8
C7
  10
126.511700
  20
319.239000
  0
VERTEX
  8
C7
  10
126.913000
  20
319.519700
  0
VERTEX
  8
C7
  10
127.283800
  20
319.843200
  0
VERTEX
  8
C7
  10
127.619400
  20
320.205400
  0
VERTEX
  8
C7
  10
127.915000
  20
320.602000
  0
VERTEX
  8
C7
  10
128.166000
  20
321.028900
  0
VERTEX
  8
C7
  10
128.367800
  20
321.482000
  0
VERTEX
  8
C7
  10
128.515600
  20
321.957100
  0
VERTEX
  8
C7
  10
128.604900
  20
322.450000
  0
VERTEX
  8
C7
  10
128.630800
  20
322.956500
  0
VERTEX
  8
C7
  10
128.588800
  20
323.472500
  0
VERTEX
  8
C7
  10
128.474200
  20
323.993900
  0
VERTEX
  8
C7
  10
128.282300
  20
324.516300
  0
VERTEX
  8
C7
  10
128.008500
  20
325.035800
  0
VERTEX
  8
C7
  10
127.648000
  20
325.548000
  0
VERTEX
  8
C7
  10
127.196200
  20
326.048900
  0
VERTEX
  8
C7
  10
126.648400
  20
326.534300
  0
VERTEX
  8
C7
  10
126.000000
  20
327.000000
  0
VERTEX
  8
C7
  10
126.000000
  20
328.000000
  0
VERTEX
  8
C7
  10
129.000000
  20
328.000000
  0
VERTEX
  8
C7
  10
128.544500
  20
329.026600
  0
VERTEX
  8
C7
  10
128.076700
  20
329.879600
  0
VERTEX
  8
C7
  10
127.598000
  20
330.568800
  0
VERTEX
  8
C7
  10
127.109700
  20
331.103800
  0
VERTEX
  8
C7
  10
126.613200
  20
331.494400
  0
VERTEX
  8
C7
  10
126.109700
  20
331.750400
  0
VERTEX
  8
C7
  10
125.600600
  20
331.881500
  0
VERTEX
  8
C7
  10
125.087200
  20
331.897500
  0
VERTEX
  8
C7
  10
124.570900
  20
331.808100
  0
VERTEX
  8
C7
  10
124.053000
  20
331.623100
  0
VERTEX
  8
C7
  10
123.534900
  20
331.352200
  0
VERTEX
  8
C7
  10
123.017800
  20
331.005100
  0
VERTEX
  8
C7
  10
122.503100
  20
330.591600
  0
VERTEX
  8
C7
  10
121.992200
  20
330.121500
  0
VERTEX
  8
C7
  10
121.486300
  20
329.604500
  0
VERTEX
  8
C7
  10
120.986800
  20
329.050400
  0
VERTEX
  8
C7
  10
120.495100
  20
328.468900
  0
VERTEX
  8
C7
  10
120.012400
  20
327.869700
  0
VERTEX
  8
C7
  10
119.540200
  20
327.262600
  0
VERTEX
  8
C7
  10
119.079700
  20
326.657300
  0
VERTEX
  8
C7
  10
118.632300
  20
326.063700
  0
VERTEX
  8
C7
  10
118.199200
  20
325.491300
  0
VERTEX
  8
C7
  10
117.781900
  20
324.950100
  0
VERTEX
  8
C7
  10
117.381700
  20
324.449700
  0
VERTEX
  8
C7
  10
117.000000
  20
324.000000
  0
VERTEX
  8
C7
  10
117.000000
  20
332.000000
  0
VERTEX
  8
C7
  10
116.023500
  20
331.651300
  0
VERTEX
  8
C7
  10
115.119700
  20
331.231400
  0
VERTEX
  8
C7
  10
114.286500
  20
330.744000
  0
VERTEX
  8
C7
  10
113.521800
  20
330.192800
  0
VERTEX
  8
C7
  10
112.823200
  20
329.581600
  0
VERTEX
  8
C7
  10
112.188700
  20
328.914200
  0
VERTEX
  8
C7
  10
111.616000
  20
328.194400
  0
VERTEX
  8
C7
  10
111.103000
  20
327.425900
  0
VERTEX
  8
C7
  10
110.647500
  20
326.612500
  0
VERTEX
  8
C7
  10
110.247400
  20
325.757900
  0
VERTEX
  8
C7
  10
109.900300
  20
324.866000
  0
VERTEX
  8
C7
  10
109.604200
  20
323.940500
  0
VERTEX
  8
C7
  10
109.356900
  20
322.985100
  0
VERTEX
  8
C7
  10
109.156200
  20
322.003700
  0
VERTEX
  8
C7
  10
109.000000
  20
321.000000
  0
SEQEND
  8
C7
  0
POLYLINE
  8
C7
  66
1
  10
131.000000
  20
332.000000
  0
VERTEX
  8
C7
  10
131.000000
  20
332.000000
  0
VERTEX
  8
C7
  10
130.000000
  20
324.000000
  0
VERTEX
  8
C7
  10
131.186500
  20
324.048700
  0
VERTEX
  8
C7
  10
132.246500
  20
324.044800
  0
VERTEX
  8
C7
  10
133.178600
  20
323.957900
  0
VERTEX
  8
C7
  10
133.981200
  20
323.757900
  0
VERTEX
  8
C7
  10
134.652800
  20
323.414400
  0
VERTEX
  8
C7
  10
135.192000
  20
322.897200
  0
VERTEX
  8
C7
  10
135.597300
  20
322.175900
  0
VERTEX
  8
C7
  10
135.867100
  20
321.220200
  0
VERTEX
  8
C7
  10
136.000000
  20
320.000000
  0
VERTEX
  8
C7
  10
134.000000
  20
320.000000
  0
VERTEX
  8
C7
  10
130.000000
  20
323.000000
  0
VERTEX
  8
C7
  10
130.283800
  20
322.241000
  0
VERTEX
  8
C7
  10
130.647100
  20
321.551000
  0
VERTEX
  8
C7
  10
131.080300
  20
320.930900
  0
VERTEX
  8
C7
  10
131.573300
  20
320.381800
  0
VERTEX
  8
C7
  10
132.116400
  20
319.904800
  0
VERTEX
  8
C7
  10
132.699600
  20
319.501100
  0
VERTEX
  8
C7
  10
133.313200
  20
319.171800
  0
VERTEX
  8
C7
  10
133.947300
  20
318.917800
  0
VERTEX
  8
C7
  10
134.591900
  20
318.740400
  0
VERTEX
  8
C7
  10
135.237400
  20
318.640600
  0
VERTEX
  8
C7
  10
135.873800
  20
318.619500
  0
VERTEX
  8
C7
  10
136.491300
  20
318.678200
  0
VERTEX
  8
C7
  10
137.079900
  20
318.817900
  0
VERTEX
  8
C7
  10
137.630000
  20
319.039500
  0
VERTEX
  8
C7
  10
138.131600
  20
319.344200
  0
VERTEX
  8
C7
  10
138.574800
  20
319.733200
  0
VERTEX
  8
C7
  10
138.949800
  20
320.207500
  0
VERTEX
  8
C7
  10
139.246900
  20
320.768100
  0
VERTEX
  8
C7
  10
139.456000
  20
321.416200
  0
VERTEX
  8
C7
  10
139.567300
  20
322.153000
  0
VERTEX
  8
C7
  10
139.571100
  20
322.979400
  0
VERTEX
  8
C7
  10
139.457500
  20
323.896600
  0
VERTEX
  8
C7
  10
139.154700
  20
324.884400
  0
VERTEX
  8
C7
  10
138.656200
  20
325.772400
  0
VERTEX
  8
C7
  10
138.005700
  20
326.578400
  0
VERTEX
  8
C7
  10
137.246900
  20
327.320000
  0
VERTEX
  8
C7
  10
136.423200
  20
328.015200
  0
VERTEX
  8
C7
  10
135.578500
  20
328.681700
  0
VERTEX
  8
C7
  10
134.756100
  20
329.337400
  0
VERTEX
  8
C7
  10
134.000000
  20
330.000000
  0
VERTEX
  8
C7
  10
139.000000
  20
330.000000
  0
VERTEX
  8
C7
  10
139.000000
  20
332.000000
  0
VERTEX
  8
C7
  10
131.000000
  20
332.000000
  0
SEQEND
  8
C7
  0
POLYLINE
  8
C7
  66
1
  10
48.000000
  20
330.000000
  0
VERTEX
  8
C7
  10
48.000000
  20
330.000000
  0
VERTEX
  8
C7
  10
48.000000
  20
327.000000
  0
VERTEX
  8
C7
  10
50.000000
  20
327.000000
  0
VERTEX
  8
C7
  10
50.000000
  20
330.000000
  0
VERTEX
  8
C7
  10
48.000000
  20
330.000000
  0
SEQEND
  8
C7
  0
POLYLINE
  8
C7
  66
1
  10
89.000000
  20
327.000000
  0
VERTEX
  8
C7
  10
89.000000
  20
327.000000
  0
VERTEX
  8
C7
  10
93.000000
  20
329.000000
  0
VERTEX
  8
C7
  10
89.000000
  20
327.000000
  0
SEQEND
  8
C7
  0
POLYLINE
  8
C7
  66
1
  10
122.000000
  20
327.000000
  0
VERTEX
  8
C7
  10
122.000000
  20
327.000000
  0
VERTEX
  8
C7
  10
126.000000
  20
330.000000
  0
VERTEX
  8
C7
  10
122.000000
  20
327.000000
  0
SEQEND
  8
C7
  0
POLYLINE
  8
C7
  66
1
  10
141.000000
  20
329.000000
  0
VERTEX
  8
C7
  10
141.000000
  20
329.000000
  0
VERTEX
  8
C7
  10
141.000000
  20
318.000000
  0
VERTEX
  8
C7
  10
143.000000
  20
318.000000
  0
VERTEX
  8
C7
  10
144.000000
  20
326.000000
  0
VERTEX
  8
C7
  10
146.000000
  20
326.000000
  0
VERTEX
  8
C7
  10
147.000000
  20
318.000000
  0
VERTEX
  8
C7
  10
149.000000
  20
318.000000
  0
VERTEX
  8
C7
  10
152.000000
  20
326.000000
  0
VERTEX
  8
C7
  10
152.000000
  20
318.000000
  0
VERTEX
  8
C7
  10
155.000000
  20
318.000000
  0
VERTEX
  8
C7
  10
154.980800
  20
319.319600
  0
VERTEX
  8
C7
  10
154.923100
  20
320.522500
  0
VERTEX
  8
C7
  10
154.826100
  20
321.614300
  0
VERTEX
  8
C7
  10
154.688800
  20
322.600600
  0
VERTEX
  8
C7
  10
154.510400
  20
323.487100
  0
VERTEX
  8
C7
  10
154.290000
  20
324.279400
  0
VERTEX
  8
C7
  10
154.026900
  20
324.983400
  0
VERTEX
  8
C7
  10
153.720100
  20
325.604600
  0
VERTEX
  8
C7
  10
153.368800
  20
326.148700
  0
VERTEX
  8
C7
  10
152.972100
  20
326.621300
  0
VERTEX
  8
C7
  10
152.529300
  20
327.028300
  0
VERTEX
  8
C7
  10
152.039300
  20
327.375100
  0
VERTEX
  8
C7
  10
151.501500
  20
327.667600
  0
VERTEX
  8
C7
  10
150.914900
  20
327.911400
  0
VERTEX
  8
C7
  10
150.278700
  20
328.112100
  0
VERTEX
  8
C7
  10
149.592000
  20
328.275400
  0
VERTEX
  8
C7
  10
148.854000
  20
328.407100
  0
VERTEX
  8
C7
  10
148.063800
  20
328.512700
  0
VERTEX
  8
C7
  10
147.220600
  20
328.597900
  0
VERTEX
  8
C7
  10
146.323500
  20
328.668500
  0
VERTEX
  8
C7
  10
145.371600
  20
328.730100
  0
VERTEX
  8
C7
  10
144.364200
  20
328.788400
  0
VERTEX
  8
C7
  10
143.300400
  20
328.849000
  0
VERTEX
  8
C7
  10
142.179200
  20
328.917600
  0
VERTEX
  8
C7
  10
141.000000
  20
329.000000
  0
SEQEND
  8
C7
  0
POLYLINE
  8
C7
  66
1
  10
156.000000
  20
329.000000
  0
VERTEX
  8
C7
  10
156.000000
  20
329.000000
  0
VERTEX
  8
C7
  10
156.000000
  20
318.000000
  0
VERTEX
  8
C7
  10
159.000000
  20
318.000000
  0
VERTEX
  8
C7
  10
162.000000
  20
326.000000
  0
VERTEX
  8
C7
  10
162.000000
  20
318.000000
  0
VERTEX
  8
C7
  10
165.000000
  20
318.000000
  0
VERTEX
  8
C7
  10
165.000000
  20
326.000000
  0
VERTEX
  8
C7
  10
168.000000
  20
326.000000
  0
VERTEX
  8
C7
  10
168.000000
  20
318.000000
  0
VERTEX
  8
C7
  10
171.000000
  20
318.000000
  0
VERTEX
  8
C7
  10
170.973800
  20
319.240400
  0
VERTEX
  8
C7
  10
170.902800
  20
320.383500
  0
VERTEX
  8
C7
  10
170.787100
  20
321.433200
  0
VERTEX
  8
C7
  10
170.626800
  20
322.393500
  0
VERTEX
  8
C7
  10
170.421900
  20
323.268400
  0
VERTEX
  8
C7
  10
170.172600
  20
324.061900
  0
VERTEX
  8
C7
  10
169.878900
  20
324.778100
  0
VERTEX
  8
C7
  10
169.541000
  20
325.420800
  0
VERTEX
  8
C7
  10
169.159000
  20
325.994100
  0
VERTEX
  8
C7
  10
168.732800
  20
326.502100
  0
VERTEX
  8
C7
  10
168.262700
  20
326.948700
  0
VERTEX
  8
C7
  10
167.748700
  20
327.337800
  0
VERTEX
  8
C7
  10
167.191000
  20
327.673600
  0
VERTEX
  8
C7
  10
166.589600
  20
327.960000
  0
VERTEX
  8
C7
  10
165.944600
  20
328.201000
  0
VERTEX
  8
C7
  10
165.256000
  20
328.400600
  0
VERTEX
  8
C7
  10
164.524100
  20
328.562800
  0
VERTEX
  8
C7
  10
163.748900
  20
328.691600
  0
VERTEX
  8
C7
  10
162.930500
  20
328.791100
  0
VERTEX
  8
C7
  10
162.069000
  20
328.865100
  0
VERTEX
  8
C7
  10
161.164500
  20
328.917700
  0
VERTEX
  8
C7
  10
160.217000
  20
328.953000
  0
VERTEX
  8
C7
  10
159.226800
  20
328.974800
  0
VERTEX
  8
C7
  10
158.193800
  20
328.987200
  0
VERTEX
  8
C7
  10
157.118100
  20
328.994300
  0
VERTEX
  8
C7
  10
156.000000
  20
329.000000
  0
SEQEND
  8
C7
  0
POLYLINE
  8
C7
  66
1
  10
113.000000
  20
326.000000
  0
VERTEX
  8
C7
  10
113.000000
  20
326.000000
  0
VERTEX
  8
C7
  10
112.000000
  20
324.000000
  0
VERTEX
  8
C7
  10
114.000000
  20
324.000000
  0
VERTEX
  8
C7
  10
113.000000
  20
326.000000
  0
SEQEND
  8
C7
  0
POLYLINE
  8
C7
  66
1
  10
249.000000
  20
326.000000
  0
VERTEX
  8
C7
  10
249.000000
  20
326.000000
  0
VERTEX
  8
C7
  10
249.000000
  20
321.000000
  0
VERTEX
  8
C7
  10
250.000000
  20
321.000000
  0
VERTEX
  8
C7
  10
249.000000
  20
326.000000
  0
SEQEND
  8
C7
  0
POLYLINE
  8
C7
  66
1
  10
537.000000
  20
326.000000
  0
VERTEX
  8
C7
  10
537.000000
  20
326.000000
  0
VERTEX
  8
C7
  10
537.000000
  20
321.000000
  0
VERTEX
  8
C7
  10
538.000000
  20
321.000000
  0
VERTEX
  8
C7
  10
537.000000
  20
326.000000
  0
SEQEND
  8
C7
  0
POLYLINE
  8
C7
  66
1
  10
90.000000
  20
325.000000
  0
VERTEX
  8
C7
  10
90.000000
  20
325.000000
  0
VERTEX
  8
C7
  10
90.000000
  20
320.000000
  0
VERTEX
  8
C7
  10
92.000000
  20
320.000000
  0
VERTEX
  8
C7
  10
92.000000
  20
325.000000
  0
VERTEX
  8
C7
  10
90.000000
  20
325.000000
  0
SEQEND
  8
C7
  0
POLYLINE
  8
C7
  66
1
  10
123.000000
  20
325.000000
  0
VERTEX
  8
C7
  10
123.000000
  20
325.000000
  0
VERTEX
  8
C7
  10
125.000000
  20
320.000000
  0
VERTEX
  8
C7
  10
126.000000
  20
325.000000
  0
VERTEX
  8
C7
  10
123.000000
  20
325.000000
  0
SEQEND
  8
C7
  0
POLYLINE
  8
C7
  66
1
  10
47.000000
  20
324.000000
  0
VERTEX
  8
C7
  10
47.000000
  20
324.000000
  0
VERTEX
  8
C7
  10
48.000000
  20
320.000000
  0
VERTEX
  8
C7
  10
50.000000
  20
320.000000
  0
VERTEX
  8
C7
  10
51.000000
  20
324.000000
  0
VERTEX
  8
C7
  10
47.000000
  20
324.000000
  0
SEQEND
  8
C7
  0
POLYLINE
  8
C7
  66
1
  10
69.333336
  20
320.333344
  0
VERTEX
  8
C7
  10
69.333336
  20
320.333344
  0
VERTEX
  8
C7
  10
69.666664
  20
319.666656
  0
VERTEX
  8
C7
  10
69.333336
  20
320.333344
  0
SEQEND
  8
C7
  0
POLYLINE
  8
C7
  66
1
  10
249.000000
  20
317.000000
  0
VERTEX
  8
C7
  10
249.000000
  20
317.000000
  0
VERTEX
  8
C7
  10
249.000000
  20
311.000000
  0
VERTEX
  8
C7
  10
250.000000
  20
311.000000
  0
VERTEX
  8
C7
  10
249.000000
  20
317.000000
  0
SEQEND
  8
C7
  0
POLYLINE
  8
C7
  66
1
  10
537.000000
  20
317.000000
  0
VERTEX
  8
C7
  10
537.000000
  20
317.000000
  0
VERTEX
  8
C7
  10
537.000000
  20
311.000000
  0
VERTEX
  8
C7
  10
538.000000
  20
311.000000
  0
VERTEX
  8
C7
  10
537.000000
  20
317.000000
  0
SEQEND
  8
C7
  0
POLYLINE
  8
C7
  66
1
  10
620.000000
  20
314.000000
  0
VERTEX
  8
C7
  10
620.000000
  20
314.000000
  0
VERTEX
  8
C7
  10
617.000000
  20
308.000000
  0
VERTEX
  8
C7
  10
620.000000
  20
309.000000
  0
VERTEX
  8
C7
  10
620.000000
  20
299.000000
  0
VERTEX
  8
C7
  10
623.000000
  20
299.000000
  0
VERTEX
  8
C7
  10
623.000000
  20
314.000000
  0
VERTEX
  8
C7
  10
620.000000
  20
314.000000
  0
SEQEND
  8
C7
  0
POLYLINE
  8
C7
  66
1
  10
626.000000
  20
309.000000
  0
VERTEX
  8
C7
  10
626.000000
  20
309.000000
  0
VERTEX
  8
C7
  10
633.000000
  20
310.000000
  0
VERTEX
  8
C7
  10
626.000000
  20
299.000000
  0
VERTEX
  8
C7
  10
635.000000
  20
299.000000
  0
VERTEX
  8
C7
  10
635.000000
  20
302.000000
  0
VERTEX
  8
C7
  10
631.000000
  20
302.000000
  0
VERTEX
  8
C7
  10
631.629300
  20
302.796900
  0
VERTEX
  8
C7
  10
632.165300
  20
303.583600
  0
VERTEX
  8
C7
  10
632.612100
  20
304.357200
  0
VERTEX
  8
C7
  10
632.974000
  20
305.115000
  0
VERTEX
  8
C7
  10
633.255300
  20
305.854500
  0
VERTEX
  8
C7
  10
633.460300
  20
306.572800
  0
VERTEX
  8
C7
  10
633.593200
  20
307.267300
  0
VERTEX
  8
C7
  10
633.658300
  20
307.935200
  0
VERTEX
  8
C7
  10
633.659900
  20
308.573900
  0
VERTEX
  8
C7
  10
633.602200
  20
309.180800
  0
VERTEX
  8
C7
  10
633.489600
  20
309.753000
  0
VERTEX
  8
C7
  10
633.326300
  20
310.287900
  0
VERTEX
  8
C7
  10
633.116600
  20
310.782800
  0
VERTEX
  8
C7
  10
632.864800
  20
311.235000
  0
VERTEX
  8
C7
  10
632.575100
  20
311.641800
  0
VERTEX
  8
C7
  10
632.251800
  20
312.000500
  0
VERTEX
  8
C7
  10
631.899200
  20
312.308500
  0
VERTEX
  8
C7
  10
631.521600
  20
312.562900
  0
VERTEX
  8
C7
  10
631.123200
  20
312.761200
  0
VERTEX
  8
C7
  10
630.708300
  20
312.900600
  0
VERTEX
  8
C7
  10
630.281200
  20
312.978400
  0
VERTEX
  8
C7
  10
629.846200
  20
312.992000
  0
VERTEX
  8
C7
  10
629.407500
  20
312.938600
  0
VERTEX
  8
C7
  10
628.969400
  20
312.815600
  0
VERTEX
  8
C7
  10
628.536200
  20
312.620200
  0
VERTEX
  8
C7
  10
628.112200
  20
312.349700
  0
VERTEX
  8
C7
  10
627.701600
  20
312.001500
  0
VERTEX
  8
C7
  10
627.308800
  20
311.572900
  0
VERTEX
  8
C7
  10
626.937900
  20
311.061100
  0
VERTEX
  8
C7
  10
626.593300
  20
310.463500
  0
VERTEX
  8
C7
  10
626.279200
  20
309.777300
  0
VERTEX
  8
C7
  10
626.000000
  20
309.000000
  0
SEQEND
  8
C7
  0
POLYLINE
  8
C7
  66
1
  10
642.000000
  20
309.000000
  0
VERTEX
  8
C7
  10
642.000000
  20
309.000000
  0
VERTEX
  8
C7
  10
648.000000
  20
310.000000
  0
VERTEX
  8
C7
  10
648.000000
  20
309.000000
  0
VERTEX
  8
C7
  10
645.000000
  20
305.000000
  0
VERTEX
  8
C7
  10
646.109400
  20
304.756400
  0
VERTEX
  8
C7
  10
646.799600
  20
304.371600
  0
VERTEX
  8
C7
  10
647.152200
  20
303.824700
  0
VERTEX
  8
C7
  10
647.248700
  20
303.094500
  0
VERTEX
  8
C7
  10
647.170700
  20
302.160000
  0
VERTEX
  8
C7
  10
647.000000
  20
301.000000
  0
VERTEX
  8
C7
  10
641.000000
  20
304.000000
  0
VERTEX
  8
C7
  10
641.412000
  20
303.013000
  0
VERTEX
  8
C7
  10
641.880800
  20
302.136900
  0
VERTEX
  8
C7
  10
642.403600
  20
301.375700
  0
VERTEX
  8
C7
  10
642.977800
  20
300.733600
  0
VERTEX
  8
C7
  10
643.600500
  20
300.214800
  0
VERTEX
  8
C7
  10
644.269000
  20
299.823400
  0
VERTEX
  8
C7
  10
644.980500
  20
299.563500
  0
VERTEX
  8
C7
  10
645.732400
  20
299.439400
  0
VERTEX
  8
C7
  10
646.521800
  20
299.455100
  0
VERTEX
  8
C7
  10
647.346000
  20
299.614900
  0
VERTEX
  8
C7
  10
648.202200
  20
299.922800
  0
VERTEX
  8
C7
  10
649.087800
  20
300.383100
  0
VERTEX
  8
C7
  10
650.000000
  20
301.000000
  0
VERTEX
  8
C7
  10
654.000000
  20
299.000000
  0
VERTEX
  8
C7
  10
657.000000
  20
314.000000
  0
VERTEX
  8
C7
  10
656.262400
  20
313.417100
  0
VERTEX
  8
C7
  10
655.604600
  20
312.760800
  0
VERTEX
  8
C7
  10
655.021700
  20
312.038600
  0
VERTEX
  8
C7
  10
654.508400
  20
311.258200
  0
VERTEX
  8
C7
  10
654.059700
  20
310.427100
  0
VERTEX
  8
C7
  10
653.670400
  20
309.552900
  0
VERTEX
  8
C7
  10
653.335500
  20
308.643300
  0
VERTEX
  8
C7
  10
653.049800
  20
307.705800
  0
VERTEX
  8
C7
  10
652.808300
  20
306.747900
  0
VERTEX
  8
C7
  10
652.605800
  20
305.777400
  0
VERTEX
  8
C7
  10
652.437200
  20
304.801800
  0
VERTEX
  8
C7
  10
652.297400
  20
303.828600
  0
VERTEX
  8
C7
  10
652.181400
  20
302.865500
  0
VERTEX
  8
C7
  10
652.083900
  20
301.920100
  0
VERTEX
  8
C7
  10
652.000000
  20
301.000000
  0
VERTEX
  8
C7
  10
651.875100
  20
301.373700
  0
VERTEX
  8
C7
  10
651.732700
  20
301.806100
  0
VERTEX
  8
C7
  10
651.573500
  20
302.290700
  0
VERTEX
  8
C7
  10
651.398200
  20
302.821300
  0
VERTEX
  8
C7
  10
651.207400
  20
303.391600
  0
VERTEX
  8
C7
  10
651.001900
  20
303.995300
  0
VERTEX
  8
C7
  10
650.782300
  20
304.626300
  0
VERTEX
  8
C7
  10
650.549200
  20
305.278100
  0
VERTEX
  8
C7
  10
650.303400
  20
305.944500
  0
VERTEX
  8
C7
  10
650.045500
  20
306.619300
  0
VERTEX
  8
C7
  10
649.776300
  20
307.296100
  0
VERTEX
  8
C7
  10
649.496300
  20
307.968800
  0
VERTEX
  8
C7
  10
649.206300
  20
308.630900
  0
VERTEX
  8
C7
  10
648.907000
  20
309.276300
  0
VERTEX
  8
C7
  10
648.599000
  20
309.898700
  0
VERTEX
  8
C7
  10
648.282900
  20
310.491700
  0
VERTEX
  8
C7
  10
647.959600
  20
311.049200
  0
VERTEX
  8
C7
  10
647.629600
  20
311.564800
  0
VERTEX
  8
C7
  10
647.293700
  20
312.032200
  0
VERTEX
  8
C7
  10
646.952500
  20
312.445300
  0
VERTEX
  8
C7
  10
646.606600
  20
312.797600
  0
VERTEX
  8
C7
  10
646.256900
  20
313.083000
  0
VERTEX
  8
C7
  10
645.903900
  20
313.295200
  0
VERTEX
  8
C7
  10
645.548300
  20
313.427800
  0
VERTEX
  8
C7
  10
645.190800
  20
313.474600
  0
VERTEX
  8
C7
  10
644.832100
  20
313.429400
  0
VERTEX
  8
C7
  10
644.472800
  20
313.285800
  0
VERTEX
  8
C7
  10
644.113700
  20
313.037600
  0
VERTEX
  8
C7
  10
643.755400
  20
312.678500
  0
VERTEX
  8
C7
  10
643.398700
  20
312.202200
  0
VERTEX
  8
C7
  10
643.044000
  20
311.602500
  0
VERTEX
  8
C7
  10
642.692200
  20
310.873100
  0
VERTEX
  8
C7
  10
642.344000
  20
310.007700
  0
VERTEX
  8
C7
  10
642.000000
  20
309.000000
  0
SEQEND
  8
C7
  0
POLYLINE
  8
C7
  66
1
  10
658.000000
  20
308.000000
  0
VERTEX
  8
C7
  10
658.000000
  20
308.000000
  0
VERTEX
  8
C7
  10
662.000000
  20
309.000000
  0
VERTEX
  8
C7
  10
662.000000
  20
299.000000
  0
VERTEX
  8
C7
  10
664.000000
  20
299.000000
  0
VERTEX
  8
C7
  10
664.000000
  20
314.000000
  0
VERTEX
  8
C7
  10
658.000000
  20
308.000000
  0
SEQEND
  8
C7
  0
POLYLINE
  8
C7
  66
1
  10
675.000000
  20
308.000000
  0
VERTEX
  8
C7
  10
675.000000
  20
308.000000
  0
VERTEX
  8
C7
  10
675.387500
  20
308.763100
  0
VERTEX
  8
C7
  10
675.617700
  20
309.529300
  0
VERTEX
  8
C7
  10
675.700000
  20
310.279600
  0
VERTEX
  8
C7
  10
675.643700
  20
310.995200
  0
VERTEX
  8
C7
  10
675.458000
  20
311.657500
  0
VERTEX
  8
C7
  10
675.152200
  20
312.247500
  0
VERTEX
  8
C7
  10
674.735700
  20
312.746600
  0
VERTEX
  8
C7
  10
674.217800
  20
313.135800
  0
VERTEX
  8
C7
  10
673.607700
  20
313.396400
  0
VERTEX
  8
C7
  10
672.914800
  20
313.509600
  0
VERTEX
  8
C7
  10
672.148300
  20
313.456700
  0
VERTEX
  8
C7
  10
671.317700
  20
313.218700
  0
VERTEX
  8
C7
  10
670.432100
  20
312.777000
  0
VERTEX
  8
C7
  10
669.783700
  20
312.366500
  0
VERTEX
  8
C7
  10
669.194500
  20
311.955600
  0
VERTEX
  8
C7
  10
668.662800
  20
311.544800
  0
VERTEX
  8
C7
  10
668.186800
  20
311.134600
  0
VERTEX
  8
C7
  10
667.764900
  20
310.725400
  0
VERTEX
  8
C7
  10
667.395200
  20
310.317700
  0
VERTEX
  8
C7
  10
667.076100
  20
309.912100
  0
VERTEX
  8
C7
  10
666.805800
  20
309.509000
  0
VERTEX
  8
C7
  10
666.582600
  20
309.109000
  0
VERTEX
  8
C7
  10
666.404800
  20
308.712500
  0
VERTEX
  8
C7
  10
666.270500
  20
308.320000
  0
VERTEX
  8
C7
  10
666.178200
  20
307.932000
  0
VERTEX
  8
C7
  10
666.126100
  20
307.549000
  0
VERTEX
  8
C7
  10
666.112400
  20
307.171500
  0
VERTEX
  8
C7
  10
666.135400
  20
306.800000
  0
VERTEX
  8
C7
  10
666.193400
  20
306.435000
  0
VERTEX
  8
C7
  10
666.284600
  20
306.077000
  0
VERTEX
  8
C7
  10
666.407400
  20
305.726500
  0
VERTEX
  8
C7
  10
666.559900
  20
305.383900
  0
VERTEX
  8
C7
  10
666.740500
  20
305.049800
  0
VERTEX
  8
C7
  10
666.947400
  20
304.724600
  0
VERTEX
  8
C7
  10
667.178900
  20
304.409000
  0
VERTEX
  8
C7
  10
667.433300
  20
304.103200
  0
VERTEX
  8
C7
  10
667.708900
  20
303.807900
  0
VERTEX
  8
C7
  10
668.003800
  20
303.523600
  0
VERTEX
  8
C7
  10
668.316400
  20
303.250600
  0
VERTEX
  8
C7
  10
668.645000
  20
302.989600
  0
VERTEX
  8
C7
  10
668.987700
  20
302.741000
  0
VERTEX
  8
C7
  10
669.343000
  20
302.505300
  0
VERTEX
  8
C7
  10
669.709000
  20
302.283100
  0
VERTEX
  8
C7
  10
670.084000
  20
302.074700
  0
VERTEX
  8
C7
  10
670.466400
  20
301.880700
  0
VERTEX
  8
C7
  10
670.854300
  20
301.701600
  0
VERTEX
  8
C7
  10
671.246000
  20
301.537900
  0
VERTEX
  8
C7
  10
671.639800
  20
301.390100
  0
VERTEX
  8
C7
  10
672.034100
  20
301.258700
  0
VERTEX
  8
C7
  10
672.426900
  20
301.144100
  0
VERTEX
  8
C7
  10
672.816700
  20
301.046800
  0
VERTEX
  8
C7
  10
673.201600
  20
300.967500
  0
VERTEX
  8
C7
  10
673.580000
  20
300.906400
  0
VERTEX
  8
C7
  10
673.950200
  20
300.864300
  0
VERTEX
  8
C7
  10
674.310300
  20
300.841400
  0
VERTEX
  8
C7
  10
674.658700
  20
300.838400
  0
VERTEX
  8
C7
  10
674.993600
  20
300.855700
  0
VERTEX
  8
C7
  10
675.313300
  20
300.893800
  0
VERTEX
  8
C7
  10
675.616100
  20
300.953300
  0
VERTEX
  8
C7
  10
675.900200
  20
301.034500
  0
VERTEX
  8
C7
  10
676.164000
  20
301.138100
  0
VERTEX
  8
C7
  10
676.405600
  20
301.264400
  0
VERTEX
  8
C7
  10
676.623400
  20
301.414100
  0
VERTEX
  8
C7
  10
676.815600
  20
301.587500
  0
VERTEX
  8
C7
  10
676.980400
  20
301.785200
  0
VERTEX
  8
C7
  10
677.116300
  20
302.007600
  0
VERTEX
  8
C7
  10
677.221400
  20
302.255400
  0
VERTEX
  8
C7
  10
677.293900
  20
302.528900
  0
VERTEX
  8
C7
  10
677.332300
  20
302.828600
  0
VERTEX
  8
C7
  10
677.334700
  20
303.155100
  0
VERTEX
  8
C7
  10
677.299300
  20
303.508800
  0
VERTEX
  8
C7
  10
677.224600
  20
303.890300
  0
VERTEX
  8
C7
  10
677.108700
  20
304.300000
  0
VERTEX
  8
C7
  10
676.950000
  20
304.738500
  0
VERTEX
  8
C7
  10
676.746600
  20
305.206100
  0
VERTEX
  8
C7
  10
676.496900
  20
305.703500
  0
VERTEX
  8
C7
  10
676.199100
  20
306.231000
  0
VERTEX
  8
C7
  10
675.851500
  20
306.789300
  0
VERTEX
  8
C7
  10
675.452300
  20
307.378800
  0
VERTEX
  8
C7
  10
675.000000
  20
308.000000
  0
SEQEND
  8
C7
  0
POLYLINE
  8
C7
  66
1
  10
678.000000
  20
314.000000
  0
VERTEX
  8
C7
  10
678.000000
  20
314.000000
  0
VERTEX
  8
C7
  10
678.000000
  20
308.000000
  0
VERTEX
  8
C7
  10
684.000000
  20
308.000000
  0
VERTEX
  8
C7
  10
684.000000
  20
314.000000
  0
VERTEX
  8
C7
  10
678.000000
  20
314.000000
  0
SEQEND
  8
C7
  0
POLYLINE
  8
C7
  66
1
  10
688.000000
  20
314.000000
  0
VERTEX
  8
C7
  10
688.000000
  20
314.000000
  0
VERTEX
  8
C7
  10
687.648700
  20
313.184400
  0
VERTEX
  8
C7
  10
687.307000
  20
312.342300
  0
VERTEX
  8
C7
  10
686.979200
  20
311.477400
  0
VERTEX
  8
C7
  10
686.669600
  20
310.593300
  0
VERTEX
  8
C7
  10
686.382600
  20
309.693800
  0
VERTEX
  8
C7
  10
686.122400
  20
308.782300
  0
VERTEX
  8
C7
  10
685.893400
  20
307.862500
  0
VERTEX
  8
C7
  10
685.699900
  20
306.938200
  0
VERTEX
  8
C7
  10
685.546300
  20
306.012900
  0
VERTEX
  8
C7
  10
685.436800
  20
305.090300
  0
VERTEX
  8
C7
  10
685.375800
  20
304.174100
  0
VERTEX
  8
C7
  10
685.367600
  20
303.267800
  0
VERTEX
  8
C7
  10
685.416500
  20
302.375200
  0
VERTEX
  8
C7
  10
685.526900
  20
301.499800
  0
VERTEX
  8
C7
  10
685.703100
  20
300.645300
  0
VERTEX
  8
C7
  10
685.949400
  20
299.815400
  0
VERTEX
  8
C7
  10
686.270200
  20
299.013700
  0
VERTEX
  8
C7
  10
686.669700
  20
298.243900
  0
VERTEX
  8
C7
  10
687.152300
  20
297.509500
  0
VERTEX
  8
C7
  10
687.722300
  20
296.814300
  0
VERTEX
  8
C7
  10
688.384000
  20
296.161900
  0
VERTEX
  8
C7
  10
689.141800
  20
295.555900
  0
VERTEX
  8
C7
  10
690.000000
  20
295.000000
  0
VERTEX
  8
C7
  10
690.000000
  20
314.000000
  0
VERTEX
  8
C7
  10
688.000000
  20
314.000000
  0
SEQEND
  8
C7
  0
POLYLINE
  8
C7
  66
1
  10
691.000000
  20
309.000000
  0
VERTEX
  8
C7
  10
691.000000
  20
309.000000
  0
VERTEX
  8
C7
  10
697.000000
  20
311.000000
  0
VERTEX
  8
C7
  10
694.000000
  20
305.000000
  0
VERTEX
  8
C7
  10
698.000000
  20
304.000000
  0
VERTEX
  8
C7
  10
698.000000
  20
303.000000
  0
VERTEX
  8
C7
  10
695.000000
  20
301.000000
  0
VERTEX
  8
C7
  10
691.000000
  20
304.000000
  0
VERTEX
  8
C7
  10
691.271800
  20
303.283000
  0
VERTEX
  8
C7
  10
691.635600
  20
302.600000
  0
VERTEX
  8
C7
  10
692.079400
  20
301.959100
  0
VERTEX
  8
C7
  10
692.591400
  20
301.368800
  0
VERTEX
  8
C7
  10
693.159700
  20
300.837100
  0
VERTEX
  8
C7
  10
693.772300
  20
300.372500
  0
VERTEX
  8
C7
  10
694.417400
  20
299.983300
  0
VERTEX
  8
C7
  10
695.083100
  20
299.677600
  0
VERTEX
  8
C7
  10
695.757500
  20
299.463900
  0
VERTEX
  8
C7
  10
696.428600
  20
299.350400
  0
VERTEX
  8
C7
  10
697.084700
  20
299.345300
  0
VERTEX
  8
C7
  10
697.713800
  20
299.457100
  0
VERTEX
  8
C7
  10
698.304100
  20
299.693900
  0
VERTEX
  8
C7
  10
698.843600
  20
300.064000
  0
VERTEX
  8
C7
  10
699.320400
  20
300.575800
  0
VERTEX
  8
C7
  10
699.722700
  20
301.237500
  0
VERTEX
  8
C7
  10
700.038500
  20
302.057400
  0
VERTEX
  8
C7
  10
700.256100
  20
303.043900
  0
VERTEX
  8
C7
  10
700.336400
  20
303.777900
  0
VERTEX
  8
C7
  10
700.356900
  20
304.522400
  0
VERTEX
  8
C7
  10
700.321000
  20
305.271600
  0
VERTEX
  8
C7
  10
700.232000
  20
306.020000
  0
VERTEX
  8
C7
  10
700.093300
  20
306.761800
  0
VERTEX
  8
C7
  10
699.908300
  20
307.491500
  0
VERTEX
  8
C7
  10
699.680500
  20
308.203200
  0
VERTEX
  8
C7
  10
699.413100
  20
308.891400
  0
VERTEX
  8
C7
  10
699.109700
  20
309.550500
  0
VERTEX
  8
C7
  10
698.773500
  20
310.174700
  0
VERTEX
  8
C7
  10
698.408100
  20
310.758400
  0
VERTEX
  8
C7
  10
698.016700
  20
311.295900
  0
VERTEX
  8
C7
  10
697.602800
  20
311.781700
  0
VERTEX
  8
C7
  10
697.169800
  20
312.209900
  0
VERTEX
  8
C7
  10
696.721000
  20
312.575000
  0
VERTEX
  8
C7
  10
696.259900
  20
312.871300
  0
VERTEX
  8
C7
  10
695.789900
  20
313.093100
  0
VERTEX
  8
C7
  10
695.314300
  20
313.234800
  0
VERTEX
  8
C7
  10
694.836600
  20
313.290700
  0
VERTEX
  8
C7
  10
694.360100
  20
313.255200
  0
VERTEX
  8
C7
  10
693.888200
  20
313.122600
  0
VERTEX
  8
C7
  10
693.424300
  20
312.887200
  0
VERTEX
  8
C7
  10
692.971900
  20
312.543400
  0
VERTEX
  8
C7
  10
692.534300
  20
312.085500
  0
VERTEX
  8
C7
  10
692.114900
  20
311.507900
  0
VERTEX
  8
C7
  10
691.717100
  20
310.804800
  0
VERTEX
  8
C7
  10
691.344300
  20
309.970800
  0
VERTEX
  8
C7
  10
691.000000
  20
309.000000
  0
SEQEND
  8
C7
  0
POLYLINE
  8
C7
  66
1
  10
702.000000
  20
308.000000
  0
VERTEX
  8
C7
  10
702.000000
  20
308.000000
  0
VERTEX
  8
C7
  10
706.000000
  20
309.000000
  0
VERTEX
  8
C7
  10
706.000000
  20
299.000000
  0
VERTEX
  8
C7
  10
708.000000
  20
299.000000
  0
VERTEX
  8
C7
  10
708.000000
  20
314.000000
  0
VERTEX
  8
C7
  10
702.000000
  20
308.000000
  0
SEQEND
  8
C7
  0
POLYLINE
  8
C7
  66
1
  10
715.132751
  20
313.148926
  0
VERTEX
  8
C7
  10
715.132751
  20
313.148926
  0
VERTEX
  8
C7
  10
714.559200
  20
312.900200
  0
VERTEX
  8
C7
  10
714.040400
  20
312.559700
  0
VERTEX
  8
C7
  10
713.575900
  20
312.135900
  0
VERTEX
  8
C7
  10
713.165400
  20
311.637500
  0
VERTEX
  8
C7
  10
712.808500
  20
311.073400
  0
VERTEX
  8
C7
  10
712.504900
  20
310.452200
  0
VERTEX
  8
C7
  10
712.254400
  20
309.782700
  0
VERTEX
  8
C7
  10
712.056500
  20
309.073500
  0
VERTEX
  8
C7
  10
711.910900
  20
308.333400
  0
VERTEX
  8
C7
  10
711.817300
  20
307.571000
  0
VERTEX
  8
C7
  10
711.775300
  20
306.795200
  0
VERTEX
  8
C7
  10
711.784600
  20
306.014600
  0
VERTEX
  8
C7
  10
711.845000
  20
305.238000
  0
VERTEX
  8
C7
  10
711.956000
  20
304.474000
  0
VERTEX
  8
C7
  10
712.117300
  20
303.731400
  0
VERTEX
  8
C7
  10
712.328600
  20
303.019000
  0
VERTEX
  8
C7
  10
712.589500
  20
302.345300
  0
VERTEX
  8
C7
  10
712.899800
  20
301.719200
  0
VERTEX
  8
C7
  10
713.259000
  20
301.149300
  0
VERTEX
  8
C7
  10
713.666900
  20
300.644400
  0
VERTEX
  8
C7
  10
714.123100
  20
300.213200
  0
VERTEX
  8
C7
  10
714.627300
  20
299.864500
  0
VERTEX
  8
C7
  10
715.179200
  20
299.606800
  0
VERTEX
  8
C7
  10
715.778400
  20
299.449000
  0
VERTEX
  8
C7
  10
716.424500
  20
299.399800
  0
VERTEX
  8
C7
  10
717.117300
  20
299.467900
  0
VERTEX
  8
C7
  10
717.856500
  20
299.662000
  0
VERTEX
  8
C7
  10
718.448100
  20
299.925800
  0
VERTEX
  8
C7
  10
718.980600
  20
300.287200
  0
VERTEX
  8
C7
  10
719.454400
  20
300.736400
  0
VERTEX
  8
C7
  10
719.869900
  20
301.263800
  0
VERTEX
  8
C7
  10
720.227600
  20
301.859800
  0
VERTEX
  8
C7
  10
720.527800
  20
302.514700
  0
VERTEX
  8
C7
  10
720.771100
  20
303.218900
  0
VERTEX
  8
C7
  10
720.957800
  20
303.962800
  0
VERTEX
  8
C7
  10
721.088300
  20
304.736600
  0
VERTEX
  8
C7
  10
721.163100
  20
305.530900
  0
VERTEX
  8
C7
  10
721.182700
  20
306.335900
  0
VERTEX
  8
C7
  10
721.147400
  20
307.142100
  0
VERTEX
  8
C7
  10
721.057600
  20
307.939700
  0
VERTEX
  8
C7
  10
720.913900
  20
308.719100
  0
VERTEX
  8
C7
  10
720.716600
  20
309.470800
  0
VERTEX
  8
C7
  10
720.466100
  20
310.185000
  0
VERTEX
  8
C7
  10
720.162900
  20
310.852200
  0
VERTEX
  8
C7
  10
719.807500
  20
311.462700
  0
VERTEX
  8
C7
  10
719.400100
  20
312.006800
  0
VERTEX
  8
C7
  10
718.941400
  20
312.475000
  0
VERTEX
  8
C7
  10
718.431600
  20
312.857500
  0
VERTEX
  8
C7
  10
717.871200
  20
313.144800
  0
VERTEX
  8
C7
  10
717.260800
  20
313.327200
  0
VERTEX
  8
C7
  10
716.600500
  20
313.395100
  0
VERTEX
  8
C7
  10
715.891000
  20
313.338900
  0
VERTEX
  8
C7
  10
715.132700
  20
313.148900
  0
SEQEND
  8
C7
  0
POLYLINE
  8
C7
  66
1
  10
754.000000
  20
314.000000
  0
VERTEX
  8
C7
  10
754.000000
  20
314.000000
  0
VERTEX
  8
C7
  10
754.000000
  20
295.000000
  0
VERTEX
  8
C7
  10
754.862100
  20
295.553800
  0
VERTEX
  8
C7
  10
755.628100
  20
296.158900
  0
VERTEX
  8
C7
  10
756.301700
  20
296.811500
  0
VERTEX
  8
C7
  10
756.886500
  20
297.507800
  0
VERTEX
  8
C7
  10
757.386300
  20
298.243900
  0
VERTEX
  8
C7
  10
757.804500
  20
299.016200
  0
VERTEX
  8
C7
  10
758.145000
  20
299.820800
  0
VERTEX
  8
C7
  10
758.411400
  20
300.653900
  0
VERTEX
  8
C7
  10
758.607200
  20
301.511800
  0
VERTEX
  8
C7
  10
758.736300
  20
302.390700
  0
VERTEX
  8
C7
  10
758.802200
  20
303.286700
  0
VERTEX
  8
C7
  10
758.808700
  20
304.196100
  0
VERTEX
  8
C7
  10
758.759300
  20
305.115100
  0
VERTEX
  8
C7
  10
758.657700
  20
306.039900
  0
VERTEX
  8
C7
  10
758.507600
  20
306.966800
  0
VERTEX
  8
C7
  10
758.312700
  20
307.891900
  0
VERTEX
  8
C7
  10
758.076600
  20
308.811400
  0
VERTEX
  8
C7
  10
757.803000
  20
309.721600
  0
VERTEX
  8
C7
  10
757.495400
  20
310.618700
  0
VERTEX
  8
C7
  10
757.157700
  20
311.498800
  0
VERTEX
  8
C7
  10
756.793500
  20
312.358300
  0
VERTEX
  8
C7
  10
756.406300
  20
313.193300
  0
VERTEX
  8
C7
  10
756.000000
  20
314.000000
  0
VERTEX
  8
C7
  10
754.000000
  20
314.000000
  0
SEQEND
  8
C7
  0
POLYLINE
  8
C7
  66
1
  10
670.000000
  20
308.000000
  0
VERTEX
  8
C7
  10
670.000000
  20
308.000000
  0
VERTEX
  8
C7
  10
674.000000
  20
311.000000
  0
VERTEX
  8
C7
  10
670.000000
  20
308.000000
  0
SEQEND
  8
C7
  0
POLYLINE
  8
C7
  66
1
  10
715.000000
  20
311.000000
  0
VERTEX
  8
C7
  10
715.000000
  20
311.000000
  0
VERTEX
  8
C7
  10
716.000000
  20
301.000000
  0
VERTEX
  8
C7
  10
717.000000
  20
301.000000
  0
VERTEX
  8
C7
  10
718.000000
  20
311.000000
  0
VERTEX
  8
C7
  10
715.000000
  20
311.000000
  0
SEQEND
  8
C7
  0
POLYLINE
  8
C7
  66
1
  10
106.000000
  20
310.000000
  0
VERTEX
  8
C7
  10
106.000000
  20
310.000000
  0
VERTEX
  8
C7
  10
106.000000
  20
215.000000
  0
VERTEX
  8
C7
  10
106.008300
  20
214.339600
  0
VERTEX
  8
C7
  10
106.032200
  20
213.617900
  0
VERTEX
  8
C7
  10
106.069500
  20
212.839300
  0
VERTEX
  8
C7
  10
106.118300
  20
212.008100
  0
VERTEX
  8
C7
  10
106.176500
  20
211.128600
  0
VERTEX
  8
C7
  10
106.242200
  20
210.205100
  0
VERTEX
  8
C7
  10
106.313400
  20
209.241900
  0
VERTEX
  8
C7
  10
106.388000
  20
208.243300
  0
VERTEX
  8
C7
  10
106.464100
  20
207.213700
  0
VERTEX
  8
C7
  10
106.539700
  20
206.157300
  0
VERTEX
  8
C7
  10
106.612800
  20
205.078500
  0
VERTEX
  8
C7
  10
106.681300
  20
203.981600
  0
VERTEX
  8
C7
  10
106.743300
  20
202.870900
  0
VERTEX
  8
C7
  10
106.796800
  20
201.750800
  0
VERTEX
  8
C7
  10
106.839700
  20
200.625400
  0
VERTEX
  8
C7
  10
106.870200
  20
199.499200
  0
VERTEX
  8
C7
  10
106.886100
  20
198.376500
  0
VERTEX
  8
C7
  10
106.885500
  20
197.261500
  0
VERTEX
  8
C7
  10
106.866400
  20
196.158700
  0
VERTEX
  8
C7
  10
106.826800
  20
195.072200
  0
VERTEX
  8
C7
  10
106.764700
  20
194.006400
  0
VERTEX
  8
C7
  10
106.678100
  20
192.965700
  0
VERTEX
  8
C7
  10
106.565000
  20
191.954300
  0
VERTEX
  8
C7
  10
106.423400
  20
190.976600
  0
VERTEX
  8
C7
  10
106.251300
  20
190.036900
  0
VERTEX
  8
C7
  10
106.046600
  20
189.139400
  0
VERTEX
  8
C7
  10
105.807500
  20
188.288600
  0
VERTEX
  8
C7
  10
105.531900
  20
187.488700
  0
VERTEX
  8
C7
  10
105.217800
  20
186.744000
  0
VERTEX
  8
C7
  10
104.863200
  20
186.058800
  0
VERTEX
  8
C7
  10
104.466100
  20
185.437500
  0
VERTEX
  8
C7
  10
104.024600
  20
184.884400
  0
VERTEX
  8
C7
  10
103.536500
  20
184.403800
  0
VERTEX
  8
C7
  10
103.000000
  20
184.000000
  0
VERTEX
  8
C7
  10
105.000000
  20
171.000000
  0
VERTEX
  8
C7
  10
101.000000
  20
171.000000
  0
VERTEX
  8
C7
  10
101.000000
  20
170.000000
  0
VERTEX
  8
C7
  10
198.000000
  20
170.000000
  0
VERTEX
  8
C7
  10
198.000000
  20
171.000000
  0
VERTEX
  8
C7
  10
107.000000
  20
171.000000
  0
VERTEX
  8
C7
  10
107.118900
  20
171.956800
  0
VERTEX
  8
C7
  10
107.232800
  20
172.915800
  0
VERTEX
  8
C7
  10
107.342000
  20
173.877100
  0
VERTEX
  8
C7
  10
107.446300
  20
174.840600
  0
VERTEX
  8
C7
  10
107.546000
  20
175.806300
  0
VERTEX
  8
C7
  10
107.641000
  20
176.774000
  0
VERTEX
  8
C7
  10
107.731500
  20
177.743800
  0
VERTEX
  8
C7
  10
107.817600
  20
178.715700
  0
VERTEX
  8
C7
  10
107.899200
  20
179.689500
  0
VERTEX
  8
C7
  10
107.976600
  20
180.665200
  0
VERTEX
  8
C7
  10
108.049700
  20
181.642800
  0
VERTEX
  8
C7
  10
108.118600
  20
182.622200
  0
VERTEX
  8
C7
  10
108.183500
  20
183.603500
  0
VERTEX
  8
C7
  10
108.244400
  20
184.586500
  0
VERTEX
  8
C7
  10
108.301300
  20
185.571200
  0
VERTEX
  8
C7
  10
108.354500
  20
186.557600
  0
VERTEX
  8
C7
  10
108.403800
  20
187.545600
  0
VERTEX
  8
C7
  10
108.449400
  20
188.535200
  0
VERTEX
  8
C7
  10
108.491500
  20
189.526300
  0
VERTEX
  8
C7
  10
108.530000
  20
190.518900
  0
VERTEX
  8
C7
  10
108.565000
  20
191.513000
  0
VERTEX
  8
C7
  10
108.596700
  20
192.508400
  0
VERTEX
  8
C7
  10
108.625100
  20
193.505300
  0
VERTEX
  8
C7
  10
108.650200
  20
194.503400
  0
VERTEX
  8
C7
  10
108.672200
  20
195.502800
  0
VERTEX
  8
C7
  10
108.691100
  20
196.503500
  0
VERTEX
  8
C7
  10
108.707000
  20
197.505400
  0
VERTEX
  8
C7
  10
108.720000
  20
198.508400
  0
VERTEX
  8
C7
  10
108.730200
  20
199.512500
  0
VERTEX
  8
C7
  10
108.737600
  20
200.517600
  0
VERTEX
  8
C7
  10
108.742300
  20
201.523800
  0
VERTEX
  8
C7
  10
108.744400
  20
202.531000
  0
VERTEX
  8
C7
  10
108.744000
  20
203.539000
  0
VERTEX
  8
C7
  10
108.741200
  20
204.548000
  0
VERTEX
  8
C7
  10
108.735900
  20
205.557800
  0
VERTEX
  8
C7
  10
108.728400
  20
206.568400
  0
VERTEX
  8
C7
  10
108.718600
  20
207.579800
  0
VERTEX
  8
C7
  10
108.706700
  20
208.591800
  0
VERTEX
  8
C7
  10
108.692800
  20
209.604600
  0
VERTEX
  8
C7
  10
108.676800
  20
210.617900
  0
VERTEX
  8
C7
  10
108.659000
  20
211.631900
  0
VERTEX
  8
C7
  10
108.639300
  20
212.646400
  0
VERTEX
  8
C7
  10
108.617800
  20
213.661300
  0
VERTEX
  8
C7
  10
108.594700
  20
214.676800
  0
VERTEX
  8
C7
  10
108.570000
  20
215.692600
  0
VERTEX
  8
C7
  10
108.543700
  20
216.708800
  0
VERTEX
  8
C7
  10
108.516000
  20
217.725300
  0
VERTEX
  8
C7
  10
108.487000
  20
218.742100
  0
VERTEX
  8
C7
  10
108.456600
  20
219.759200
  0
VERTEX
  8
C7
  10
108.425100
  20
220.776400
  0
VERTEX
  8
C7
  10
108.392400
  20
221.793700
  0
VERTEX
  8
C7
  10
108.358600
  20
222.811200
  0
VERTEX
  8
C7
  10
108.323900
  20
223.828700
  0
VERTEX
  8
C7
  10
108.288300
  20
224.846300
  0
VERTEX
  8
C7
  10
108.251800
  20
225.863800
  0
VERTEX
  8
C7
  10
108.214600
  20
226.881300
  0
VERTEX
  8
C7
  10
108.176700
  20
227.898600
  0
VERTEX
  8
C7
  10
108.138200
  20
228.915800
  0
VERTEX
  8
C7
  10
108.099200
  20
229.932800
  0
VERTEX
  8
C7
  10
108.059800
  20
230.949500
  0
VERTEX
  8
C7
  10
108.020000
  20
231.965900
  0
VERTEX
  8
C7
  10
107.979900
  20
232.982100
  0
VERTEX
  8
C7
  10
107.939600
  20
233.997800
  0
VERTEX
  8
C7
  10
107.899200
  20
235.013100
  0
VERTEX
  8
C7
  10
107.858800
  20
236.028000
  0
VERTEX
  8
C7
  10
107.818300
  20
237.042300
  0
VERTEX
  8
C7
  10
107.778000
  20
238.056200
  0
VERTEX
  8
C7
  10
107.737800
  20
239.069400
  0
VERTEX
  8
C7
  10
107.697900
  20
240.082000
  0
VERTEX
  8
C7
  10
107.658400
  20
241.093900
  0
VERTEX
  8
C7
  10
107.619200
  20
242.105000
  0
VERTEX
  8
C7
  10
107.580600
  20
243.115500
  0
VERTEX
  8
C7
  10
107.542500
  20
244.125100
  0
VERTEX
  8
C7
  10
107.505000
  20
245.133800
  0
VERTEX
  8
C7
  10
107.468300
  20
246.141700
  0
VERTEX
  8
C7
  10
107.432400
  20
247.148600
  0
VERTEX
  8
C7
  10
107.397400
  20
248.154500
  0
VERTEX
  8
C7
  10
107.363300
  20
249.159400
  0
VERTEX
  8
C7
  10
107.330200
  20
250.163300
  0
VERTEX
  8
C7
  10
107.298300
  20
251.166000
  0
VERTEX
  8
C7
  10
107.267500
  20
252.167600
  0
VERTEX
  8
C7
  10
107.238000
  20
253.167900
  0
VERTEX
  8
C7
  10
107.209900
  20
254.167100
  0
VERTEX
  8
C7
  10
107.183100
  20
255.164900
  0
VERTEX
  8
C7
  10
107.157900
  20
256.161400
  0
VERTEX
  8
C7
  10
107.134200
  20
257.156600
  0
VERTEX
  8
C7
  10
107.112200
  20
258.150300
  0
VERTEX
  8
C7
  10
107.091900
  20
259.142500
  0
VERTEX
  8
C7
  10
107.073400
  20
260.133300
  0
VERTEX
  8
C7
  10
107.056900
  20
261.122500
  0
VERTEX
  8
C7
  10
107.042200
  20
262.110100
  0
VERTEX
  8
C7
  10
107.029600
  20
263.096100
  0
VERTEX
  8
C7
  10
107.019100
  20
264.080400
  0
VERTEX
  8
C7
  10
107.010900
  20
265.063000
  0
VERTEX
  8
C7
  10
107.004900
  20
266.043800
  0
VERTEX
  8
C7
  10
107.001200
  20
267.022800
  0
VERTEX
  8
C7
  10
107.000000
  20
268.000000
  0
VERTEX
  8
C7
  10
107.005700
  20
268.844600
  0
VERTEX
  8
C7
  10
107.022200
  20
269.711300
  0
VERTEX
  8
C7
  10
107.048600
  20
270.598800
  0
VERTEX
  8
C7
  10
107.084100
  20
271.506000
  0
VERTEX
  8
C7
  10
107.127700
  20
272.431800
  0
VERTEX
  8
C7
  10
107.178500
  20
273.374900
  0
VERTEX
  8
C7
  10
107.235700
  20
274.334300
  0
VERTEX
  8
C7
  10
107.298400
  20
275.308900
  0
VERTEX
  8
C7
  10
107.365600
  20
276.297300
  0
VERTEX
  8
C7
  10
107.436500
  20
277.298600
  0
VERTEX
  8
C7
  10
107.510200
  20
278.311500
  0
VERTEX
  8
C7
  10
107.585800
  20
279.334900
  0
VERTEX
  8
C7
  10
107.662400
  20
280.367700
  0
VERTEX
  8
C7
  10
107.739100
  20
281.408600
  0
VERTEX
  8
C7
  10
107.815000
  20
282.456600
  0
VERTEX
  8
C7
  10
107.889200
  20
283.510600
  0
VERTEX
  8
C7
  10
107.960900
  20
284.569300
  0
VERTEX
  8
C7
  10
108.029100
  20
285.631600
  0
VERTEX
  8
C7
  10
108.093000
  20
286.696300
  0
VERTEX
  8
C7
  10
108.151600
  20
287.762400
  0
VERTEX
  8
C7
  10
108.204000
  20
288.828600
  0
VERTEX
  8
C7
  10
108.249500
  20
289.893800
  0
VERTEX
  8
C7
  10
108.287000
  20
290.956900
  0
VERTEX
  8
C7
  10
108.315700
  20
292.016700
  0
VERTEX
  8
C7
  10
108.334700
  20
293.072100
  0
VERTEX
  8
C7
  10
108.343100
  20
294.121900
  0
VERTEX
  8
C7
  10
108.340000
  20
295.164900
  0
VERTEX
  8
C7
  10
108.324500
  20
296.200100
  0
VERTEX
  8
C7
  10
108.295800
  20
297.226200
  0
VERTEX
  8
C7
  10
108.252900
  20
298.242200
  0
VERTEX
  8
C7
  10
108.194900
  20
299.246800
  0
VERTEX
  8
C7
  10
108.121000
  20
300.238900
  0
VERTEX
  8
C7
  10
108.030200
  20
301.217400
  0
VERTEX
  8
C7
  10
107.921700
  20
302.181200
  0
VERTEX
  8
C7
  10
107.794600
  20
303.128900
  0
VERTEX
  8
C7
  10
107.647900
  20
304.059700
  0
VERTEX
  8
C7
  10
107.480900
  20
304.972100
  0
VERTEX
  8
C7
  10
107.292500
  20
305.865300
  0
VERTEX
  8
C7
  10
107.082000
  20
306.737800
  0
VERTEX
  8
C7
  10
106.848300
  20
307.588800
  0
VERTEX
  8
C7
  10
106.590700
  20
308.416800
  0
VERTEX
  8
C7
  10
106.308200
  20
309.221000
  0
VERTEX
  8
C7
  10
106.000000
  20
310.000000
  0
SEQEND
  8
C7
  0
POLYLINE
  8
C7
  66
1
  10
723.000000
  20
310.000000
  0
VERTEX
  8
C7
  10
723.000000
  20
310.000000
  0
VERTEX
  8
C7
  10
723.000000
  20
299.000000
  0
VERTEX
  8
C7
  10
725.000000
  20
299.000000
  0
VERTEX
  8
C7
  10
728.000000
  20
307.000000
  0
VERTEX
  8
C7
  10
728.000000
  20
299.000000
  0
VERTEX
  8
C7
  10
731.000000
  20
299.000000
  0
VERTEX
  8
C7
  10
731.000000
  20
307.000000
  0
VERTEX
  8
C7
  10
734.000000
  20
307.000000
  0
VERTEX
  8
C7
  10
734.000000
  20
299.000000
  0
VERTEX
  8
C7
  10
737.000000
  20
299.000000
  0
VERTEX
  8
C7
  10
736.976500
  20
300.291100
  0
VERTEX
  8
C7
  10
736.907700
  20
301.476500
  0
VERTEX
  8
C7
  10
736.793400
  20
302.560800
  0
VERTEX
  8
C7
  10
736.632800
  20
303.548400
  0
VERTEX
  8
C7
  10
736.425600
  20
304.444000
  0
VERTEX
  8
C7
  10
736.171400
  20
305.252100
  0
VERTEX
  8
C7
  10
735.869500
  20
305.977100
  0
VERTEX
  8
C7
  10
735.519600
  20
306.623700
  0
VERTEX
  8
C7
  10
735.121200
  20
307.196300
  0
VERTEX
  8
C7
  10
734.673700
  20
307.699600
  0
VERTEX
  8
C7
  10
734.176800
  20
308.138000
  0
VERTEX
  8
C7
  10
733.630000
  20
308.516100
  0
VERTEX
  8
C7
  10
733.032700
  20
308.838400
  0
VERTEX
  8
C7
  10
732.384600
  20
309.109500
  0
VERTEX
  8
C7
  10
731.685100
  20
309.333900
  0
VERTEX
  8
C7
  10
730.933700
  20
309.516100
  0
VERTEX
  8
C7
  10
730.130100
  20
309.660600
  0
VERTEX
  8
C7
  10
729.273600
  20
309.772100
  0
VERTEX
  8
C7
  10
728.363900
  20
309.855000
  0
VERTEX
  8
C7
  10
727.400500
  20
309.913900
  0
VERTEX
  8
C7
  10
726.382800
  20
309.953300
  0
VERTEX
  8
C7
  10
725.310500
  20
309.977700
  0
VERTEX
  8
C7
  10
724.183000
  20
309.991800
  0
VERTEX
  8
C7
  10
723.000000
  20
310.000000
  0
SEQEND
  8
C7
  0
POLYLINE
  8
C7
  66
1
  10
738.000000
  20
310.000000
  0
VERTEX
  8
C7
  10
738.000000
  20
310.000000
  0
VERTEX
  8
C7
  10
738.000000
  20
299.000000
  0
VERTEX
  8
C7
  10
741.000000
  20
299.000000
  0
VERTEX
  8
C7
  10
741.000000
  20
307.000000
  0
VERTEX
  8
C7
  10
744.000000
  20
307.000000
  0
VERTEX
  8
C7
  10
744.000000
  20
299.000000
  0
VERTEX
  8
C7
  10
746.000000
  20
299.000000
  0
VERTEX
  8
C7
  10
747.000000
  20
307.000000
  0
VERTEX
  8
C7
  10
749.000000
  20
307.000000
  0
VERTEX
  8
C7
  10
750.000000
  20
299.000000
  0
VERTEX
  8
C7
  10
752.000000
  20
299.000000
  0
VERTEX
  8
C7
  10
751.981800
  20
300.283000
  0
VERTEX
  8
C7
  10
751.927000
  20
301.461700
  0
VERTEX
  8
C7
  10
751.834400
  20
302.540500
  0
VERTEX
  8
C7
  10
751.702800
  20
303.523800
  0
VERTEX
  8
C7
  10
751.531300
  20
304.416100
  0
VERTEX
  8
C7
  10
751.318600
  20
305.221800
  0
VERTEX
  8
C7
  10
751.063800
  20
305.945300
  0
VERTEX
  8
C7
  10
750.765600
  20
306.591300
  0
VERTEX
  8
C7
  10
750.423000
  20
307.163900
  0
VERTEX
  8
C7
  10
750.034900
  20
307.667900
  0
VERTEX
  8
C7
  10
749.600200
  20
308.107400
  0
VERTEX
  8
C7
  10
749.117700
  20
308.487200
  0
VERTEX
  8
C7
  10
748.586400
  20
308.811500
  0
VERTEX
  8
C7
  10
748.005100
  20
309.084800
  0
VERTEX
  8
C7
  10
747.372900
  20
309.311600
  0
VERTEX
  8
C7
  10
746.688400
  20
309.496300
  0
VERTEX
  8
C7
  10
745.950700
  20
309.643400
  0
VERTEX
  8
C7
  10
745.158700
  20
309.757400
  0
VERTEX
  8
C7
  10
744.311200
  20
309.842600
  0
VERTEX
  8
C7
  10
743.407200
  20
309.903500
  0
VERTEX
  8
C7
  10
742.445500
  20
309.944700
  0
VERTEX
  8
C7
  10
741.425000
  20
309.970400
  0
VERTEX
  8
C7
  10
740.344700
  20
309.985200
  0
VERTEX
  8
C7
  10
739.203300
  20
309.993600
  0
VERTEX
  8
C7
  10
738.000000
  20
310.000000
  0
SEQEND
  8
C7
  0
POLYLINE
  8
C7
  66
1
  10
249.000000
  20
307.000000
  0
VERTEX
  8
C7
  10
249.000000
  20
307.000000
  0
VERTEX
  8
C7
  10
249.000000
  20
301.000000
  0
VERTEX
  8
C7
  10
250.000000
  20
301.000000
  0
VERTEX
  8
C7
  10
249.000000
  20
307.000000
  0
SEQEND
  8
C7
  0
POLYLINE
  8
C7
  66
1
  10
537.000000
  20
307.000000
  0
VERTEX
  8
C7
  10
537.000000
  20
307.000000
  0
VERTEX
  8
C7
  10
537.000000
  20
301.000000
  0
VERTEX
  8
C7
  10
538.000000
  20
301.000000
  0
VERTEX
  8
C7
  10
537.000000
  20
307.000000
  0
SEQEND
  8
C7
  0
POLYLINE
  8
C7
  66
1
  10
671.000000
  20
306.000000
  0
VERTEX
  8
C7
  10
671.000000
  20
306.000000
  0
VERTEX
  8
C7
  10
672.000000
  20
301.000000
  0
VERTEX
  8
C7
  10
674.000000
  20
306.000000
  0
VERTEX
  8
C7
  10
671.000000
  20
306.000000
  0
SEQEND
  8
C7
  0
POLYLINE
  8
C7
  66
1
  10
249.000000
  20
298.000000
  0
VERTEX
  8
C7
  10
249.000000
  20
298.000000
  0
VERTEX
  8
C7
  10
249.000000
  20
292.000000
  0
VERTEX
  8
C7
  10
250.000000
  20
292.000000
  0
VERTEX
  8
C7
  10
249.000000
  20
298.000000
  0
SEQEND
  8
C7
  0
POLYLINE
  8
C7
  66
1
  10
537.000000
  20
298.000000
  0
VERTEX
  8
C7
  10
537.000000
  20
298.000000
  0
VERTEX
  8
C7
  10
537.000000
  20
292.000000
  0
VERTEX
  8
C7
  10
538.000000
  20
292.000000
  0
VERTEX
  8
C7
  10
537.000000
  20
298.000000
  0
SEQEND
  8
C7
  0
POLYLINE
  8
C7
  66
1
  10
249.000000
  20
288.000000
  0
VERTEX
  8
C7
  10
249.000000
  20
288.000000
  0
VERTEX
  8
C7
  10
249.000000
  20
282.000000
  0
VERTEX
  8
C7
  10
250.000000
  20
282.000000
  0
VERTEX
  8
C7
  10
249.000000
  20
288.000000
  0
SEQEND
  8
C7
  0
POLYLINE
  8
C7
  66
1
  10
537.000000
  20
288.000000
  0
VERTEX
  8
C7
  10
537.000000
  20
288.000000
  0
VERTEX
  8
C7
  10
537.000000
  20
282.000000
  0
VERTEX
  8
C7
  10
538.000000
  20
282.000000
  0
VERTEX
  8
C7
  10
537.000000
  20
288.000000
  0
SEQEND
  8
C7
  0
POLYLINE
  8
C7
  66
1
  10
249.000000
  20
278.000000
  0
VERTEX
  8
C7
  10
249.000000
  20
278.000000
  0
VERTEX
  8
C7
  10
249.000000
  20
273.000000
  0
VERTEX
  8
C7
  10
250.000000
  20
273.000000
  0
VERTEX
  8
C7
  10
249.000000
  20
278.000000
  0
SEQEND
  8
C7
  0
POLYLINE
  8
C7
  66
1
  10
537.000000
  20
278.000000
  0
VERTEX
  8
C7
  10
537.000000
  20
278.000000
  0
VERTEX
  8
C7
  10
537.000000
  20
273.000000
  0
VERTEX
  8
C7
  10
538.000000
  20
273.000000
  0
VERTEX
  8
C7
  10
537.000000
  20
278.000000
  0
SEQEND
  8
C7
  0
POLYLINE
  8
C7
  66
1
  10
249.000000
  20
269.000000
  0
VERTEX
  8
C7
  10
249.000000
  20
269.000000
  0
VERTEX
  8
C7
  10
249.000000
  20
263.000000
  0
VERTEX
  8
C7
  10
250.000000
  20
263.000000
  0
VERTEX
  8
C7
  10
249.000000
  20
269.000000
  0
SEQEND
  8
C7
  0
POLYLINE
  8
C7
  66
1
  10
537.000000
  20
269.000000
  0
VERTEX
  8
C7
  10
537.000000
  20
269.000000
  0
VERTEX
  8
C7
  10
537.000000
  20
263.000000
  0
VERTEX
  8
C7
  10
538.000000
  20
263.000000
  0
VERTEX
  8
C7
  10
537.000000
  20
269.000000
  0
SEQEND
  8
C7
  0
POLYLINE
  8
C7
  66
1
  10
249.000000
  20
259.000000
  0
VERTEX
  8
C7
  10
249.000000
  20
259.000000
  0
VERTEX
  8
C7
  10
249.000000
  20
253.000000
  0
VERTEX
  8
C7
  10
250.000000
  20
253.000000
  0
VERTEX
  8
C7
  10
249.000000
  20
259.000000
  0
SEQEND
  8
C7
  0
POLYLINE
  8
C7
  66
1
  10
537.000000
  20
259.000000
  0
VERTEX
  8
C7
  10
537.000000
  20
259.000000
  0
VERTEX
  8
C7
  10
537.000000
  20
253.000000
  0
VERTEX
  8
C7
  10
538.000000
  20
253.000000
  0
VERTEX
  8
C7
  10
537.000000
  20
259.000000
  0
SEQEND
  8
C7
  0
POLYLINE
  8
C7
  66
1
  10
249.000000
  20
250.000000
  0
VERTEX
  8
C7
  10
249.000000
  20
250.000000
  0
VERTEX
  8
C7
  10
249.000000
  20
244.000000
  0
VERTEX
  8
C7
  10
250.000000
  20
244.000000
  0
VERTEX
  8
C7
  10
249.000000
  20
250.000000
  0
SEQEND
  8
C7
  0
POLYLINE
  8
C7
  66
1
  10
537.000000
  20
250.000000
  0
VERTEX
  8
C7
  10
537.000000
  20
250.000000
  0
VERTEX
  8
C7
  10
537.000000
  20
244.000000
  0
VERTEX
  8
C7
  10
538.000000
  20
244.000000
  0
VERTEX
  8
C7
  10
537.000000
  20
250.000000
  0
SEQEND
  8
C7
  0
POLYLINE
  8
C7
  66
1
  10
249.000000
  20
240.000000
  0
VERTEX
  8
C7
  10
249.000000
  20
240.000000
  0
VERTEX
  8
C7
  10
249.000000
  20
234.000000
  0
VERTEX
  8
C7
  10
250.000000
  20
234.000000
  0
VERTEX
  8
C7
  10
249.000000
  20
240.000000
  0
SEQEND
  8
C7
  0
POLYLINE
  8
C7
  66
1
  10
537.000000
  20
240.000000
  0
VERTEX
  8
C7
  10
537.000000
  20
240.000000
  0
VERTEX
  8
C7
  10
537.000000
  20
234.000000
  0
VERTEX
  8
C7
  10
538.000000
  20
234.000000
  0
VERTEX
  8
C7
  10
537.000000
  20
240.000000
  0
SEQEND
  8
C7
  0
POLYLINE
  8
C7
  66
1
  10
249.000000
  20
231.000000
  0
VERTEX
  8
C7
  10
249.000000
  20
231.000000
  0
VERTEX
  8
C7
  10
249.000000
  20
225.000000
  0
VERTEX
  8
C7
  10
250.000000
  20
225.000000
  0
VERTEX
  8
C7
  10
249.000000
  20
231.000000
  0
SEQEND
  8
C7
  0
POLYLINE
  8
C7
  66
1
  10
537.000000
  20
231.000000
  0
VERTEX
  8
C7
  10
537.000000
  20
231.000000
  0
VERTEX
  8
C7
  10
537.000000
  20
225.000000
  0
VERTEX
  8
C7
  10
538.000000
  20
225.000000
  0
VERTEX
  8
C7
  10
537.000000
  20
231.000000
  0
SEQEND
  8
C7
  0
POLYLINE
  8
C7
  66
1
  10
249.000000
  20
221.000000
  0
VERTEX
  8
C7
  10
249.000000
  20
221.000000
  0
VERTEX
  8
C7
  10
249.000000
  20
215.000000
  0
VERTEX
  8
C7
  10
250.000000
  20
215.000000
  0
VERTEX
  8
C7
  10
249.000000
  20
221.000000
  0
SEQEND
  8
C7
  0
POLYLINE
  8
C7
  66
1
  10
537.000000
  20
221.000000
  0
VERTEX
  8
C7
  10
537.000000
  20
221.000000
  0
VERTEX
  8
C7
  10
537.000000
  20
215.000000
  0
VERTEX
  8
C7
  10
538.000000
  20
215.000000
  0
VERTEX
  8
C7
  10
537.000000
  20
221.000000
  0
SEQEND
  8
C7
  0
POLYLINE
  8
C7
  66
1
  10
249.000000
  20
211.000000
  0
VERTEX
  8
C7
  10
249.000000
  20
211.000000
  0
VERTEX
  8
C7
  10
249.000000
  20
205.000000
  0
VERTEX
  8
C7
  10
253.000000
  20
205.000000
  0
VERTEX
  8
C7
  10
253.000000
  20
206.000000
  0
VERTEX
  8
C7
  10
250.000000
  20
206.000000
  0
VERTEX
  8
C7
  10
249.000000
  20
211.000000
  0
SEQEND
  8
C7
  0
POLYLINE
  8
C7
  66
1
  10
537.000000
  20
211.000000
  0
VERTEX
  8
C7
  10
537.000000
  20
211.000000
  0
VERTEX
  8
C7
  10
534.000000
  20
206.000000
  0
VERTEX
  8
C7
  10
534.000000
  20
205.000000
  0
VERTEX
  8
C7
  10
538.000000
  20
205.000000
  0
VERTEX
  8
C7
  10
537.000000
  20
211.000000
  0
SEQEND
  8
C7
  0
POLYLINE
  8
C7
  66
1
  10
256.000000
  20
206.000000
  0
VERTEX
  8
C7
  10
256.000000
  20
206.000000
  0
VERTEX
  8
C7
  10
256.000000
  20
205.000000
  0
VERTEX
  8
C7
  10
262.000000
  20
205.000000
  0
VERTEX
  8
C7
  10
256.000000
  20
206.000000
  0
SEQEND
  8
C7
  0
POLYLINE
  8
C7
  66
1
  10
266.000000
  20
206.000000
  0
VERTEX
  8
C7
  10
266.000000
  20
206.000000
  0
VERTEX
  8
C7
  10
266.000000
  20
205.000000
  0
VERTEX
  8
C7
  10
272.000000
  20
205.000000
  0
VERTEX
  8
C7
  10
266.000000
  20
206.000000
  0
SEQEND
  8
C7
  0
POLYLINE
  8
C7
  66
1
  10
276.000000
  20
206.000000
  0
VERTEX
  8
C7
  10
276.000000
  20
206.000000
  0
VERTEX
  8
C7
  10
276.000000
  20
205.000000
  0
VERTEX
  8
C7
  10
281.000000
  20
205.000000
  0
VERTEX
  8
C7
  10
276.000000
  20
206.000000
  0
SEQEND
  8
C7
  0
POLYLINE
  8
C7
  66
1
  10
285.000000
  20
206.000000
  0
VERTEX
  8
C7
  10
285.000000
  20
206.000000
  0
VERTEX
  8
C7
  10
285.000000
  20
205.000000
  0
VERTEX
  8
C7
  10
291.000000
  20
205.000000
  0
VERTEX
  8
C7
  10
285.000000
  20
206.000000
  0
SEQEND
  8
C7
  0
POLYLINE
  8
C7
  66
1
  10
295.000000
  20
206.000000
  0
VERTEX
  8
C7
  10
295.000000
  20
206.000000
  0
VERTEX
  8
C7
  10
295.000000
  20
205.000000
  0
VERTEX
  8
C7
  10
301.000000
  20
205.000000
  0
VERTEX
  8
C7
  10
295.000000
  20
206.000000
  0
SEQEND
  8
C7
  0
POLYLINE
  8
C7
  66
1
  10
304.000000
  20
206.000000
  0
VERTEX
  8
C7
  10
304.000000
  20
206.000000
  0
VERTEX
  8
C7
  10
304.000000
  20
205.000000
  0
VERTEX
  8
C7
  10
310.000000
  20
205.000000
  0
VERTEX
  8
C7
  10
304.000000
  20
206.000000
  0
SEQEND
  8
C7
  0
POLYLINE
  8
C7
  66
1
  10
314.000000
  20
206.000000
  0
VERTEX
  8
C7
  10
314.000000
  20
206.000000
  0
VERTEX
  8
C7
  10
314.000000
  20
205.000000
  0
VERTEX
  8
C7
  10
320.000000
  20
205.000000
  0
VERTEX
  8
C7
  10
314.000000
  20
206.000000
  0
SEQEND
  8
C7
  0
POLYLINE
  8
C7
  66
1
  10
323.000000
  20
206.000000
  0
VERTEX
  8
C7
  10
323.000000
  20
206.000000
  0
VERTEX
  8
C7
  10
323.000000
  20
205.000000
  0
VERTEX
  8
C7
  10
329.000000
  20
205.000000
  0
VERTEX
  8
C7
  10
323.000000
  20
206.000000
  0
SEQEND
  8
C7
  0
POLYLINE
  8
C7
  66
1
  10
333.000000
  20
206.000000
  0
VERTEX
  8
C7
  10
333.000000
  20
206.000000
  0
VERTEX
  8
C7
  10
333.000000
  20
205.000000
  0
VERTEX
  8
C7
  10
339.000000
  20
205.000000
  0
VERTEX
  8
C7
  10
333.000000
  20
206.000000
  0
SEQEND
  8
C7
  0
POLYLINE
  8
C7
  66
1
  10
343.000000
  20
206.000000
  0
VERTEX
  8
C7
  10
343.000000
  20
206.000000
  0
VERTEX
  8
C7
  10
343.000000
  20
205.000000
  0
VERTEX
  8
C7
  10
348.000000
  20
205.000000
  0
VERTEX
  8
C7
  10
343.000000
  20
206.000000
  0
SEQEND
  8
C7
  0
POLYLINE
  8
C7
  66
1
  10
352.000000
  20
206.000000
  0
VERTEX
  8
C7
  10
352.000000
  20
206.000000
  0
VERTEX
  8
C7
  10
352.000000
  20
205.000000
  0
VERTEX
  8
C7
  10
358.000000
  20
205.000000
  0
VERTEX
  8
C7
  10
352.000000
  20
206.000000
  0
SEQEND
  8
C7
  0
POLYLINE
  8
C7
  66
1
  10
362.000000
  20
206.000000
  0
VERTEX
  8
C7
  10
362.000000
  20
206.000000
  0
VERTEX
  8
C7
  10
362.000000
  20
205.000000
  0
VERTEX
  8
C7
  10
368.000000
  20
205.000000
  0
VERTEX
  8
C7
  10
362.000000
  20
206.000000
  0
SEQEND
  8
C7
  0
POLYLINE
  8
C7
  66
1
  10
371.000000
  20
206.000000
  0
VERTEX
  8
C7
  10
371.000000
  20
206.000000
  0
VERTEX
  8
C7
  10
371.000000
  20
205.000000
  0
VERTEX
  8
C7
  10
377.000000
  20
205.000000
  0
VERTEX
  8
C7
  10
371.000000
  20
206.000000
  0
SEQEND
  8
C7
  0
POLYLINE
  8
C7
  66
1
  10
381.000000
  20
206.000000
  0
VERTEX
  8
C7
  10
381.000000
  20
206.000000
  0
VERTEX
  8
C7
  10
381.000000
  20
205.000000
  0
VERTEX
  8
C7
  10
387.000000
  20
205.000000
  0
VERTEX
  8
C7
  10
381.000000
  20
206.000000
  0
SEQEND
  8
C7
  0
POLYLINE
  8
C7
  66
1
  10
391.000000
  20
206.000000
  0
VERTEX
  8
C7
  10
391.000000
  20
206.000000
  0
VERTEX
  8
C7
  10
391.000000
  20
205.000000
  0
VERTEX
  8
C7
  10
396.000000
  20
205.000000
  0
VERTEX
  8
C7
  10
391.000000
  20
206.000000
  0
SEQEND
  8
C7
  0
POLYLINE
  8
C7
  66
1
  10
400.000000
  20
206.000000
  0
VERTEX
  8
C7
  10
400.000000
  20
206.000000
  0
VERTEX
  8
C7
  10
400.000000
  20
205.000000
  0
VERTEX
  8
C7
  10
406.000000
  20
205.000000
  0
VERTEX
  8
C7
  10
400.000000
  20
206.000000
  0
SEQEND
  8
C7
  0
POLYLINE
  8
C7
  66
1
  10
410.000000
  20
206.000000
  0
VERTEX
  8
C7
  10
410.000000
  20
206.000000
  0
VERTEX
  8
C7
  10
410.000000
  20
205.000000
  0
VERTEX
  8
C7
  10
416.000000
  20
205.000000
  0
VERTEX
  8
C7
  10
410.000000
  20
206.000000
  0
SEQEND
  8
C7
  0
POLYLINE
  8
C7
  66
1
  10
419.000000
  20
206.000000
  0
VERTEX
  8
C7
  10
419.000000
  20
206.000000
  0
VERTEX
  8
C7
  10
419.000000
  20
205.000000
  0
VERTEX
  8
C7
  10
425.000000
  20
205.000000
  0
VERTEX
  8
C7
  10
419.000000
  20
206.000000
  0
SEQEND
  8
C7
  0
POLYLINE
  8
C7
  66
1
  10
429.000000
  20
206.000000
  0
VERTEX
  8
C7
  10
429.000000
  20
206.000000
  0
VERTEX
  8
C7
  10
429.000000
  20
205.000000
  0
VERTEX
  8
C7
  10
435.000000
  20
205.000000
  0
VERTEX
  8
C7
  10
429.000000
  20
206.000000
  0
SEQEND
  8
C7
  0
POLYLINE
  8
C7
  66
1
  10
438.000000
  20
206.000000
  0
VERTEX
  8
C7
  10
438.000000
  20
206.000000
  0
VERTEX
  8
C7
  10
438.000000
  20
205.000000
  0
VERTEX
  8
C7
  10
444.000000
  20
205.000000
  0
VERTEX
  8
C7
  10
438.000000
  20
206.000000
  0
SEQEND
  8
C7
  0
POLYLINE
  8
C7
  66
1
  10
448.000000
  20
206.000000
  0
VERTEX
  8
C7
  10
448.000000
  20
206.000000
  0
VERTEX
  8
C7
  10
448.000000
  20
205.000000
  0
VERTEX
  8
C7
  10
454.000000
  20
205.000000
  0
VERTEX
  8
C7
  10
448.000000
  20
206.000000
  0
SEQEND
  8
C7
  0
POLYLINE
  8
C7
  66
1
  10
458.000000
  20
206.000000
  0
VERTEX
  8
C7
  10
458.000000
  20
206.000000
  0
VERTEX
  8
C7
  10
458.000000
  20
205.000000
  0
VERTEX
  8
C7
  10
463.000000
  20
205.000000
  0
VERTEX
  8
C7
  10
458.000000
  20
206.000000
  0
SEQEND
  8
C7
  0
POLYLINE
  8
C7
  66
1
  10
467.000000
  20
206.000000
  0
VERTEX
  8
C7
  10
467.000000
  20
206.000000
  0
VERTEX
  8
C7
  10
467.000000
  20
205.000000
  0
VERTEX
  8
C7
  10
472.000000
  20
205.000000
  0
VERTEX
  8
C7
  10
467.000000
  20
206.000000
  0
SEQEND
  8
C7
  0
POLYLINE
  8
C7
  66
1
  10
477.000000
  20
206.000000
  0
VERTEX
  8
C7
  10
477.000000
  20
206.000000
  0
VERTEX
  8
C7
  10
477.000000
  20
205.000000
  0
VERTEX
  8
C7
  10
483.000000
  20
205.000000
  0
VERTEX
  8
C7
  10
477.000000
  20
206.000000
  0
SEQEND
  8
C7
  0
POLYLINE
  8
C7
  66
1
  10
486.000000
  20
206.000000
  0
VERTEX
  8
C7
  10
486.000000
  20
206.000000
  0
VERTEX
  8
C7
  10
486.000000
  20
205.000000
  0
VERTEX
  8
C7
  10
492.000000
  20
205.000000
  0
VERTEX
  8
C7
  10
486.000000
  20
206.000000
  0
SEQEND
  8
C7
  0
POLYLINE
  8
C7
  66
1
  10
496.000000
  20
206.000000
  0
VERTEX
  8
C7
  10
496.000000
  20
206.000000
  0
VERTEX
  8
C7
  10
496.000000
  20
205.000000
  0
VERTEX
  8
C7
  10
502.000000
  20
205.000000
  0
VERTEX
  8
C7
  10
496.000000
  20
206.000000
  0
SEQEND
  8
C7
  0
POLYLINE
  8
C7
  66
1
  10
506.000000
  20
206.000000
  0
VERTEX
  8
C7
  10
506.000000
  20
206.000000
  0
VERTEX
  8
C7
  10
506.000000
  20
205.000000
  0
VERTEX
  8
C7
  10
511.000000
  20
205.000000
  0
VERTEX
  8
C7
  10
506.000000
  20
206.000000
  0
SEQEND
  8
C7
  0
POLYLINE
  8
C7
  66
1
  10
515.000000
  20
206.000000
  0
VERTEX
  8
C7
  10
515.000000
  20
206.000000
  0
VERTEX
  8
C7
  10
515.000000
  20
205.000000
  0
VERTEX
  8
C7
  10
521.000000
  20
205.000000
  0
VERTEX
  8
C7
  10
515.000000
  20
206.000000
  0
SEQEND
  8
C7
  0
POLYLINE
  8
C7
  66
1
  10
525.000000
  20
206.000000
  0
VERTEX
  8
C7
  10
525.000000
  20
206.000000
  0
VERTEX
  8
C7
  10
525.000000
  20
205.000000
  0
VERTEX
  8
C7
  10
531.000000
  20
205.000000
  0
VERTEX
  8
C7
  10
525.000000
  20
206.000000
  0
SEQEND
  8
C7
  0
POLYLINE
  8
C7
  66
1
  10
198.000000
  20
169.000000
  0
VERTEX
  8
C7
  10
198.000000
  20
169.000000
  0
VERTEX
  8
C7
  10
198.000000
  20
76.000000
  0
VERTEX
  8
C7
  10
199.000000
  20
76.000000
  0
VERTEX
  8
C7
  10
199.000000
  20
80.000000
  0
VERTEX
  8
C7
  10
244.000000
  20
80.000000
  0
VERTEX
  8
C7
  10
339.000000
  20
80.000000
  0
VERTEX
  8
C7
  10
339.000000
  20
81.000000
  0
VERTEX
  8
C7
  10
243.000000
  20
81.000000
  0
VERTEX
  8
C7
  10
199.000000
  20
81.000000
  0
VERTEX
  8
C7
  10
199.000000
  20
142.000000
  0
VERTEX
  8
C7
  10
198.000000
  20
169.000000
  0
SEQEND
  8
C7
  0
POLYLINE
  8
C7
  66
1
  10
588.000000
  20
169.000000
  0
VERTEX
  8
C7
  10
588.000000
  20
169.000000
  0
VERTEX
  8
C7
  10
588.000000
  20
81.000000
  0
VERTEX
  8
C7
  10
544.000000
  20
81.000000
  0
VERTEX
  8
C7
  10
448.000000
  20
81.000000
  0
VERTEX
  8
C7
  10
448.000000
  20
80.000000
  0
VERTEX
  8
C7
  10
543.000000
  20
80.000000
  0
VERTEX
  8
C7
  10
588.000000
  20
80.000000
  0
VERTEX
  8
C7
  10
588.000000
  20
76.000000
  0
VERTEX
  8
C7
  10
589.000000
  20
76.000000
  0
VERTEX
  8
C7
  10
589.000000
  20
140.000000
  0
VERTEX
  8
C7
  10
588.000000
  20
169.000000
  0
SEQEND
  8
C7
  0
POLYLINE
  8
C7
  66
1
  10
317.000000
  20
125.000000
  0
VERTEX
  8
C7
  10
317.000000
  20
125.000000
  0
VERTEX
  8
C7
  10
320.000000
  20
126.000000
  0
VERTEX
  8
C7
  10
320.000000
  20
116.000000
  0
VERTEX
  8
C7
  10
323.000000
  20
116.000000
  0
VERTEX
  8
C7
  10
323.000000
  20
131.000000
  0
VERTEX
  8
C7
  10
317.000000
  20
125.000000
  0
SEQEND
  8
C7
  0
POLYLINE
  8
C7
  66
1
  10
326.000000
  20
131.000000
  0
VERTEX
  8
C7
  10
326.000000
  20
131.000000
  0
VERTEX
  8
C7
  10
326.000000
  20
128.000000
  0
VERTEX
  8
C7
  10
332.000000
  20
128.000000
  0
VERTEX
  8
C7
  10
328.000000
  20
116.000000
  0
VERTEX
  8
C7
  10
331.000000
  20
116.000000
  0
VERTEX
  8
C7
  10
336.000000
  20
131.000000
  0
VERTEX
  8
C7
  10
326.000000
  20
131.000000
  0
SEQEND
  8
C7
  0
POLYLINE
  8
C7
  66
1
  10
343.000000
  20
125.000000
  0
VERTEX
  8
C7
  10
343.000000
  20
125.000000
  0
VERTEX
  8
C7
  10
346.000000
  20
126.000000
  0
VERTEX
  8
C7
  10
346.000000
  20
116.000000
  0
VERTEX
  8
C7
  10
349.000000
  20
116.000000
  0
VERTEX
  8
C7
  10
349.000000
  20
131.000000
  0
VERTEX
  8
C7
  10
343.000000
  20
125.000000
  0
SEQEND
  8
C7
  0
POLYLINE
  8
C7
  66
1
  10
354.000000
  20
125.000000
  0
VERTEX
  8
C7
  10
354.000000
  20
125.000000
  0
VERTEX
  8
C7
  10
357.000000
  20
126.000000
  0
VERTEX
  8
C7
  10
357.000000
  20
116.000000
  0
VERTEX
  8
C7
  10
359.000000
  20
116.000000
  0
VERTEX
  8
C7
  10
359.000000
  20
131.000000
  0
VERTEX
  8
C7
  10
354.000000
  20
125.000000
  0
SEQEND
  8
C7
  0
POLYLINE
  8
C7
  66
1
  10
366.000000
  20
131.000000
  0
VERTEX
  8
C7
  10
366.000000
  20
131.000000
  0
VERTEX
  8
C7
  10
362.000000
  20
116.000000
  0
VERTEX
  8
C7
  10
362.760700
  20
116.545800
  0
VERTEX
  8
C7
  10
363.448400
  20
117.172500
  0
VERTEX
  8
C7
  10
364.067500
  20
117.872200
  0
VERTEX
  8
C7
  10
364.622300
  20
118.637200
  0
VERTEX
  8
C7
  10
365.117300
  20
119.459700
  0
VERTEX
  8
C7
  10
365.557000
  20
120.332000
  0
VERTEX
  8
C7
  10
365.945600
  20
121.246400
  0
VERTEX
  8
C7
  10
366.287800
  20
122.195100
  0
VERTEX
  8
C7
  10
366.587700
  20
123.170300
  0
VERTEX
  8
C7
  10
366.849900
  20
124.164400
  0
VERTEX
  8
C7
  10
367.078900
  20
125.169600
  0
VERTEX
  8
C7
  10
367.278900
  20
126.178100
  0
VERTEX
  8
C7
  10
367.454400
  20
127.182300
  0
VERTEX
  8
C7
  10
367.609900
  20
128.174300
  0
VERTEX
  8
C7
  10
367.749700
  20
129.146400
  0
VERTEX
  8
C7
  10
367.878200
  20
130.090800
  0
VERTEX
  8
C7
  10
368.000000
  20
131.000000
  0
VERTEX
  8
C7
  10
366.000000
  20
131.000000
  0
SEQEND
  8
C7
  0
POLYLINE
  8
C7
  66
1
  10
369.000000
  20
125.000000
  0
VERTEX
  8
C7
  10
369.000000
  20
125.000000
  0
VERTEX
  8
C7
  10
373.000000
  20
126.000000
  0
VERTEX
  8
C7
  10
373.000000
  20
116.000000
  0
VERTEX
  8
C7
  10
375.000000
  20
116.000000
  0
VERTEX
  8
C7
  10
375.000000
  20
131.000000
  0
VERTEX
  8
C7
  10
369.000000
  20
125.000000
  0
SEQEND
  8
C7
  0
POLYLINE
  8
C7
  66
1
  10
386.000000
  20
125.000000
  0
VERTEX
  8
C7
  10
386.000000
  20
125.000000
  0
VERTEX
  8
C7
  10
386.256900
  20
125.828000
  0
VERTEX
  8
C7
  10
386.383300
  20
126.644600
  0
VERTEX
  8
C7
  10
386.387000
  20
127.432900
  0
VERTEX
  8
C7
  10
386.275500
  20
128.175900
  0
VERTEX
  8
C7
  10
386.056600
  20
128.856600
  0
VERTEX
  8
C7
  10
385.737800
  20
129.458300
  0
VERTEX
  8
C7
  10
385.326900
  20
129.963900
  0
VERTEX
  8
C7
  10
384.831500
  20
130.356400
  0
VERTEX
  8
C7
  10
384.259300
  20
130.619100
  0
VERTEX
  8
C7
  10
383.617900
  20
130.735000
  0
VERTEX
  8
C7
  10
382.915000
  20
130.687200
  0
VERTEX
  8
C7
  10
382.158200
  20
130.458600
  0
VERTEX
  8
C7
  10
381.355200
  20
130.032500
  0
VERTEX
  8
C7
  10
380.513800
  20
129.391900
  0
VERTEX
  8
C7
  10
379.915900
  20
128.843000
  0
VERTEX
  8
C7
  10
379.381500
  20
128.303300
  0
VERTEX
  8
C7
  10
378.908400
  20
127.773200
  0
VERTEX
  8
C7
  10
378.494700
  20
127.253100
  0
VERTEX
  8
C7
  10
378.138200
  20
126.743100
  0
VERTEX
  8
C7
  10
377.836800
  20
126.243800
  0
VERTEX
  8
C7
  10
377.588600
  20
125.755300
  0
VERTEX
  8
C7
  10
377.391500
  20
125.278200
  0
VERTEX
  8
C7
  10
377.243400
  20
124.812600
  0
VERTEX
  8
C7
  10
377.142200
  20
124.359000
  0
VERTEX
  8
C7
  10
377.085900
  20
123.917600
  0
VERTEX
  8
C7
  10
377.072400
  20
123.488900
  0
VERTEX
  8
C7
  10
377.099700
  20
123.073100
  0
VERTEX
  8
C7
  10
377.165700
  20
122.670600
  0
VERTEX
  8
C7
  10
377.268400
  20
122.281800
  0
VERTEX
  8
C7
  10
377.405600
  20
121.906900
  0
VERTEX
  8
C7
  10
377.575400
  20
121.546400
  0
VERTEX
  8
C7
  10
377.775700
  20
121.200500
  0
VERTEX
  8
C7
  10
378.004400
  20
120.869500
  0
VERTEX
  8
C7
  10
378.259400
  20
120.554000
  0
VERTEX
  8
C7
  10
378.538700
  20
120.254000
  0
VERTEX
  8
C7
  10
378.840300
  20
119.970100
  0
VERTEX
  8
C7
  10
379.162100
  20
119.702600
  0
VERTEX
  8
C7
  10
379.502000
  20
119.451700
  0
VERTEX
  8
C7
  10
379.857900
  20
119.217900
  0
VERTEX
  8
C7
  10
380.227800
  20
119.001400
  0
VERTEX
  8
C7
  10
380.609700
  20
118.802600
  0
VERTEX
  8
C7
  10
381.001500
  20
118.621900
  0
VERTEX
  8
C7
  10
381.401100
  20
118.459600
  0
VERTEX
  8
C7
  10
381.806500
  20
118.315900
  0
VERTEX
  8
C7
  10
382.215600
  20
118.191400
  0
VERTEX
  8
C7
  10
382.626300
  20
118.086200
  0
VERTEX
  8
C7
  10
383.036600
  20
118.000800
  0
VERTEX
  8
C7
  10
383.444500
  20
117.935400
  0
VERTEX
  8
C7
  10
383.847800
  20
117.890500
  0
VERTEX
  8
C7
  10
384.244500
  20
117.866300
  0
VERTEX
  8
C7
  10
384.632600
  20
117.863300
  0
VERTEX
  8
C7
  10
385.010000
  20
117.881600
  0
VERTEX
  8
C7
  10
385.374600
  20
117.921800
  0
VERTEX
  8
C7
  10
385.724400
  20
117.984000
  0
VERTEX
  8
C7
  10
386.057400
  20
118.068700
  0
VERTEX
  8
C7
  10
386.371300
  20
118.176200
  0
VERTEX
  8
C7
  10
386.664300
  20
118.306800
  0
VERTEX
  8
C7
  10
386.934200
  20
118.460900
  0
VERTEX
  8
C7
  10
387.179000
  20
118.638800
  0
VERTEX
  8
C7
  10
387.396700
  20
118.840900
  0
VERTEX
  8
C7
  10
387.585100
  20
119.067400
  0
VERTEX
  8
C7
  10
387.742200
  20
119.318800
  0
VERTEX
  8
C7
  10
387.865900
  20
119.595300
  0
VERTEX
  8
C7
  10
387.954300
  20
119.897300
  0
VERTEX
  8
C7
  10
388.005100
  20
120.225200
  0
VERTEX
  8
C7
  10
388.016500
  20
120.579300
  0
VERTEX
  8
C7
  10
387.986200
  20
120.959800
  0
VERTEX
  8
C7
  10
387.912300
  20
121.367300
  0
VERTEX
  8
C7
  10
387.792700
  20
121.801900
  0
VERTEX
  8
C7
  10
387.625400
  20
122.264100
  0
VERTEX
  8
C7
  10
387.408200
  20
122.754200
  0
VERTEX
  8
C7
  10
387.139100
  20
123.272400
  0
VERTEX
  8
C7
  10
386.816100
  20
123.819300
  0
VERTEX
  8
C7
  10
386.437000
  20
124.395000
  0
VERTEX
  8
C7
  10
386.000000
  20
125.000000
  0
SEQEND
  8
C7
  0
POLYLINE
  8
C7
  66
1
  10
389.000000
  20
131.000000
  0
VERTEX
  8
C7
  10
389.000000
  20
131.000000
  0
VERTEX
  8
C7
  10
389.000000
  20
125.000000
  0
VERTEX
  8
C7
  10
391.000000
  20
127.000000
  0
VERTEX
  8
C7
  10
392.000000
  20
127.000000
  0
VERTEX
  8
C7
  10
394.000000
  20
125.000000
  0
VERTEX
  8
C7
  10
395.000000
  20
131.000000
  0
VERTEX
  8
C7
  10
389.000000
  20
131.000000
  0
SEQEND
  8
C7
  0
POLYLINE
  8
C7
  66
1
  10
398.000000
  20
131.000000
  0
VERTEX
  8
C7
  10
398.000000
  20
131.000000
  0
VERTEX
  8
C7
  10
397.762400
  20
130.146800
  0
VERTEX
  8
C7
  10
397.526100
  20
129.273400
  0
VERTEX
  8
C7
  10
397.295500
  20
128.382800
  0
VERTEX
  8
C7
  10
397.075300
  20
127.478300
  0
VERTEX
  8
C7
  10
396.870100
  20
126.563300
  0
VERTEX
  8
C7
  10
396.684600
  20
125.640900
  0
VERTEX
  8
C7
  10
396.523200
  20
124.714400
  0
VERTEX
  8
C7
  10
396.390700
  20
123.787200
  0
VERTEX
  8
C7
  10
396.291700
  20
122.862400
  0
VERTEX
  8
C7
  10
396.230700
  20
121.943300
  0
VERTEX
  8
C7
  10
396.212400
  20
121.033200
  0
VERTEX
  8
C7
  10
396.241400
  20
120.135300
  0
VERTEX
  8
C7
  10
396.322200
  20
119.253000
  0
VERTEX
  8
C7
  10
396.459600
  20
118.389400
  0
VERTEX
  8
C7
  10
396.658100
  20
117.547800
  0
VERTEX
  8
C7
  10
396.922400
  20
116.731600
  0
VERTEX
  8
C7
  10
397.257000
  20
115.943900
  0
VERTEX
  8
C7
  10
397.666500
  20
115.188000
  0
VERTEX
  8
C7
  10
398.155600
  20
114.467200
  0
VERTEX
  8
C7
  10
398.728900
  20
113.784700
  0
VERTEX
  8
C7
  10
399.391000
  20
113.143800
  0
VERTEX
  8
C7
  10
400.146500
  20
112.547800
  0
VERTEX
  8
C7
  10
401.000000
  20
112.000000
  0
VERTEX
  8
C7
  10
401.000000
  20
131.000000
  0
VERTEX
  8
C7
  10
398.000000
  20
131.000000
  0
SEQEND
  8
C7
  0
POLYLINE
  8
C7
  66
1
  10
401.000000
  20
120.000000
  0
VERTEX
  8
C7
  10
401.000000
  20
120.000000
  0
VERTEX
  8
C7
  10
407.000000
  20
120.000000
  0
VERTEX
  8
C7
  10
407.000000
  20
116.000000
  0
VERTEX
  8
C7
  10
410.000000
  20
116.000000
  0
VERTEX
  8
C7
  10
410.000000
  20
131.000000
  0
VERTEX
  8
C7
  10
409.017900
  20
130.652400
  0
VERTEX
  8
C7
  10
408.096100
  20
130.231700
  0
VERTEX
  8
C7
  10
407.233500
  20
129.742000
  0
VERTEX
  8
C7
  10
406.428400
  20
129.187400
  0
VERTEX
  8
C7
  10
405.679800
  20
128.572200
  0
VERTEX
  8
C7
  10
404.986200
  20
127.900400
  0
VERTEX
  8
C7
  10
404.346200
  20
127.176300
  0
VERTEX
  8
C7
  10
403.758700
  20
126.404100
  0
VERTEX
  8
C7
  10
403.222100
  20
125.587800
  0
VERTEX
  8
C7
  10
402.735300
  20
124.731700
  0
VERTEX
  8
C7
  10
402.296800
  20
123.840000
  0
VERTEX
  8
C7
  10
401.905400
  20
122.916800
  0
VERTEX
  8
C7
  10
401.559700
  20
121.966300
  0
VERTEX
  8
C7
  10
401.258300
  20
120.992600
  0
VERTEX
  8
C7
  10
401.000000
  20
120.000000
  0
SEQEND
  8
C7
  0
POLYLINE
  8
C7
  66
1
  10
412.000000
  20
123.000000
  0
VERTEX
  8
C7
  10
412.000000
  20
123.000000
  0
VERTEX
  8
C7
  10
418.000000
  20
124.000000
  0
VERTEX
  8
C7
  10
417.889400
  20
122.834900
  0
VERTEX
  8
C7
  10
417.660500
  20
121.941100
  0
VERTEX
  8
C7
  10
417.316900
  20
121.288900
  0
VERTEX
  8
C7
  10
416.862100
  20
120.848700
  0
VERTEX
  8
C7
  10
416.299800
  20
120.590800
  0
VERTEX
  8
C7
  10
415.633500
  20
120.485700
  0
VERTEX
  8
C7
  10
414.866800
  20
120.503700
  0
VERTEX
  8
C7
  10
414.003200
  20
120.615100
  0
VERTEX
  8
C7
  10
413.046400
  20
120.790400
  0
VERTEX
  8
C7
  10
412.000000
  20
121.000000
  0
VERTEX
  8
C7
  10
412.364200
  20
120.026500
  0
VERTEX
  8
C7
  10
412.795000
  20
119.182200
  0
VERTEX
  8
C7
  10
413.283700
  20
118.464500
  0
VERTEX
  8
C7
  10
413.821700
  20
117.870600
  0
VERTEX
  8
C7
  10
414.400600
  20
117.397900
  0
VERTEX
  8
C7
  10
415.011700
  20
117.043700
  0
VERTEX
  8
C7
  10
415.646500
  20
116.805300
  0
VERTEX
  8
C7
  10
416.296500
  20
116.680000
  0
VERTEX
  8
C7
  10
416.953100
  20
116.665100
  0
VERTEX
  8
C7
  10
417.607700
  20
116.758000
  0
VERTEX
  8
C7
  10
418.251800
  20
116.955900
  0
VERTEX
  8
C7
  10
418.876900
  20
117.256200
  0
VERTEX
  8
C7
  10
419.474300
  20
117.656300
  0
VERTEX
  8
C7
  10
420.035500
  20
118.153300
  0
VERTEX
  8
C7
  10
420.552100
  20
118.744700
  0
VERTEX
  8
C7
  10
421.015400
  20
119.427700
  0
VERTEX
  8
C7
  10
421.416800
  20
120.199700
  0
VERTEX
  8
C7
  10
421.747800
  20
121.058000
  0
VERTEX
  8
C7
  10
422.000000
  20
122.000000
  0
VERTEX
  8
C7
  10
423.000000
  20
122.000000
  0
VERTEX
  8
C7
  10
423.195600
  20
121.099000
  0
VERTEX
  8
C7
  10
423.477500
  20
120.270400
  0
VERTEX
  8
C7
  10
423.835900
  20
119.519300
  0
VERTEX
  8
C7
  10
424.260900
  20
118.850800
  0
VERTEX
  8
C7
  10
424.742700
  20
118.269900
  0
VERTEX
  8
C7
  10
425.271300
  20
117.781800
  0
VERTEX
  8
C7
  10
425.836900
  20
117.391600
  0
VERTEX
  8
C7
  10
426.429700
  20
117.104300
  0
VERTEX
  8
C7
  10
427.039800
  20
116.925200
  0
VERTEX
  8
C7
  10
427.657300
  20
116.859200
  0
VERTEX
  8
C7
  10
428.272300
  20
116.911600
  0
VERTEX
  8
C7
  10
428.875100
  20
117.087300
  0
VERTEX
  8
C7
  10
429.455700
  20
117.391600
  0
VERTEX
  8
C7
  10
430.004300
  20
117.829400
  0
VERTEX
  8
C7
  10
430.511000
  20
118.406000
  0
VERTEX
  8
C7
  10
430.966000
  20
119.126400
  0
VERTEX
  8
C7
  10
431.359300
  20
119.995800
  0
VERTEX
  8
C7
  10
431.681300
  20
121.019200
  0
VERTEX
  8
C7
  10
431.891200
  20
121.971300
  0
VERTEX
  8
C7
  10
432.023600
  20
122.876900
  0
VERTEX
  8
C7
  10
432.082600
  20
123.734400
  0
VERTEX
  8
C7
  10
432.072600
  20
124.542300
  0
VERTEX
  8
C7
  10
431.998000
  20
125.298900
  0
VERTEX
  8
C7
  10
431.862900
  20
126.002700
  0
VERTEX
  8
C7
  10
431.671800
  20
126.652200
  0
VERTEX
  8
C7
  10
431.428900
  20
127.245700
  0
VERTEX
  8
C7
  10
431.138500
  20
127.781600
  0
VERTEX
  8
C7
  10
430.805000
  20
128.258500
  0
VERTEX
  8
C7
  10
430.432600
  20
128.674700
  0
VERTEX
  8
C7
  10
430.025700
  20
129.028700
  0
VERTEX
  8
C7
  10
429.588600
  20
129.318800
  0
VERTEX
  8
C7
  10
429.125600
  20
129.543600
  0
VERTEX
  8
C7
  10
428.640900
  20
129.701400
  0
VERTEX
  8
C7
  10
428.139000
  20
129.790700
  0
VERTEX
  8
C7
  10
427.624000
  20
129.809900
  0
VERTEX
  8
C7
  10
427.100400
  20
129.757400
  0
VERTEX
  8
C7
  10
426.572400
  20
129.631600
  0
VERTEX
  8
C7
  10
426.044400
  20
129.431100
  0
VERTEX
  8
C7
  10
425.520500
  20
129.154100
  0
VERTEX
  8
C7
  10
425.005300
  20
128.799200
  0
VERTEX
  8
C7
  10
424.502900
  20
128.364800
  0
VERTEX
  8
C7
  10
424.017700
  20
127.849300
  0
VERTEX
  8
C7
  10
423.553900
  20
127.251000
  0
VERTEX
  8
C7
  10
423.116000
  20
126.568600
  0
VERTEX
  8
C7
  10
422.708100
  20
125.800300
  0
VERTEX
  8
C7
  10
422.334700
  20
124.944600
  0
VERTEX
  8
C7
  10
422.000000
  20
124.000000
  0
VERTEX
  8
C7
  10
416.000000
  20
126.000000
  0
VERTEX
  8
C7
  10
416.000000
  20
128.000000
  0
VERTEX
  8
C7
  10
421.000000
  20
128.000000
  0
VERTEX
  8
C7
  10
421.000000
  20
131.000000
  0
VERTEX
  8
C7
  10
419.710000
  20
130.956200
  0
VERTEX
  8
C7
  10
418.560900
  20
130.853600
  0
VERTEX
  8
C7
  10
417.542400
  20
130.686500
  0
VERTEX
  8
C7
  10
416.644100
  20
130.449400
  0
VERTEX
  8
C7
  10
415.855600
  20
130.136700
  0
VERTEX
  8
C7
  10
415.166700
  20
129.742800
  0
VERTEX
  8
C7
  10
414.567100
  20
129.262100
  0
VERTEX
  8
C7
  10
414.046300
  20
128.689200
  0
VERTEX
  8
C7
  10
413.594100
  20
128.018300
  0
VERTEX
  8
C7
  10
413.200200
  20
127.243900
  0
VERTEX
  8
C7
  10
412.854100
  20
126.360400
  0
VERTEX
  8
C7
  10
412.545600
  20
125.362400
  0
VERTEX
  8
C7
  10
412.264300
  20
124.244100
  0
VERTEX
  8
C7
  10
412.000000
  20
123.000000
  0
SEQEND
  8
C7
  0
POLYLINE
  8
C7
  66
1
  10
464.000000
  20
131.000000
  0
VERTEX
  8
C7
  10
464.000000
  20
131.000000
  0
VERTEX
  8
C7
  10
464.402200
  20
129.867800
  0
VERTEX
  8
C7
  10
464.748400
  20
128.780400
  0
VERTEX
  8
C7
  10
465.040700
  20
127.732500
  0
VERTEX
  8
C7
  10
465.280900
  20
126.718800
  0
VERTEX
  8
C7
  10
465.471200
  20
125.733900
  0
VERTEX
  8
C7
  10
465.613400
  20
124.772600
  0
VERTEX
  8
C7
  10
465.709600
  20
123.829500
  0
VERTEX
  8
C7
  10
465.761800
  20
122.899300
  0
VERTEX
  8
C7
  10
465.772000
  20
121.976800
  0
VERTEX
  8
C7
  10
465.742100
  20
121.056500
  0
VERTEX
  8
C7
  10
465.674200
  20
120.133200
  0
VERTEX
  8
C7
  10
465.570200
  20
119.201500
  0
VERTEX
  8
C7
  10
465.432100
  20
118.256200
  0
VERTEX
  8
C7
  10
465.262000
  20
117.291900
  0
VERTEX
  8
C7
  10
465.061800
  20
116.303300
  0
VERTEX
  8
C7
  10
464.833500
  20
115.285200
  0
VERTEX
  8
C7
  10
464.579100
  20
114.232100
  0
VERTEX
  8
C7
  10
464.300600
  20
113.138800
  0
VERTEX
  8
C7
  10
464.000000
  20
112.000000
  0
VERTEX
  8
C7
  10
464.734300
  20
112.297100
  0
VERTEX
  8
C7
  10
465.419100
  20
112.664800
  0
VERTEX
  8
C7
  10
466.054200
  20
113.097900
  0
VERTEX
  8
C7
  10
466.639500
  20
113.591500
  0
VERTEX
  8
C7
  10
467.174900
  20
114.140500
  0
VERTEX
  8
C7
  10
467.660200
  20
114.739700
  0
VERTEX
  8
C7
  10
468.095500
  20
115.384000
  0
VERTEX
  8
C7
  10
468.480400
  20
116.068500
  0
VERTEX
  8
C7
  10
468.815000
  20
116.788000
  0
VERTEX
  8
C7
  10
469.099100
  20
117.537500
  0
VERTEX
  8
C7
  10
469.332600
  20
118.311800
  0
VERTEX
  8
C7
  10
469.515400
  20
119.106000
  0
VERTEX
  8
C7
  10
469.647300
  20
119.914900
  0
VERTEX
  8
C7
  10
469.728300
  20
120.733400
  0
VERTEX
  8
C7
  10
469.758200
  20
121.556500
  0
VERTEX
  8
C7
  10
469.736900
  20
122.379100
  0
VERTEX
  8
C7
  10
469.664300
  20
123.196100
  0
VERTEX
  8
C7
  10
469.540400
  20
124.002500
  0
VERTEX
  8
C7
  10
469.364800
  20
124.793100
  0
VERTEX
  8
C7
  10
469.137700
  20
125.562900
  0
VERTEX
  8
C7
  10
468.858700
  20
126.306900
  0
VERTEX
  8
C7
  10
468.527900
  20
127.019900
  0
VERTEX
  8
C7
  10
468.145100
  20
127.696800
  0
VERTEX
  8
C7
  10
467.710200
  20
128.332600
  0
VERTEX
  8
C7
  10
467.223100
  20
128.922300
  0
VERTEX
  8
C7
  10
466.683600
  20
129.460600
  0
VERTEX
  8
C7
  10
466.091700
  20
129.942700
  0
VERTEX
  8
C7
  10
465.447100
  20
130.363300
  0
VERTEX
  8
C7
  10
464.749900
  20
130.717400
  0
VERTEX
  8
C7
  10
464.000000
  20
131.000000
  0
SEQEND
  8
C7
  0
POLYLINE
  8
C7
  66
1
  10
381.000000
  20
125.000000
  0
VERTEX
  8
C7
  10
381.000000
  20
125.000000
  0
VERTEX
  8
C7
  10
385.000000
  20
128.000000
  0
VERTEX
  8
C7
  10
381.000000
  20
125.000000
  0
SEQEND
  8
C7
  0
POLYLINE
  8
C7
  66
1
  10
429.000000
  20
119.000000
  0
VERTEX
  8
C7
  10
429.000000
  20
119.000000
  0
VERTEX
  8
C7
  10
429.000000
  20
128.000000
  0
VERTEX
  8
C7
  10
428.121000
  20
127.643600
  0
VERTEX
  8
C7
  10
427.359300
  20
127.204800
  0
VERTEX
  8
C7
  10
426.714700
  20
126.695300
  0
VERTEX
  8
C7
  10
426.187400
  20
126.126900
  0
VERTEX
  8
C7
  10
425.777200
  20
125.511400
  0
VERTEX
  8
C7
  10
425.484300
  20
124.860500
  0
VERTEX
  8
C7
  10
425.308500
  20
124.186100
  0
VERTEX
  8
C7
  10
425.249900
  20
123.499900
  0
VERTEX
  8
C7
  10
425.308500
  20
122.813700
  0
VERTEX
  8
C7
  10
425.484300
  20
122.139300
  0
VERTEX
  8
C7
  10
425.777200
  20
121.488400
  0
VERTEX
  8
C7
  10
426.187400
  20
120.872900
  0
VERTEX
  8
C7
  10
426.714700
  20
120.304500
  0
VERTEX
  8
C7
  10
427.359300
  20
119.795100
  0
VERTEX
  8
C7
  10
428.121000
  20
119.356300
  0
VERTEX
  8
C7
  10
429.000000
  20
119.000000
  0
SEQEND
  8
C7
  0
POLYLINE
  8
C7
  66
1
  10
433.000000
  20
127.000000
  0
VERTEX
  8
C7
  10
433.000000
  20
127.000000
  0
VERTEX
  8
C7
  10
433.000000
  20
116.000000
  0
VERTEX
  8
C7
  10
436.000000
  20
116.000000
  0
VERTEX
  8
C7
  10
439.000000
  20
125.000000
  0
VERTEX
  8
C7
  10
439.000000
  20
116.000000
  0
VERTEX
  8
C7
  10
442.000000
  20
116.000000
  0
VERTEX
  8
C7
  10
443.000000
  20
125.000000
  0
VERTEX
  8
C7
  10
444.000000
  20
125.000000
  0
VERTEX
  8
C7
  10
445.000000
  20
116.000000
  0
VERTEX
  8
C7
  10
447.000000
  20
116.000000
  0
VERTEX
  8
C7
  10
447.000000
  20
127.000000
  0
VERTEX
  8
C7
  10
433.000000
  20
127.000000
  0
SEQEND
  8
C7
  0
POLYLINE
  8
C7
  66
1
  10
449.000000
  20
127.000000
  0
VERTEX
  8
C7
  10
449.000000
  20
127.000000
  0
VERTEX
  8
C7
  10
449.000000
  20
116.000000
  0
VERTEX
  8
C7
  10
452.000000
  20
116.000000
  0
VERTEX
  8
C7
  10
452.000000
  20
125.000000
  0
VERTEX
  8
C7
  10
455.000000
  20
116.000000
  0
VERTEX
  8
C7
  10
457.000000
  20
116.000000
  0
VERTEX
  8
C7
  10
460.000000
  20
125.000000
  0
VERTEX
  8
C7
  10
460.000000
  20
116.000000
  0
VERTEX
  8
C7
  10
463.000000
  20
116.000000
  0
VERTEX
  8
C7
  10
462.981900
  20
117.291600
  0
VERTEX
  8
C7
  10
462.927400
  20
118.478100
  0
VERTEX
  8
C7
  10
462.835200
  20
119.563700
  0
VERTEX
  8
C7
  10
462.704300
  20
120.553100
  0
VERTEX
  8
C7
  10
462.533500
  20
121.450500
  0
VERTEX
  8
C7
  10
462.321700
  20
122.260700
  0
VERTEX
  8
C7
  10
462.067700
  20
122.987900
  0
VERTEX
  8
C7
  10
461.770400
  20
123.636700
  0
VERTEX
  8
C7
  10
461.428700
  20
124.211500
  0
VERTEX
  8
C7
  10
461.041500
  20
124.716900
  0
VERTEX
  8
C7
  10
460.607600
  20
125.157200
  0
VERTEX
  8
C7
  10
460.125900
  20
125.537000
  0
VERTEX
  8
C7
  10
459.595300
  20
125.860800
  0
VERTEX
  8
C7
  10
459.014600
  20
126.132900
  0
VERTEX
  8
C7
  10
458.382700
  20
126.357900
  0
VERTEX
  8
C7
  10
457.698500
  20
126.540300
  0
VERTEX
  8
C7
  10
456.960800
  20
126.684400
  0
VERTEX
  8
C7
  10
456.168600
  20
126.794900
  0
VERTEX
  8
C7
  10
455.320700
  20
126.876100
  0
VERTEX
  8
C7
  10
454.415900
  20
126.932600
  0
VERTEX
  8
C7
  10
453.453200
  20
126.968800
  0
VERTEX
  8
C7
  10
452.431300
  20
126.989100
  0
VERTEX
  8
C7
  10
451.349300
  20
126.998100
  0
VERTEX
  8
C7
  10
450.205900
  20
127.000200
  0
VERTEX
  8
C7
  10
449.000000
  20
127.000000
  0
SEQEND
  8
C7
  0
POLYLINE
  8
C7
  66
1
  10
406.000000
  20
125.000000
  0
VERTEX
  8
C7
  10
406.000000
  20
125.000000
  0
VERTEX
  8
C7
  10
405.000000
  20
122.000000
  0
VERTEX
  8
C7
  10
406.000000
  20
125.000000
  0
SEQEND
  8
C7
  0
POLYLINE
  8
C7
  66
1
  10
383.000000
  20
124.000000
  0
VERTEX
  8
C7
  10
383.000000
  20
124.000000
  0
VERTEX
  8
C7
  10
382.537800
  20
122.841100
  0
VERTEX
  8
C7
  10
382.271000
  20
121.877300
  0
VERTEX
  8
C7
  10
382.231900
  20
121.080400
  0
VERTEX
  8
C7
  10
382.452900
  20
120.422300
  0
VERTEX
  8
C7
  10
382.966400
  20
119.874900
  0
VERTEX
  8
C7
  10
383.804600
  20
119.410200
  0
VERTEX
  8
C7
  10
385.000000
  20
119.000000
  0
VERTEX
  8
C7
  10
383.000000
  20
124.000000
  0
SEQEND
  8
C7
  0
POLYLINE
  8
C7
  66
1
  10
343.000000
  20
85.000000
  0
VERTEX
  8
C7
  10
343.000000
  20
85.000000
  0
VERTEX
  8
C7
  10
349.000000
  20
87.000000
  0
VERTEX
  8
C7
  10
342.000000
  20
75.000000
  0
VERTEX
  8
C7
  10
352.000000
  20
75.000000
  0
VERTEX
  8
C7
  10
352.000000
  20
78.000000
  0
VERTEX
  8
C7
  10
347.000000
  20
78.000000
  0
VERTEX
  8
C7
  10
347.617400
  20
78.654600
  0
VERTEX
  8
C7
  10
348.265300
  20
79.335200
  0
VERTEX
  8
C7
  10
348.918600
  20
80.043500
  0
VERTEX
  8
C7
  10
349.552100
  20
80.781600
  0
VERTEX
  8
C7
  10
350.140800
  20
81.551300
  0
VERTEX
  8
C7
  10
350.659500
  20
82.354500
  0
VERTEX
  8
C7
  10
351.083300
  20
83.193200
  0
VERTEX
  8
C7
  10
351.387000
  20
84.069300
  0
VERTEX
  8
C7
  10
351.545500
  20
84.984700
  0
VERTEX
  8
C7
  10
351.533900
  20
85.941300
  0
VERTEX
  8
C7
  10
351.356500
  20
86.939200
  0
VERTEX
  8
C7
  10
351.069100
  20
87.751600
  0
VERTEX
  8
C7
  10
350.685500
  20
88.389400
  0
VERTEX
  8
C7
  10
350.219600
  20
88.863200
  0
VERTEX
  8
C7
  10
349.685400
  20
89.183800
  0
VERTEX
  8
C7
  10
349.096700
  20
89.362000
  0
VERTEX
  8
C7
  10
348.467400
  20
89.408500
  0
VERTEX
  8
C7
  10
347.811400
  20
89.334200
  0
VERTEX
  8
C7
  10
347.142600
  20
89.149600
  0
VERTEX
  8
C7
  10
346.475000
  20
88.865700
  0
VERTEX
  8
C7
  10
345.822300
  20
88.493200
  0
VERTEX
  8
C7
  10
345.198600
  20
88.042900
  0
VERTEX
  8
C7
  10
344.617700
  20
87.525400
  0
VERTEX
  8
C7
  10
344.093400
  20
86.951600
  0
VERTEX
  8
C7
  10
343.639800
  20
86.332300
  0
VERTEX
  8
C7
  10
343.270700
  20
85.678100
  0
VERTEX
  8
C7
  10
343.000000
  20
85.000000
  0
SEQEND
  8
C7
  0
POLYLINE
  8
C7
  66
1
  10
358.000000
  20
90.000000
  0
VERTEX
  8
C7
  10
358.000000
  20
90.000000
  0
VERTEX
  8
C7
  10
352.000000
  20
79.000000
  0
VERTEX
  8
C7
  10
358.000000
  20
79.000000
  0
VERTEX
  8
C7
  10
358.000000
  20
75.000000
  0
VERTEX
  8
C7
  10
361.000000
  20
75.000000
  0
VERTEX
  8
C7
  10
363.000000
  20
79.000000
  0
VERTEX
  8
C7
  10
363.000000
  20
80.000000
  0
VERTEX
  8
C7
  10
363.000000
  20
81.000000
  0
VERTEX
  8
C7
  10
361.000000
  20
90.000000
  0
VERTEX
  8
C7
  10
358.000000
  20
90.000000
  0
SEQEND
  8
C7
  0
POLYLINE
  8
C7
  66
1
  10
363.000000
  20
90.000000
  0
VERTEX
  8
C7
  10
363.000000
  20
90.000000
  0
VERTEX
  8
C7
  10
366.000000
  20
84.000000
  0
VERTEX
  8
C7
  10
366.000000
  20
90.000000
  0
VERTEX
  8
C7
  10
363.000000
  20
90.000000
  0
SEQEND
  8
C7
  0
POLYLINE
  8
C7
  66
1
  10
367.000000
  20
90.000000
  0
VERTEX
  8
C7
  10
367.000000
  20
90.000000
  0
VERTEX
  8
C7
  10
367.000000
  20
84.000000
  0
VERTEX
  8
C7
  10
369.000000
  20
84.000000
  0
VERTEX
  8
C7
  10
369.000000
  20
90.000000
  0
VERTEX
  8
C7
  10
367.000000
  20
90.000000
  0
SEQEND
  8
C7
  0
POLYLINE
  8
C7
  66
1
  10
373.000000
  20
90.000000
  0
VERTEX
  8
C7
  10
373.000000
  20
90.000000
  0
VERTEX
  8
C7
  10
372.735200
  20
89.163800
  0
VERTEX
  8
C7
  10
372.472900
  20
88.311800
  0
VERTEX
  8
C7
  10
372.217200
  20
87.446800
  0
VERTEX
  8
C7
  10
371.972500
  20
86.571300
  0
VERTEX
  8
C7
  10
371.743000
  20
85.688200
  0
VERTEX
  8
C7
  10
371.533100
  20
84.799900
  0
VERTEX
  8
C7
  10
371.347100
  20
83.909400
  0
VERTEX
  8
C7
  10
371.189300
  20
83.019100
  0
VERTEX
  8
C7
  10
371.063900
  20
82.131800
  0
VERTEX
  8
C7
  10
370.975200
  20
81.250100
  0
VERTEX
  8
C7
  10
370.927600
  20
80.376800
  0
VERTEX
  8
C7
  10
370.925400
  20
79.514500
  0
VERTEX
  8
C7
  10
370.972800
  20
78.665900
  0
VERTEX
  8
C7
  10
371.074100
  20
77.833600
  0
VERTEX
  8
C7
  10
371.233700
  20
77.020400
  0
VERTEX
  8
C7
  10
371.455800
  20
76.228900
  0
VERTEX
  8
C7
  10
371.744800
  20
75.461800
  0
VERTEX
  8
C7
  10
372.104900
  20
74.721800
  0
VERTEX
  8
C7
  10
372.540400
  20
74.011500
  0
VERTEX
  8
C7
  10
373.055700
  20
73.333600
  0
VERTEX
  8
C7
  10
373.655000
  20
72.690900
  0
VERTEX
  8
C7
  10
374.342600
  20
72.085900
  0
VERTEX
  8
C7
  10
375.122800
  20
71.521300
  0
VERTEX
  8
C7
  10
376.000000
  20
71.000000
  0
VERTEX
  8
C7
  10
375.702800
  20
72.138300
  0
VERTEX
  8
C7
  10
375.433500
  20
73.230800
  0
VERTEX
  8
C7
  10
375.193100
  20
74.282700
  0
VERTEX
  8
C7
  10
374.982300
  20
75.299600
  0
VERTEX
  8
C7
  10
374.802100
  20
76.286800
  0
VERTEX
  8
C7
  10
374.653500
  20
77.249700
  0
VERTEX
  8
C7
  10
374.537200
  20
78.193500
  0
VERTEX
  8
C7
  10
374.454300
  20
79.123800
  0
VERTEX
  8
C7
  10
374.405600
  20
80.045900
  0
VERTEX
  8
C7
  10
374.392000
  20
80.965200
  0
VERTEX
  8
C7
  10
374.414500
  20
81.887100
  0
VERTEX
  8
C7
  10
374.473900
  20
82.816900
  0
VERTEX
  8
C7
  10
374.571100
  20
83.760000
  0
VERTEX
  8
C7
  10
374.707100
  20
84.721900
  0
VERTEX
  8
C7
  10
374.882700
  20
85.707800
  0
VERTEX
  8
C7
  10
375.098900
  20
86.723200
  0
VERTEX
  8
C7
  10
375.356600
  20
87.773400
  0
VERTEX
  8
C7
  10
375.656600
  20
88.863900
  0
VERTEX
  8
C7
  10
376.000000
  20
90.000000
  0
VERTEX
  8
C7
  10
373.000000
  20
90.000000
  0
SEQEND
  8
C7
  0
POLYLINE
  8
C7
  66
1
  10
384.000000
  20
84.000000
  0
VERTEX
  8
C7
  10
384.000000
  20
84.000000
  0
VERTEX
  8
C7
  10
384.396500
  20
84.791700
  0
VERTEX
  8
C7
  10
384.632700
  20
85.583500
  0
VERTEX
  8
C7
  10
384.717700
  20
86.356800
  0
VERTEX
  8
C7
  10
384.660800
  20
87.092800
  0
VERTEX
  8
C7
  10
384.471000
  20
87.772800
  0
VERTEX
  8
C7
  10
384.157700
  20
88.378200
  0
VERTEX
  8
C7
  10
383.730100
  20
88.890100
  0
VERTEX
  8
C7
  10
383.197200
  20
89.289900
  0
VERTEX
  8
C7
  10
382.568400
  20
89.559000
  0
VERTEX
  8
C7
  10
381.852900
  20
89.678500
  0
VERTEX
  8
C7
  10
381.059800
  20
89.629800
  0
VERTEX
  8
C7
  10
380.198300
  20
89.394100
  0
VERTEX
  8
C7
  10
379.277700
  20
88.952900
  0
VERTEX
  8
C7
  10
378.618100
  20
88.552100
  0
VERTEX
  8
C7
  10
378.016500
  20
88.150600
  0
VERTEX
  8
C7
  10
377.471000
  20
87.749100
  0
VERTEX
  8
C7
  10
376.980200
  20
87.347800
  0
VERTEX
  8
C7
  10
376.542200
  20
86.947300
  0
VERTEX
  8
C7
  10
376.155600
  20
86.548000
  0
VERTEX
  8
C7
  10
375.818700
  20
86.150500
  0
VERTEX
  8
C7
  10
375.529800
  20
85.755000
  0
VERTEX
  8
C7
  10
375.287400
  20
85.362200
  0
VERTEX
  8
C7
  10
375.089700
  20
84.972500
  0
VERTEX
  8
C7
  10
374.935200
  20
84.586200
  0
VERTEX
  8
C7
  10
374.822200
  20
84.204000
  0
VERTEX
  8
C7
  10
374.749200
  20
83.826200
  0
VERTEX
  8
C7
  10
374.714400
  20
83.453400
  0
VERTEX
  8
C7
  10
374.716200
  20
83.085900
  0
VERTEX
  8
C7
  10
374.753000
  20
82.724200
  0
VERTEX
  8
C7
  10
374.823200
  20
82.368900
  0
VERTEX
  8
C7
  10
374.925200
  20
82.020300
  0
VERTEX
  8
C7
  10
375.057200
  20
81.678900
  0
VERTEX
  8
C7
  10
375.217800
  20
81.345200
  0
VERTEX
  8
C7
  10
375.405100
  20
81.019700
  0
VERTEX
  8
C7
  10
375.617700
  20
80.702700
  0
VERTEX
  8
C7
  10
375.853900
  20
80.394800
  0
VERTEX
  8
C7
  10
376.112100
  20
80.096500
  0
VERTEX
  8
C7
  10
376.390500
  20
79.808100
  0
VERTEX
  8
C7
  10
376.687700
  20
79.530100
  0
VERTEX
  8
C7
  10
377.001900
  20
79.263100
  0
VERTEX
  8
C7
  10
377.331500
  20
79.007400
  0
VERTEX
  8
C7
  10
377.675000
  20
78.763600
  0
VERTEX
  8
C7
  10
378.030600
  20
78.532100
  0
VERTEX
  8
C7
  10
378.396700
  20
78.313300
  0
VERTEX
  8
C7
  10
378.771800
  20
78.107700
  0
VERTEX
  8
C7
  10
379.154100
  20
77.915800
  0
VERTEX
  8
C7
  10
379.542000
  20
77.738000
  0
VERTEX
  8
C7
  10
379.934000
  20
77.574800
  0
VERTEX
  8
C7
  10
380.328400
  20
77.426600
  0
VERTEX
  8
C7
  10
380.723500
  20
77.294000
  0
VERTEX
  8
C7
  10
381.117700
  20
77.177400
  0
VERTEX
  8
C7
  10
381.509400
  20
77.077200
  0
VERTEX
  8
C7
  10
381.896900
  20
76.993900
  0
VERTEX
  8
C7
  10
382.278700
  20
76.927900
  0
VERTEX
  8
C7
  10
382.653100
  20
76.879800
  0
VERTEX
  8
C7
  10
383.018400
  20
76.849900
  0
VERTEX
  8
C7
  10
383.373000
  20
76.838800
  0
VERTEX
  8
C7
  10
383.715400
  20
76.846900
  0
VERTEX
  8
C7
  10
384.043800
  20
76.874600
  0
VERTEX
  8
C7
  10
384.356700
  20
76.922500
  0
VERTEX
  8
C7
  10
384.652300
  20
76.991000
  0
VERTEX
  8
C7
  10
384.929100
  20
77.080500
  0
VERTEX
  8
C7
  10
385.185500
  20
77.191500
  0
VERTEX
  8
C7
  10
385.419800
  20
77.324500
  0
VERTEX
  8
C7
  10
385.630400
  20
77.479900
  0
VERTEX
  8
C7
  10
385.815600
  20
77.658200
  0
VERTEX
  8
C7
  10
385.973800
  20
77.859800
  0
VERTEX
  8
C7
  10
386.103400
  20
78.085300
  0
VERTEX
  8
C7
  10
386.202800
  20
78.335000
  0
VERTEX
  8
C7
  10
386.270300
  20
78.609500
  0
VERTEX
  8
C7
  10
386.304300
  20
78.909100
  0
VERTEX
  8
C7
  10
386.303100
  20
79.234400
  0
VERTEX
  8
C7
  10
386.265200
  20
79.585900
  0
VERTEX
  8
C7
  10
386.188800
  20
79.963900
  0
VERTEX
  8
C7
  10
386.072500
  20
80.368900
  0
VERTEX
  8
C7
  10
385.914400
  20
80.801400
  0
VERTEX
  8
C7
  10
385.713100
  20
81.261900
  0
VERTEX
  8
C7
  10
385.466900
  20
81.750900
  0
VERTEX
  8
C7
  10
385.174000
  20
82.268700
  0
VERTEX
  8
C7
  10
384.833000
  20
82.815800
  0
VERTEX
  8
C7
  10
384.442200
  20
83.392700
  0
VERTEX
  8
C7
  10
384.000000
  20
84.000000
  0
SEQEND
  8
C7
  0
POLYLINE
  8
C7
  66
1
  10
388.000000
  20
84.000000
  0
VERTEX
  8
C7
  10
388.000000
  20
84.000000
  0
VERTEX
  8
C7
  10
391.000000
  20
85.000000
  0
VERTEX
  8
C7
  10
391.000000
  20
75.000000
  0
VERTEX
  8
C7
  10
394.000000
  20
75.000000
  0
VERTEX
  8
C7
  10
394.000000
  20
90.000000
  0
VERTEX
  8
C7
  10
388.000000
  20
84.000000
  0
SEQEND
  8
C7
  0
POLYLINE
  8
C7
  66
1
  10
400.224548
  20
88.913582
  0
VERTEX
  8
C7
  10
400.224548
  20
88.913582
  0
VERTEX
  8
C7
  10
399.651100
  20
88.559200
  0
VERTEX
  8
C7
  10
399.139500
  20
88.123200
  0
VERTEX
  8
C7
  10
398.688700
  20
87.614200
  0
VERTEX
  8
C7
  10
398.297800
  20
87.040900
  0
VERTEX
  8
C7
  10
397.965900
  20
86.411900
  0
VERTEX
  8
C7
  10
397.692100
  20
85.735900
  0
VERTEX
  8
C7
  10
397.475500
  20
85.021700
  0
VERTEX
  8
C7
  10
397.315200
  20
84.277900
  0
VERTEX
  8
C7
  10
397.210400
  20
83.513100
  0
VERTEX
  8
C7
  10
397.160000
  20
82.736200
  0
VERTEX
  8
C7
  10
397.163300
  20
81.955600
  0
VERTEX
  8
C7
  10
397.219300
  20
81.180300
  0
VERTEX
  8
C7
  10
397.327100
  20
80.418700
  0
VERTEX
  8
C7
  10
397.485900
  20
79.679700
  0
VERTEX
  8
C7
  10
397.694700
  20
78.971800
  0
VERTEX
  8
C7
  10
397.952600
  20
78.303800
  0
VERTEX
  8
C7
  10
398.258800
  20
77.684400
  0
VERTEX
  8
C7
  10
398.612300
  20
77.122200
  0
VERTEX
  8
C7
  10
399.012300
  20
76.626000
  0
VERTEX
  8
C7
  10
399.457800
  20
76.204400
  0
VERTEX
  8
C7
  10
399.947900
  20
75.866000
  0
VERTEX
  8
C7
  10
400.481800
  20
75.619700
  0
VERTEX
  8
C7
  10
401.058600
  20
75.474000
  0
VERTEX
  8
C7
  10
401.677300
  20
75.437700
  0
VERTEX
  8
C7
  10
402.337000
  20
75.519400
  0
VERTEX
  8
C7
  10
403.037000
  20
75.727800
  0
VERTEX
  8
C7
  10
403.776200
  20
76.071700
  0
VERTEX
  8
C7
  10
404.338400
  20
76.437400
  0
VERTEX
  8
C7
  10
404.838900
  20
76.880300
  0
VERTEX
  8
C7
  10
405.278600
  20
77.392400
  0
VERTEX
  8
C7
  10
405.658400
  20
77.965200
  0
VERTEX
  8
C7
  10
405.979500
  20
78.590500
  0
VERTEX
  8
C7
  10
406.242800
  20
79.260100
  0
VERTEX
  8
C7
  10
406.449400
  20
79.965700
  0
VERTEX
  8
C7
  10
406.600200
  20
80.698900
  0
VERTEX
  8
C7
  10
406.696300
  20
81.451700
  0
VERTEX
  8
C7
  10
406.738700
  20
82.215700
  0
VERTEX
  8
C7
  10
406.728300
  20
82.982600
  0
VERTEX
  8
C7
  10
406.666300
  20
83.744200
  0
VERTEX
  8
C7
  10
406.553700
  20
84.492300
  0
VERTEX
  8
C7
  10
406.391400
  20
85.218500
  0
VERTEX
  8
C7
  10
406.180400
  20
85.914600
  0
VERTEX
  8
C7
  10
405.921800
  20
86.572300
  0
VERTEX
  8
C7
  10
405.616600
  20
87.183500
  0
VERTEX
  8
C7
  10
405.265900
  20
87.739700
  0
VERTEX
  8
C7
  10
404.870500
  20
88.232800
  0
VERTEX
  8
C7
  10
404.431600
  20
88.654500
  0
VERTEX
  8
C7
  10
403.950100
  20
88.996600
  0
VERTEX
  8
C7
  10
403.427100
  20
89.250700
  0
VERTEX
  8
C7
  10
402.863500
  20
89.408700
  0
VERTEX
  8
C7
  10
402.260500
  20
89.462200
  0
VERTEX
  8
C7
  10
401.619000
  20
89.403000
  0
VERTEX
  8
C7
  10
400.939900
  20
89.222800
  0
VERTEX
  8
C7
  10
400.224500
  20
88.913500
  0
SEQEND
  8
C7
  0
POLYLINE
  8
C7
  66
1
  10
439.000000
  20
90.000000
  0
VERTEX
  8
C7
  10
439.000000
  20
90.000000
  0
VERTEX
  8
C7
  10
439.000000
  20
71.000000
  0
VERTEX
  8
C7
  10
439.878300
  20
71.509900
  0
VERTEX
  8
C7
  10
440.662500
  20
72.065400
  0
VERTEX
  8
C7
  10
441.356400
  20
72.663500
  0
VERTEX
  8
C7
  10
441.964000
  20
73.301300
  0
VERTEX
  8
C7
  10
442.489200
  20
73.976100
  0
VERTEX
  8
C7
  10
442.935900
  20
74.684900
  0
VERTEX
  8
C7
  10
443.307900
  20
75.424900
  0
VERTEX
  8
C7
  10
443.609200
  20
76.193200
  0
VERTEX
  8
C7
  10
443.843700
  20
76.987000
  0
VERTEX
  8
C7
  10
444.015300
  20
77.803400
  0
VERTEX
  8
C7
  10
444.127900
  20
78.639400
  0
VERTEX
  8
C7
  10
444.185500
  20
79.492400
  0
VERTEX
  8
C7
  10
444.191800
  20
80.359300
  0
VERTEX
  8
C7
  10
444.150800
  20
81.237400
  0
VERTEX
  8
C7
  10
444.066500
  20
82.123700
  0
VERTEX
  8
C7
  10
443.942700
  20
83.015400
  0
VERTEX
  8
C7
  10
443.783300
  20
83.909700
  0
VERTEX
  8
C7
  10
443.592300
  20
84.803600
  0
VERTEX
  8
C7
  10
443.373500
  20
85.694300
  0
VERTEX
  8
C7
  10
443.130900
  20
86.579000
  0
VERTEX
  8
C7
  10
442.868300
  20
87.454800
  0
VERTEX
  8
C7
  10
442.589700
  20
88.318800
  0
VERTEX
  8
C7
  10
442.298900
  20
89.168100
  0
VERTEX
  8
C7
  10
442.000000
  20
90.000000
  0
VERTEX
  8
C7
  10
439.000000
  20
90.000000
  0
SEQEND
  8
C7
  0
POLYLINE
  8
C7
  66
1
  10
379.000000
  20
86.000000
  0
VERTEX
  8
C7
  10
379.000000
  20
86.000000
  0
VERTEX
  8
C7
  10
379.000000
  20
85.000000
  0
VERTEX
  8
C7
  10
383.000000
  20
87.000000
  0
VERTEX
  8
C7
  10
379.000000
  20
86.000000
  0
SEQEND
  8
C7
  0
POLYLINE
  8
C7
  66
1
  10
401.000000
  20
87.000000
  0
VERTEX
  8
C7
  10
401.000000
  20
87.000000
  0
VERTEX
  8
C7
  10
401.000000
  20
78.000000
  0
VERTEX
  8
C7
  10
403.000000
  20
78.000000
  0
VERTEX
  8
C7
  10
403.000000
  20
87.000000
  0
VERTEX
  8
C7
  10
401.000000
  20
87.000000
  0
SEQEND
  8
C7
  0
POLYLINE
  8
C7
  66
1
  10
408.000000
  20
86.000000
  0
VERTEX
  8
C7
  10
408.000000
  20
86.000000
  0
VERTEX
  8
C7
  10
408.000000
  20
75.000000
  0
VERTEX
  8
C7
  10
411.000000
  20
75.000000
  0
VERTEX
  8
C7
  10
412.000000
  20
84.000000
  0
VERTEX
  8
C7
  10
413.000000
  20
84.000000
  0
VERTEX
  8
C7
  10
414.000000
  20
75.000000
  0
VERTEX
  8
C7
  10
416.000000
  20
75.000000
  0
VERTEX
  8
C7
  10
419.000000
  20
84.000000
  0
VERTEX
  8
C7
  10
420.000000
  20
75.000000
  0
VERTEX
  8
C7
  10
422.000000
  20
75.000000
  0
VERTEX
  8
C7
  10
421.981900
  20
76.291600
  0
VERTEX
  8
C7
  10
421.927400
  20
77.478100
  0
VERTEX
  8
C7
  10
421.835200
  20
78.563700
  0
VERTEX
  8
C7
  10
421.704300
  20
79.553100
  0
VERTEX
  8
C7
  10
421.533500
  20
80.450500
  0
VERTEX
  8
C7
  10
421.321700
  20
81.260700
  0
VERTEX
  8
C7
  10
421.067700
  20
81.987900
  0
VERTEX
  8
C7
  10
420.770400
  20
82.636700
  0
VERTEX
  8
C7
  10
420.428700
  20
83.211500
  0
VERTEX
  8
C7
  10
420.041500
  20
83.716900
  0
VERTEX
  8
C7
  10
419.607600
  20
84.157200
  0
VERTEX
  8
C7
  10
419.125900
  20
84.537000
  0
VERTEX
  8
C7
  10
418.595200
  20
84.860800
  0
VERTEX
  8
C7
  10
418.014500
  20
85.132900
  0
VERTEX
  8
C7
  10
417.382600
  20
85.357900
  0
VERTEX
  8
C7
  10
416.698400
  20
85.540300
  0
VERTEX
  8
C7
  10
415.960800
  20
85.684400
  0
VERTEX
  8
C7
  10
415.168600
  20
85.794900
  0
VERTEX
  8
C7
  10
414.320600
  20
85.876100
  0
VERTEX
  8
C7
  10
413.415900
  20
85.932600
  0
VERTEX
  8
C7
  10
412.453100
  20
85.968800
  0
VERTEX
  8
C7
  10
411.431300
  20
85.989100
  0
VERTEX
  8
C7
  10
410.349300
  20
85.998100
  0
VERTEX
  8
C7
  10
409.205800
  20
86.000200
  0
VERTEX
  8
C7
  10
408.000000
  20
86.000000
  0
SEQEND
  8
C7
  0
POLYLINE
  8
C7
  66
1
  10
424.000000
  20
86.000000
  0
VERTEX
  8
C7
  10
424.000000
  20
86.000000
  0
VERTEX
  8
C7
  10
424.000000
  20
75.000000
  0
VERTEX
  8
C7
  10
426.000000
  20
75.000000
  0
VERTEX
  8
C7
  10
429.000000
  20
84.000000
  0
VERTEX
  8
C7
  10
429.000000
  20
75.000000
  0
VERTEX
  8
C7
  10
432.000000
  20
75.000000
  0
VERTEX
  8
C7
  10
433.000000
  20
84.000000
  0
VERTEX
  8
C7
  10
434.000000
  20
84.000000
  0
VERTEX
  8
C7
  10
435.000000
  20
75.000000
  0
VERTEX
  8
C7
  10
438.000000
  20
75.000000
  0
VERTEX
  8
C7
  10
437.980200
  20
76.283700
  0
VERTEX
  8
C7
  10
437.922000
  20
77.463000
  0
VERTEX
  8
C7
  10
437.824700
  20
78.542300
  0
VERTEX
  8
C7
  10
437.687200
  20
79.526000
  0
VERTEX
  8
C7
  10
437.508800
  20
80.418600
  0
VERTEX
  8
C7
  10
437.288500
  20
81.224500
  0
VERTEX
  8
C7
  10
437.025600
  20
81.948300
  0
VERTEX
  8
C7
  10
436.719000
  20
82.594200
  0
VERTEX
  8
C7
  10
436.368100
  20
83.166900
  0
VERTEX
  8
C7
  10
435.971800
  20
83.670800
  0
VERTEX
  8
C7
  10
435.529300
  20
84.110300
  0
VERTEX
  8
C7
  10
435.039800
  20
84.489900
  0
VERTEX
  8
C7
  10
434.502400
  20
84.814000
  0
VERTEX
  8
C7
  10
433.916200
  20
85.087200
  0
VERTEX
  8
C7
  10
433.280400
  20
85.313700
  0
VERTEX
  8
C7
  10
432.594000
  20
85.498200
  0
VERTEX
  8
C7
  10
431.856300
  20
85.645100
  0
VERTEX
  8
C7
  10
431.066200
  20
85.758800
  0
VERTEX
  8
C7
  10
430.223100
  20
85.843700
  0
VERTEX
  8
C7
  10
429.326000
  20
85.904400
  0
VERTEX
  8
C7
  10
428.374000
  20
85.945300
  0
VERTEX
  8
C7
  10
427.366200
  20
85.970800
  0
VERTEX
  8
C7
  10
426.301900
  20
85.985500
  0
VERTEX
  8
C7
  10
425.180100
  20
85.993700
  0
VERTEX
  8
C7
  10
424.000000
  20
86.000000
  0
SEQEND
  8
C7
  0
POLYLINE
  8
C7
  66
1
  10
357.000000
  20
84.000000
  0
VERTEX
  8
C7
  10
357.000000
  20
84.000000
  0
VERTEX
  8
C7
  10
356.000000
  20
81.000000
  0
VERTEX
  8
C7
  10
357.000000
  20
84.000000
  0
SEQEND
  8
C7
  0
POLYLINE
  8
C7
  66
1
  10
381.000000
  20
83.000000
  0
VERTEX
  8
C7
  10
381.000000
  20
83.000000
  0
VERTEX
  8
C7
  10
379.000000
  20
79.000000
  0
VERTEX
  8
C7
  10
383.000000
  20
78.000000
  0
VERTEX
  8
C7
  10
381.000000
  20
83.000000
  0
SEQEND
  8
0
  0
ENDSEC
  0
EOF
