  0
SECTION
  2
HEADER
  9
$ACADVER
  1
AC1009
  9
$EXTMIN
  10
 0.000000
  20
 0.000000
  30
 0.000000
  9
$EXTMAX
  10
 792.000000
  20
 612.000000
  30
 0.000000
  0
ENDSEC
  0
SECTION
  2
TABLES
  0
TABLE
  2
LAYER
  70
     2048
  0
LAYER
  2
0
  70
    0
  62
     7
  6
CONTINUOUS
  0
LAYER
   2
C7
  70
     64
  62
7
  6
CONTINUOUS
  0
LAYER
   2
C18
  70
     64
  62
18
  6
CONTINUOUS
  0
ENDTAB
  0
ENDSEC
  0
SECTION
  2
ENTITIES
  0
POLYLINE
  8
C7
  66
1
  10
0.000000
  20
612.000000
  0
VERTEX
  8
C7
  10
0.000000
  20
612.000000
  0
SEQEND
  8
C7
  0
POLYLINE
  8
C7
  66
1
  10
0.000000
  20
612.000000
  0
VERTEX
  8
C7
  10
0.000000
  20
612.000000
  0
VERTEX
  8
C7
  10
0.000000
  20
0.000000
  0
VERTEX
  8
C7
  10
792.000000
  20
0.000000
  0
VERTEX
  8
C7
  10
792.000000
  20
612.000000
  0
VERTEX
  8
C7
  10
0.000000
  20
612.000000
  0
SEQEND
  8
C7
  0
POLYLINE
  8
C7
  66
1
  10
204.000000
  20
518.000000
  0
VERTEX
  8
C7
  10
204.000000
  20
518.000000
  0
VERTEX
  8
C7
  10
203.361000
  20
517.352400
  0
VERTEX
  8
C7
  10
202.717200
  20
516.684000
  0
VERTEX
  8
C7
  10
202.068700
  20
515.996400
  0
VERTEX
  8
C7
  10
201.415500
  20
515.291100
  0
VERTEX
  8
C7
  10
200.757500
  20
514.569900
  0
VERTEX
  8
C7
  10
200.094800
  20
513.834300
  0
VERTEX
  8
C7
  10
199.427300
  20
513.085800
  0
VERTEX
  8
C7
  10
198.755000
  20
512.326200
  0
VERTEX
  8
C7
  10
198.078000
  20
511.556900
  0
VERTEX
  8
C7
  10
197.396300
  20
510.779700
  0
VERTEX
  8
C7
  10
196.709800
  20
509.996100
  0
VERTEX
  8
C7
  10
196.018500
  20
509.207700
  0
VERTEX
  8
C7
  10
195.322500
  20
508.416200
  0
VERTEX
  8
C7
  10
194.621800
  20
507.623100
  0
VERTEX
  8
C7
  10
193.916300
  20
506.830000
  0
VERTEX
  8
C7
  10
193.206000
  20
506.038600
  0
VERTEX
  8
C7
  10
192.490900
  20
505.250400
  0
VERTEX
  8
C7
  10
191.771100
  20
504.467100
  0
VERTEX
  8
C7
  10
191.046600
  20
503.690200
  0
VERTEX
  8
C7
  10
190.317300
  20
502.921400
  0
VERTEX
  8
C7
  10
189.583200
  20
502.162300
  0
VERTEX
  8
C7
  10
188.844300
  20
501.414500
  0
VERTEX
  8
C7
  10
188.100700
  20
500.679500
  0
VERTEX
  8
C7
  10
187.352400
  20
499.959000
  0
VERTEX
  8
C7
  10
186.599200
  20
499.254600
  0
VERTEX
  8
C7
  10
185.841300
  20
498.568000
  0
VERTEX
  8
C7
  10
185.078600
  20
497.900600
  0
VERTEX
  8
C7
  10
184.311200
  20
497.254100
  0
VERTEX
  8
C7
  10
183.539000
  20
496.630100
  0
VERTEX
  8
C7
  10
182.762000
  20
496.030300
  0
VERTEX
  8
C7
  10
181.980300
  20
495.456200
  0
VERTEX
  8
C7
  10
181.193800
  20
494.909400
  0
VERTEX
  8
C7
  10
180.402500
  20
494.391500
  0
VERTEX
  8
C7
  10
179.606400
  20
493.904200
  0
VERTEX
  8
C7
  10
178.805600
  20
493.449100
  0
VERTEX
  8
C7
  10
178.000000
  20
493.027700
  0
VERTEX
  8
C7
  10
177.272500
  20
492.688900
  0
VERTEX
  8
C7
  10
176.510100
  20
492.381300
  0
VERTEX
  8
C7
  10
175.714600
  20
492.103600
  0
VERTEX
  8
C7
  10
174.887800
  20
491.854600
  0
VERTEX
  8
C7
  10
174.031500
  20
491.633300
  0
VERTEX
  8
C7
  10
173.147400
  20
491.438300
  0
VERTEX
  8
C7
  10
172.237300
  20
491.268500
  0
VERTEX
  8
C7
  10
171.303000
  20
491.122700
  0
VERTEX
  8
C7
  10
170.346200
  20
490.999600
  0
VERTEX
  8
C7
  10
169.368700
  20
490.898200
  0
VERTEX
  8
C7
  10
168.372300
  20
490.817200
  0
VERTEX
  8
C7
  10
167.358800
  20
490.755400
  0
VERTEX
  8
C7
  10
166.330000
  20
490.711700
  0
VERTEX
  8
C7
  10
165.287500
  20
490.684700
  0
VERTEX
  8
C7
  10
164.233300
  20
490.673500
  0
VERTEX
  8
C7
  10
163.169000
  20
490.676700
  0
VERTEX
  8
C7
  10
162.096400
  20
490.693100
  0
VERTEX
  8
C7
  10
161.017400
  20
490.721700
  0
VERTEX
  8
C7
  10
159.933600
  20
490.761100
  0
VERTEX
  8
C7
  10
158.846900
  20
490.810200
  0
VERTEX
  8
C7
  10
157.759100
  20
490.867800
  0
VERTEX
  8
C7
  10
156.671800
  20
490.932700
  0
VERTEX
  8
C7
  10
155.586900
  20
491.003700
  0
VERTEX
  8
C7
  10
154.506200
  20
491.079700
  0
VERTEX
  8
C7
  10
153.431400
  20
491.159400
  0
VERTEX
  8
C7
  10
152.364300
  20
491.241600
  0
VERTEX
  8
C7
  10
151.306700
  20
491.325200
  0
VERTEX
  8
C7
  10
150.260300
  20
491.408900
  0
VERTEX
  8
C7
  10
149.227000
  20
491.491700
  0
VERTEX
  8
C7
  10
148.208400
  20
491.572100
  0
VERTEX
  8
C7
  10
147.206400
  20
491.649200
  0
VERTEX
  8
C7
  10
146.222800
  20
491.721700
  0
VERTEX
  8
C7
  10
145.259300
  20
491.788400
  0
VERTEX
  8
C7
  10
144.317600
  20
491.848100
  0
VERTEX
  8
C7
  10
143.399700
  20
491.899600
  0
VERTEX
  8
C7
  10
142.507200
  20
491.941700
  0
VERTEX
  8
C7
  10
141.641800
  20
491.973300
  0
VERTEX
  8
C7
  10
140.805500
  20
491.993100
  0
VERTEX
  8
C7
  10
140.000000
  20
492.000000
  0
VERTEX
  8
C7
  10
164.000000
  20
517.000000
  0
VERTEX
  8
C7
  10
163.230100
  20
516.440100
  0
VERTEX
  8
C7
  10
162.472400
  20
515.855300
  0
VERTEX
  8
C7
  10
161.725900
  20
515.247100
  0
VERTEX
  8
C7
  10
160.989900
  20
514.617200
  0
VERTEX
  8
C7
  10
160.263400
  20
513.967300
  0
VERTEX
  8
C7
  10
159.545800
  20
513.299100
  0
VERTEX
  8
C7
  10
158.836100
  20
512.614200
  0
VERTEX
  8
C7
  10
158.133600
  20
511.914300
  0
VERTEX
  8
C7
  10
157.437300
  20
511.201000
  0
VERTEX
  8
C7
  10
156.746600
  20
510.476200
  0
VERTEX
  8
C7
  10
156.060400
  20
509.741400
  0
VERTEX
  8
C7
  10
155.378100
  20
508.998200
  0
VERTEX
  8
C7
  10
154.698800
  20
508.248500
  0
VERTEX
  8
C7
  10
154.021700
  20
507.493800
  0
VERTEX
  8
C7
  10
153.345900
  20
506.735900
  0
VERTEX
  8
C7
  10
152.670700
  20
505.976300
  0
VERTEX
  8
C7
  10
151.995100
  20
505.216800
  0
VERTEX
  8
C7
  10
151.318400
  20
504.459100
  0
VERTEX
  8
C7
  10
150.639700
  20
503.704800
  0
VERTEX
  8
C7
  10
149.958200
  20
502.955600
  0
VERTEX
  8
C7
  10
149.273100
  20
502.213200
  0
VERTEX
  8
C7
  10
148.583600
  20
501.479200
  0
VERTEX
  8
C7
  10
147.888700
  20
500.755300
  0
VERTEX
  8
C7
  10
147.187800
  20
500.043200
  0
VERTEX
  8
C7
  10
146.480000
  20
499.344600
  0
VERTEX
  8
C7
  10
145.764400
  20
498.661200
  0
VERTEX
  8
C7
  10
145.040200
  20
497.994500
  0
VERTEX
  8
C7
  10
144.306600
  20
497.346400
  0
VERTEX
  8
C7
  10
143.562800
  20
496.718400
  0
VERTEX
  8
C7
  10
142.807900
  20
496.112200
  0
VERTEX
  8
C7
  10
142.041100
  20
495.529600
  0
VERTEX
  8
C7
  10
141.261600
  20
494.972100
  0
VERTEX
  8
C7
  10
140.468600
  20
494.441500
  0
VERTEX
  8
C7
  10
139.661200
  20
493.939500
  0
VERTEX
  8
C7
  10
138.838600
  20
493.467600
  0
VERTEX
  8
C7
  10
138.000000
  20
493.027700
  0
VERTEX
  8
C7
  10
137.274500
  20
492.689400
  0
VERTEX
  8
C7
  10
136.514600
  20
492.381500
  0
VERTEX
  8
C7
  10
135.722100
  20
492.102800
  0
VERTEX
  8
C7
  10
134.898600
  20
491.852400
  0
VERTEX
  8
C7
  10
134.045800
  20
491.628900
  0
VERTEX
  8
C7
  10
133.165500
  20
491.431200
  0
VERTEX
  8
C7
  10
132.259400
  20
491.258300
  0
VERTEX
  8
C7
  10
131.329000
  20
491.109000
  0
VERTEX
  8
C7
  10
130.376300
  20
490.982100
  0
VERTEX
  8
C7
  10
129.402800
  20
490.876600
  0
VERTEX
  8
C7
  10
128.410300
  20
490.791200
  0
VERTEX
  8
C7
  10
127.400400
  20
490.724900
  0
VERTEX
  8
C7
  10
126.374900
  20
490.676600
  0
VERTEX
  8
C7
  10
125.335400
  20
490.645000
  0
VERTEX
  8
C7
  10
124.283800
  20
490.629100
  0
VERTEX
  8
C7
  10
123.221600
  20
490.627600
  0
VERTEX
  8
C7
  10
122.150600
  20
490.639600
  0
VERTEX
  8
C7
  10
121.072400
  20
490.663800
  0
VERTEX
  8
C7
  10
119.988900
  20
490.699200
  0
VERTEX
  8
C7
  10
118.901700
  20
490.744500
  0
VERTEX
  8
C7
  10
117.812400
  20
490.798600
  0
VERTEX
  8
C7
  10
116.722800
  20
490.860500
  0
VERTEX
  8
C7
  10
115.634600
  20
490.929000
  0
VERTEX
  8
C7
  10
114.549600
  20
491.002900
  0
VERTEX
  8
C7
  10
113.469300
  20
491.081100
  0
VERTEX
  8
C7
  10
112.395600
  20
491.162400
  0
VERTEX
  8
C7
  10
111.330000
  20
491.245900
  0
VERTEX
  8
C7
  10
110.274400
  20
491.330200
  0
VERTEX
  8
C7
  10
109.230400
  20
491.414300
  0
VERTEX
  8
C7
  10
108.199700
  20
491.497000
  0
VERTEX
  8
C7
  10
107.184000
  20
491.577300
  0
VERTEX
  8
C7
  10
106.185000
  20
491.653900
  0
VERTEX
  8
C7
  10
105.204500
  20
491.725700
  0
VERTEX
  8
C7
  10
104.244100
  20
491.791700
  0
VERTEX
  8
C7
  10
103.305600
  20
491.850600
  0
VERTEX
  8
C7
  10
102.390600
  20
491.901300
  0
VERTEX
  8
C7
  10
101.500800
  20
491.942800
  0
VERTEX
  8
C7
  10
100.638000
  20
491.973800
  0
VERTEX
  8
C7
  10
99.803800
  20
491.993200
  0
VERTEX
  8
C7
  10
99.000000
  20
492.000000
  0
VERTEX
  8
C7
  10
123.000000
  20
517.000000
  0
VERTEX
  8
C7
  10
122.230100
  20
516.440100
  0
VERTEX
  8
C7
  10
121.472400
  20
515.855300
  0
VERTEX
  8
C7
  10
120.725900
  20
515.247100
  0
VERTEX
  8
C7
  10
119.989900
  20
514.617200
  0
VERTEX
  8
C7
  10
119.263400
  20
513.967300
  0
VERTEX
  8
C7
  10
118.545800
  20
513.299100
  0
VERTEX
  8
C7
  10
117.836100
  20
512.614200
  0
VERTEX
  8
C7
  10
117.133600
  20
511.914300
  0
VERTEX
  8
C7
  10
116.437300
  20
511.201000
  0
VERTEX
  8
C7
  10
115.746600
  20
510.476200
  0
VERTEX
  8
C7
  10
115.060400
  20
509.741400
  0
VERTEX
  8
C7
  10
114.378100
  20
508.998200
  0
VERTEX
  8
C7
  10
113.698800
  20
508.248500
  0
VERTEX
  8
C7
  10
113.021700
  20
507.493800
  0
VERTEX
  8
C7
  10
112.345900
  20
506.735900
  0
VERTEX
  8
C7
  10
111.670700
  20
505.976300
  0
VERTEX
  8
C7
  10
110.995100
  20
505.216800
  0
VERTEX
  8
C7
  10
110.318400
  20
504.459100
  0
VERTEX
  8
C7
  10
109.639700
  20
503.704800
  0
VERTEX
  8
C7
  10
108.958200
  20
502.955600
  0
VERTEX
  8
C7
  10
108.273100
  20
502.213200
  0
VERTEX
  8
C7
  10
107.583600
  20
501.479200
  0
VERTEX
  8
C7
  10
106.888700
  20
500.755300
  0
VERTEX
  8
C7
  10
106.187800
  20
500.043200
  0
VERTEX
  8
C7
  10
105.480000
  20
499.344600
  0
VERTEX
  8
C7
  10
104.764400
  20
498.661200
  0
VERTEX
  8
C7
  10
104.040200
  20
497.994500
  0
VERTEX
  8
C7
  10
103.306600
  20
497.346400
  0
VERTEX
  8
C7
  10
102.562800
  20
496.718400
  0
VERTEX
  8
C7
  10
101.807900
  20
496.112200
  0
VERTEX
  8
C7
  10
101.041100
  20
495.529600
  0
VERTEX
  8
C7
  10
100.261600
  20
494.972100
  0
VERTEX
  8
C7
  10
99.468600
  20
494.441500
  0
VERTEX
  8
C7
  10
98.661200
  20
493.939500
  0
VERTEX
  8
C7
  10
97.838600
  20
493.467600
  0
VERTEX
  8
C7
  10
97.000000
  20
493.027700
  0
VERTEX
  8
C7
  10
96.263500
  20
492.686800
  0
VERTEX
  8
C7
  10
95.490100
  20
492.380400
  0
VERTEX
  8
C7
  10
94.681900
  20
492.107000
  0
VERTEX
  8
C7
  10
93.840900
  20
491.865100
  0
VERTEX
  8
C7
  10
92.969300
  20
491.653300
  0
VERTEX
  8
C7
  10
92.069200
  20
491.470200
  0
VERTEX
  8
C7
  10
91.142600
  20
491.314200
  0
VERTEX
  8
C7
  10
90.191700
  20
491.183800
  0
VERTEX
  8
C7
  10
89.218500
  20
491.077600
  0
VERTEX
  8
C7
  10
88.225200
  20
490.994200
  0
VERTEX
  8
C7
  10
87.213900
  20
490.932100
  0
VERTEX
  8
C7
  10
86.186700
  20
490.889700
  0
VERTEX
  8
C7
  10
85.145600
  20
490.865600
  0
VERTEX
  8
C7
  10
84.092800
  20
490.858500
  0
VERTEX
  8
C7
  10
83.030400
  20
490.866700
  0
VERTEX
  8
C7
  10
81.960500
  20
490.888800
  0
VERTEX
  8
C7
  10
80.885200
  20
490.923300
  0
VERTEX
  8
C7
  10
79.806500
  20
490.968900
  0
VERTEX
  8
C7
  10
78.726700
  20
491.024000
  0
VERTEX
  8
C7
  10
77.647700
  20
491.087100
  0
VERTEX
  8
C7
  10
76.571800
  20
491.156700
  0
VERTEX
  8
C7
  10
75.500900
  20
491.231500
  0
VERTEX
  8
C7
  10
74.437200
  20
491.309900
  0
VERTEX
  8
C7
  10
73.382900
  20
491.390500
  0
VERTEX
  8
C7
  10
72.339900
  20
491.471800
  0
VERTEX
  8
C7
  10
71.310400
  20
491.552300
  0
VERTEX
  8
C7
  10
70.296600
  20
491.630600
  0
VERTEX
  8
C7
  10
69.300400
  20
491.705200
  0
VERTEX
  8
C7
  10
68.324100
  20
491.774600
  0
VERTEX
  8
C7
  10
67.369700
  20
491.837300
  0
VERTEX
  8
C7
  10
66.439300
  20
491.891900
  0
VERTEX
  8
C7
  10
65.535000
  20
491.937000
  0
VERTEX
  8
C7
  10
64.659000
  20
491.971000
  0
VERTEX
  8
C7
  10
63.813300
  20
491.992500
  0
VERTEX
  8
C7
  10
63.000000
  20
492.000000
  0
VERTEX
  8
C7
  10
63.000000
  20
491.000000
  0
VERTEX
  8
C7
  10
63.436800
  20
490.359900
  0
VERTEX
  8
C7
  10
63.843300
  20
489.682600
  0
VERTEX
  8
C7
  10
64.220400
  20
488.969600
  0
VERTEX
  8
C7
  10
64.569000
  20
488.222600
  0
VERTEX
  8
C7
  10
64.890000
  20
487.443200
  0
VERTEX
  8
C7
  10
65.184500
  20
486.632900
  0
VERTEX
  8
C7
  10
65.453300
  20
485.793400
  0
VERTEX
  8
C7
  10
65.697400
  20
484.926200
  0
VERTEX
  8
C7
  10
65.917700
  20
484.033000
  0
VERTEX
  8
C7
  10
66.115200
  20
483.115300
  0
VERTEX
  8
C7
  10
66.290900
  20
482.174800
  0
VERTEX
  8
C7
  10
66.445600
  20
481.213000
  0
VERTEX
  8
C7
  10
66.580300
  20
480.231500
  0
VERTEX
  8
C7
  10
66.696000
  20
479.232000
  0
VERTEX
  8
C7
  10
66.793600
  20
478.216000
  0
VERTEX
  8
C7
  10
66.874100
  20
477.185200
  0
VERTEX
  8
C7
  10
66.938400
  20
476.141000
  0
VERTEX
  8
C7
  10
66.987400
  20
475.085200
  0
VERTEX
  8
C7
  10
67.022100
  20
474.019300
  0
VERTEX
  8
C7
  10
67.043500
  20
472.944900
  0
VERTEX
  8
C7
  10
67.052400
  20
471.863600
  0
VERTEX
  8
C7
  10
67.049900
  20
470.777100
  0
VERTEX
  8
C7
  10
67.036800
  20
469.686800
  0
VERTEX
  8
C7
  10
67.014200
  20
468.594500
  0
VERTEX
  8
C7
  10
66.982900
  20
467.501700
  0
VERTEX
  8
C7
  10
66.944000
  20
466.409900
  0
VERTEX
  8
C7
  10
66.898300
  20
465.320900
  0
VERTEX
  8
C7
  10
66.846800
  20
464.236100
  0
VERTEX
  8
C7
  10
66.790400
  20
463.157200
  0
VERTEX
  8
C7
  10
66.730100
  20
462.085900
  0
VERTEX
  8
C7
  10
66.666900
  20
461.023600
  0
VERTEX
  8
C7
  10
66.601600
  20
459.972000
  0
VERTEX
  8
C7
  10
66.535300
  20
458.932700
  0
VERTEX
  8
C7
  10
66.468900
  20
457.907200
  0
VERTEX
  8
C7
  10
66.403300
  20
456.897200
  0
VERTEX
  8
C7
  10
66.339400
  20
455.904300
  0
VERTEX
  8
C7
  10
66.278200
  20
454.930100
  0
VERTEX
  8
C7
  10
66.220700
  20
453.976100
  0
VERTEX
  8
C7
  10
66.167800
  20
453.044000
  0
VERTEX
  8
C7
  10
66.120500
  20
452.135400
  0
VERTEX
  8
C7
  10
66.079600
  20
451.251800
  0
VERTEX
  8
C7
  10
66.046200
  20
450.394900
  0
VERTEX
  8
C7
  10
66.021100
  20
449.566200
  0
VERTEX
  8
C7
  10
66.005400
  20
448.767300
  0
VERTEX
  8
C7
  10
66.000000
  20
448.000000
  0
VERTEX
  8
C7
  10
66.000000
  20
336.000000
  0
VERTEX
  8
C7
  10
67.000000
  20
336.000000
  0
VERTEX
  8
C7
  10
67.000000
  20
491.000000
  0
VERTEX
  8
C7
  10
116.000000
  20
491.000000
  0
VERTEX
  8
C7
  10
116.000000
  20
464.000000
  0
VERTEX
  8
C7
  10
117.000000
  20
464.000000
  0
VERTEX
  8
C7
  10
118.000000
  20
491.000000
  0
VERTEX
  8
C7
  10
158.000000
  20
491.000000
  0
VERTEX
  8
C7
  10
157.319200
  20
490.173500
  0
VERTEX
  8
C7
  10
156.700900
  20
489.339700
  0
VERTEX
  8
C7
  10
156.142100
  20
488.498500
  0
VERTEX
  8
C7
  10
155.639700
  20
487.649900
  0
VERTEX
  8
C7
  10
155.191100
  20
486.793800
  0
VERTEX
  8
C7
  10
154.793100
  20
485.930300
  0
VERTEX
  8
C7
  10
154.443000
  20
485.059100
  0
VERTEX
  8
C7
  10
154.137800
  20
484.180300
  0
VERTEX
  8
C7
  10
153.874500
  20
483.293900
  0
VERTEX
  8
C7
  10
153.650300
  20
482.399700
  0
VERTEX
  8
C7
  10
153.462300
  20
481.497700
  0
VERTEX
  8
C7
  10
153.307600
  20
480.587900
  0
VERTEX
  8
C7
  10
153.183100
  20
479.670200
  0
VERTEX
  8
C7
  10
153.086100
  20
478.744600
  0
VERTEX
  8
C7
  10
153.013600
  20
477.811000
  0
VERTEX
  8
C7
  10
152.962700
  20
476.869400
  0
VERTEX
  8
C7
  10
152.930400
  20
475.919700
  0
VERTEX
  8
C7
  10
152.913900
  20
474.961800
  0
VERTEX
  8
C7
  10
152.910300
  20
473.995800
  0
VERTEX
  8
C7
  10
152.916600
  20
473.021500
  0
VERTEX
  8
C7
  10
152.929900
  20
472.038900
  0
VERTEX
  8
C7
  10
152.947400
  20
471.048000
  0
VERTEX
  8
C7
  10
152.966000
  20
470.048700
  0
VERTEX
  8
C7
  10
152.982900
  20
469.041000
  0
VERTEX
  8
C7
  10
152.995200
  20
468.024700
  0
VERTEX
  8
C7
  10
153.000000
  20
467.000000
  0
VERTEX
  8
C7
  10
153.000000
  20
422.000000
  0
VERTEX
  8
C7
  10
118.000000
  20
422.000000
  0
VERTEX
  8
C7
  10
117.000000
  20
449.000000
  0
VERTEX
  8
C7
  10
116.000000
  20
449.000000
  0
VERTEX
  8
C7
  10
116.007500
  20
448.336200
  0
VERTEX
  8
C7
  10
116.028700
  20
447.605700
  0
VERTEX
  8
C7
  10
116.061300
  20
446.813700
  0
VERTEX
  8
C7
  10
116.103000
  20
445.965800
  0
VERTEX
  8
C7
  10
116.151600
  20
445.067200
  0
VERTEX
  8
C7
  10
116.204800
  20
444.123500
  0
VERTEX
  8
C7
  10
116.260400
  20
443.140100
  0
VERTEX
  8
C7
  10
116.316000
  20
442.122200
  0
VERTEX
  8
C7
  10
116.369500
  20
441.075500
  0
VERTEX
  8
C7
  10
116.418600
  20
440.005200
  0
VERTEX
  8
C7
  10
116.461100
  20
438.916900
  0
VERTEX
  8
C7
  10
116.494600
  20
437.815800
  0
VERTEX
  8
C7
  10
116.516900
  20
436.707500
  0
VERTEX
  8
C7
  10
116.525800
  20
435.597300
  0
VERTEX
  8
C7
  10
116.519000
  20
434.490700
  0
VERTEX
  8
C7
  10
116.494200
  20
433.393100
  0
VERTEX
  8
C7
  10
116.449300
  20
432.309800
  0
VERTEX
  8
C7
  10
116.381900
  20
431.246300
  0
VERTEX
  8
C7
  10
116.289800
  20
430.208100
  0
VERTEX
  8
C7
  10
116.170700
  20
429.200500
  0
VERTEX
  8
C7
  10
116.022300
  20
428.228900
  0
VERTEX
  8
C7
  10
115.842500
  20
427.298800
  0
VERTEX
  8
C7
  10
115.629000
  20
426.415500
  0
VERTEX
  8
C7
  10
115.379400
  20
425.584500
  0
VERTEX
  8
C7
  10
115.091700
  20
424.811300
  0
VERTEX
  8
C7
  10
114.763400
  20
424.101100
  0
VERTEX
  8
C7
  10
114.392300
  20
423.459500
  0
VERTEX
  8
C7
  10
113.976200
  20
422.891800
  0
VERTEX
  8
C7
  10
113.512800
  20
422.403500
  0
VERTEX
  8
C7
  10
113.000000
  20
422.000000
  0
VERTEX
  8
C7
  10
113.000000
  20
421.000000
  0
VERTEX
  8
C7
  10
116.000000
  20
421.000000
  0
VERTEX
  8
C7
  10
116.000000
  20
325.000000
  0
VERTEX
  8
C7
  10
117.000000
  20
325.000000
  0
VERTEX
  8
C7
  10
118.000000
  20
421.000000
  0
VERTEX
  8
C7
  10
153.000000
  20
421.000000
  0
VERTEX
  8
C7
  10
153.000000
  20
214.000000
  0
VERTEX
  8
C7
  10
118.000000
  20
214.000000
  0
VERTEX
  8
C7
  10
117.000000
  20
311.000000
  0
VERTEX
  8
C7
  10
116.000000
  20
311.000000
  0
VERTEX
  8
C7
  10
116.000000
  20
239.000000
  0
VERTEX
  8
C7
  10
116.007900
  20
238.303600
  0
VERTEX
  8
C7
  10
116.029800
  20
237.534100
  0
VERTEX
  8
C7
  10
116.062900
  20
236.698200
  0
VERTEX
  8
C7
  10
116.104400
  20
235.802500
  0
VERTEX
  8
C7
  10
116.151600
  20
234.853600
  0
VERTEX
  8
C7
  10
116.201700
  20
233.858200
  0
VERTEX
  8
C7
  10
116.251800
  20
232.823000
  0
VERTEX
  8
C7
  10
116.299300
  20
231.754700
  0
VERTEX
  8
C7
  10
116.341400
  20
230.659700
  0
VERTEX
  8
C7
  10
116.375200
  20
229.544900
  0
VERTEX
  8
C7
  10
116.397900
  20
228.416900
  0
VERTEX
  8
C7
  10
116.407000
  20
227.282300
  0
VERTEX
  8
C7
  10
116.399400
  20
226.147800
  0
VERTEX
  8
C7
  10
116.372500
  20
225.020100
  0
VERTEX
  8
C7
  10
116.323500
  20
223.905700
  0
VERTEX
  8
C7
  10
116.249600
  20
222.811400
  0
VERTEX
  8
C7
  10
116.148100
  20
221.743800
  0
VERTEX
  8
C7
  10
116.016100
  20
220.709500
  0
VERTEX
  8
C7
  10
115.850900
  20
219.715200
  0
VERTEX
  8
C7
  10
115.649600
  20
218.767600
  0
VERTEX
  8
C7
  10
115.409700
  20
217.873400
  0
VERTEX
  8
C7
  10
115.128100
  20
217.039100
  0
VERTEX
  8
C7
  10
114.802200
  20
216.271400
  0
VERTEX
  8
C7
  10
114.429300
  20
215.577000
  0
VERTEX
  8
C7
  10
114.006400
  20
214.962500
  0
VERTEX
  8
C7
  10
113.530900
  20
214.434600
  0
VERTEX
  8
C7
  10
113.000000
  20
214.000000
  0
VERTEX
  8
C7
  10
113.000000
  20
213.000000
  0
VERTEX
  8
C7
  10
153.000000
  20
213.000000
  0
VERTEX
  8
C7
  10
153.000000
  20
168.000000
  0
VERTEX
  8
C7
  10
67.000000
  20
168.000000
  0
VERTEX
  8
C7
  10
67.000000
  20
218.000000
  0
VERTEX
  8
C7
  10
67.000000
  20
322.000000
  0
VERTEX
  8
C7
  10
66.000000
  20
322.000000
  0
VERTEX
  8
C7
  10
66.000000
  20
211.000000
  0
VERTEX
  8
C7
  10
66.005300
  20
210.220600
  0
VERTEX
  8
C7
  10
66.020600
  20
209.411700
  0
VERTEX
  8
C7
  10
66.044900
  20
208.574800
  0
VERTEX
  8
C7
  10
66.077400
  20
207.711300
  0
VERTEX
  8
C7
  10
66.117200
  20
206.822700
  0
VERTEX
  8
C7
  10
66.163200
  20
205.910600
  0
VERTEX
  8
C7
  10
66.214600
  20
204.976400
  0
VERTEX
  8
C7
  10
66.270500
  20
204.021700
  0
VERTEX
  8
C7
  10
66.329800
  20
203.048000
  0
VERTEX
  8
C7
  10
66.391800
  20
202.056700
  0
VERTEX
  8
C7
  10
66.455400
  20
201.049500
  0
VERTEX
  8
C7
  10
66.519700
  20
200.027600
  0
VERTEX
  8
C7
  10
66.583900
  20
198.992800
  0
VERTEX
  8
C7
  10
66.646900
  20
197.946400
  0
VERTEX
  8
C7
  10
66.708000
  20
196.890100
  0
VERTEX
  8
C7
  10
66.766000
  20
195.825200
  0
VERTEX
  8
C7
  10
66.820200
  20
194.753300
  0
VERTEX
  8
C7
  10
66.869500
  20
193.675900
  0
VERTEX
  8
C7
  10
66.913100
  20
192.594500
  0
VERTEX
  8
C7
  10
66.950100
  20
191.510600
  0
VERTEX
  8
C7
  10
66.979400
  20
190.425700
  0
VERTEX
  8
C7
  10
67.000300
  20
189.341400
  0
VERTEX
  8
C7
  10
67.011700
  20
188.259000
  0
VERTEX
  8
C7
  10
67.012700
  20
187.180100
  0
VERTEX
  8
C7
  10
67.002400
  20
186.106300
  0
VERTEX
  8
C7
  10
66.979900
  20
185.039000
  0
VERTEX
  8
C7
  10
66.944300
  20
183.979800
  0
VERTEX
  8
C7
  10
66.894600
  20
182.930000
  0
VERTEX
  8
C7
  10
66.829900
  20
181.891300
  0
VERTEX
  8
C7
  10
66.749300
  20
180.865200
  0
VERTEX
  8
C7
  10
66.651800
  20
179.853000
  0
VERTEX
  8
C7
  10
66.536600
  20
178.856500
  0
VERTEX
  8
C7
  10
66.402600
  20
177.877000
  0
VERTEX
  8
C7
  10
66.249100
  20
176.916000
  0
VERTEX
  8
C7
  10
66.075000
  20
175.975100
  0
VERTEX
  8
C7
  10
65.879400
  20
175.055700
  0
VERTEX
  8
C7
  10
65.661400
  20
174.159400
  0
VERTEX
  8
C7
  10
65.420100
  20
173.287700
  0
VERTEX
  8
C7
  10
65.154500
  20
172.442100
  0
VERTEX
  8
C7
  10
64.863800
  20
171.624000
  0
VERTEX
  8
C7
  10
64.546900
  20
170.835000
  0
VERTEX
  8
C7
  10
64.203000
  20
170.076600
  0
VERTEX
  8
C7
  10
63.831200
  20
169.350300
  0
VERTEX
  8
C7
  10
63.430500
  20
168.657600
  0
VERTEX
  8
C7
  10
63.000000
  20
168.000000
  0
VERTEX
  8
C7
  10
63.000000
  20
167.000000
  0
VERTEX
  8
C7
  10
153.000000
  20
167.000000
  0
VERTEX
  8
C7
  10
153.000000
  20
105.000000
  0
VERTEX
  8
C7
  10
154.000000
  20
105.000000
  0
VERTEX
  8
C7
  10
154.000000
  20
108.000000
  0
VERTEX
  8
C7
  10
163.000000
  20
106.000000
  0
VERTEX
  8
C7
  10
179.000000
  20
108.000000
  0
VERTEX
  8
C7
  10
218.000000
  20
108.000000
  0
VERTEX
  8
C7
  10
370.000000
  20
108.000000
  0
VERTEX
  8
C7
  10
370.000000
  20
109.000000
  0
VERTEX
  8
C7
  10
225.000000
  20
109.000000
  0
VERTEX
  8
C7
  10
154.000000
  20
109.000000
  0
VERTEX
  8
C7
  10
154.000000
  20
167.000000
  0
VERTEX
  8
C7
  10
237.000000
  20
167.000000
  0
VERTEX
  8
C7
  10
237.000000
  20
137.000000
  0
VERTEX
  8
C7
  10
238.000000
  20
137.000000
  0
VERTEX
  8
C7
  10
238.000000
  20
140.000000
  0
VERTEX
  8
C7
  10
280.000000
  20
140.000000
  0
VERTEX
  8
C7
  10
370.000000
  20
140.000000
  0
VERTEX
  8
C7
  10
370.000000
  20
141.000000
  0
VERTEX
  8
C7
  10
281.000000
  20
141.000000
  0
VERTEX
  8
C7
  10
280.245300
  20
140.992400
  0
VERTEX
  8
C7
  10
279.450400
  20
140.970700
  0
VERTEX
  8
C7
  10
278.617600
  20
140.936400
  0
VERTEX
  8
C7
  10
277.749700
  20
140.891200
  0
VERTEX
  8
C7
  10
276.849200
  20
140.836500
  0
VERTEX
  8
C7
  10
275.918800
  20
140.774000
  0
VERTEX
  8
C7
  10
274.961000
  20
140.705200
  0
VERTEX
  8
C7
  10
273.978400
  20
140.631600
  0
VERTEX
  8
C7
  10
272.973800
  20
140.554900
  0
VERTEX
  8
C7
  10
271.949500
  20
140.476600
  0
VERTEX
  8
C7
  10
270.908400
  20
140.398200
  0
VERTEX
  8
C7
  10
269.853000
  20
140.321400
  0
VERTEX
  8
C7
  10
268.785800
  20
140.247600
  0
VERTEX
  8
C7
  10
267.709500
  20
140.178500
  0
VERTEX
  8
C7
  10
266.626700
  20
140.115600
  0
VERTEX
  8
C7
  10
265.540000
  20
140.060500
  0
VERTEX
  8
C7
  10
264.452000
  20
140.014700
  0
VERTEX
  8
C7
  10
263.365400
  20
139.979900
  0
VERTEX
  8
C7
  10
262.282600
  20
139.957500
  0
VERTEX
  8
C7
  10
261.206400
  20
139.949100
  0
VERTEX
  8
C7
  10
260.139300
  20
139.956300
  0
VERTEX
  8
C7
  10
259.083900
  20
139.980700
  0
VERTEX
  8
C7
  10
258.042900
  20
140.023800
  0
VERTEX
  8
C7
  10
257.018800
  20
140.087300
  0
VERTEX
  8
C7
  10
256.014300
  20
140.172500
  0
VERTEX
  8
C7
  10
255.031900
  20
140.281200
  0
VERTEX
  8
C7
  10
254.074300
  20
140.414900
  0
VERTEX
  8
C7
  10
253.144000
  20
140.575100
  0
VERTEX
  8
C7
  10
252.243800
  20
140.763400
  0
VERTEX
  8
C7
  10
251.376100
  20
140.981400
  0
VERTEX
  8
C7
  10
250.543600
  20
141.230600
  0
VERTEX
  8
C7
  10
249.748800
  20
141.512600
  0
VERTEX
  8
C7
  10
248.994500
  20
141.829000
  0
VERTEX
  8
C7
  10
248.283200
  20
142.181300
  0
VERTEX
  8
C7
  10
247.617500
  20
142.571100
  0
VERTEX
  8
C7
  10
247.000000
  20
143.000000
  0
VERTEX
  8
C7
  10
238.000000
  20
141.000000
  0
VERTEX
  8
C7
  10
238.000000
  20
167.000000
  0
VERTEX
  8
C7
  10
526.000000
  20
167.000000
  0
VERTEX
  8
C7
  10
526.000000
  20
141.000000
  0
VERTEX
  8
C7
  10
517.000000
  20
143.000000
  0
VERTEX
  8
C7
  10
516.378100
  20
142.568500
  0
VERTEX
  8
C7
  10
515.707600
  20
142.177400
  0
VERTEX
  8
C7
  10
514.991200
  20
141.824700
  0
VERTEX
  8
C7
  10
514.231700
  20
141.509000
  0
VERTEX
  8
C7
  10
513.431700
  20
141.228500
  0
VERTEX
  8
C7
  10
512.593900
  20
140.981600
  0
VERTEX
  8
C7
  10
511.721000
  20
140.766700
  0
VERTEX
  8
C7
  10
510.815800
  20
140.582000
  0
VERTEX
  8
C7
  10
509.880900
  20
140.426000
  0
VERTEX
  8
C7
  10
508.919000
  20
140.297000
  0
VERTEX
  8
C7
  10
507.932800
  20
140.193300
  0
VERTEX
  8
C7
  10
506.925000
  20
140.113200
  0
VERTEX
  8
C7
  10
505.898300
  20
140.055200
  0
VERTEX
  8
C7
  10
504.855500
  20
140.017500
  0
VERTEX
  8
C7
  10
503.799200
  20
139.998600
  0
VERTEX
  8
C7
  10
502.732100
  20
139.996700
  0
VERTEX
  8
C7
  10
501.656900
  20
140.010200
  0
VERTEX
  8
C7
  10
500.576400
  20
140.037400
  0
VERTEX
  8
C7
  10
499.493100
  20
140.076700
  0
VERTEX
  8
C7
  10
498.409900
  20
140.126500
  0
VERTEX
  8
C7
  10
497.329400
  20
140.185000
  0
VERTEX
  8
C7
  10
496.254400
  20
140.250700
  0
VERTEX
  8
C7
  10
495.187400
  20
140.321800
  0
VERTEX
  8
C7
  10
494.131300
  20
140.396800
  0
VERTEX
  8
C7
  10
493.088600
  20
140.473900
  0
VERTEX
  8
C7
  10
492.062200
  20
140.551500
  0
VERTEX
  8
C7
  10
491.054800
  20
140.628000
  0
VERTEX
  8
C7
  10
490.068900
  20
140.701600
  0
VERTEX
  8
C7
  10
489.107300
  20
140.770900
  0
VERTEX
  8
C7
  10
488.172800
  20
140.834000
  0
VERTEX
  8
C7
  10
487.268000
  20
140.889300
  0
VERTEX
  8
C7
  10
486.395600
  20
140.935200
  0
VERTEX
  8
C7
  10
485.558300
  20
140.970100
  0
VERTEX
  8
C7
  10
484.758900
  20
140.992200
  0
VERTEX
  8
C7
  10
484.000000
  20
141.000000
  0
VERTEX
  8
C7
  10
395.000000
  20
141.000000
  0
VERTEX
  8
C7
  10
395.000000
  20
140.000000
  0
VERTEX
  8
C7
  10
493.000000
  20
140.000000
  0
VERTEX
  8
C7
  10
493.642400
  20
140.006700
  0
VERTEX
  8
C7
  10
494.344000
  20
140.025900
  0
VERTEX
  8
C7
  10
495.100700
  20
140.056000
  0
VERTEX
  8
C7
  10
495.908800
  20
140.095400
  0
VERTEX
  8
C7
  10
496.764500
  20
140.142600
  0
VERTEX
  8
C7
  10
497.664000
  20
140.196100
  0
VERTEX
  8
C7
  10
498.603300
  20
140.254200
  0
VERTEX
  8
C7
  10
499.578800
  20
140.315500
  0
VERTEX
  8
C7
  10
500.586500
  20
140.378400
  0
VERTEX
  8
C7
  10
501.622600
  20
140.441300
  0
VERTEX
  8
C7
  10
502.683300
  20
140.502700
  0
VERTEX
  8
C7
  10
503.764800
  20
140.560900
  0
VERTEX
  8
C7
  10
504.863300
  20
140.614600
  0
VERTEX
  8
C7
  10
505.974800
  20
140.662100
  0
VERTEX
  8
C7
  10
507.095600
  20
140.701800
  0
VERTEX
  8
C7
  10
508.221900
  20
140.732300
  0
VERTEX
  8
C7
  10
509.349900
  20
140.751900
  0
VERTEX
  8
C7
  10
510.475600
  20
140.759100
  0
VERTEX
  8
C7
  10
511.595300
  20
140.752400
  0
VERTEX
  8
C7
  10
512.705200
  20
140.730200
  0
VERTEX
  8
C7
  10
513.801400
  20
140.690900
  0
VERTEX
  8
C7
  10
514.880100
  20
140.633100
  0
VERTEX
  8
C7
  10
515.937400
  20
140.555000
  0
VERTEX
  8
C7
  10
516.969600
  20
140.455300
  0
VERTEX
  8
C7
  10
517.972800
  20
140.332300
  0
VERTEX
  8
C7
  10
518.943200
  20
140.184500
  0
VERTEX
  8
C7
  10
519.876900
  20
140.010300
  0
VERTEX
  8
C7
  10
520.770200
  20
139.808200
  0
VERTEX
  8
C7
  10
521.619200
  20
139.576600
  0
VERTEX
  8
C7
  10
522.420000
  20
139.314000
  0
VERTEX
  8
C7
  10
523.168900
  20
139.018800
  0
VERTEX
  8
C7
  10
523.862000
  20
138.689500
  0
VERTEX
  8
C7
  10
524.495400
  20
138.324500
  0
VERTEX
  8
C7
  10
525.065500
  20
137.922300
  0
VERTEX
  8
C7
  10
525.568300
  20
137.481300
  0
VERTEX
  8
C7
  10
526.000000
  20
137.000000
  0
VERTEX
  8
C7
  10
527.000000
  20
137.000000
  0
VERTEX
  8
C7
  10
527.000000
  20
167.000000
  0
VERTEX
  8
C7
  10
584.000000
  20
167.000000
  0
VERTEX
  8
C7
  10
584.954700
  20
166.993400
  0
VERTEX
  8
C7
  10
585.915800
  20
166.975500
  0
VERTEX
  8
C7
  10
586.882100
  20
166.948800
  0
VERTEX
  8
C7
  10
587.852900
  20
166.915900
  0
VERTEX
  8
C7
  10
588.827100
  20
166.879300
  0
VERTEX
  8
C7
  10
589.803800
  20
166.841800
  0
VERTEX
  8
C7
  10
590.782100
  20
166.805900
  0
VERTEX
  8
C7
  10
591.760900
  20
166.774100
  0
VERTEX
  8
C7
  10
592.739400
  20
166.749000
  0
VERTEX
  8
C7
  10
593.716600
  20
166.733300
  0
VERTEX
  8
C7
  10
594.691500
  20
166.729600
  0
VERTEX
  8
C7
  10
595.663200
  20
166.740300
  0
VERTEX
  8
C7
  10
596.630800
  20
166.768200
  0
VERTEX
  8
C7
  10
597.593200
  20
166.815700
  0
VERTEX
  8
C7
  10
598.549600
  20
166.885600
  0
VERTEX
  8
C7
  10
599.499000
  20
166.980300
  0
VERTEX
  8
C7
  10
600.440500
  20
167.102500
  0
VERTEX
  8
C7
  10
601.373000
  20
167.254700
  0
VERTEX
  8
C7
  10
602.295700
  20
167.439600
  0
VERTEX
  8
C7
  10
603.207600
  20
167.659700
  0
VERTEX
  8
C7
  10
604.107700
  20
167.917700
  0
VERTEX
  8
C7
  10
604.995200
  20
168.216100
  0
VERTEX
  8
C7
  10
605.869000
  20
168.557400
  0
VERTEX
  8
C7
  10
606.728200
  20
168.944400
  0
VERTEX
  8
C7
  10
607.571800
  20
169.379500
  0
VERTEX
  8
C7
  10
608.398900
  20
169.865400
  0
VERTEX
  8
C7
  10
609.208600
  20
170.404700
  0
VERTEX
  8
C7
  10
610.000000
  20
171.000000
  0
VERTEX
  8
C7
  10
610.000000
  20
109.000000
  0
VERTEX
  8
C7
  10
540.000000
  20
109.000000
  0
VERTEX
  8
C7
  10
395.000000
  20
109.000000
  0
VERTEX
  8
C7
  10
395.000000
  20
108.000000
  0
VERTEX
  8
C7
  10
551.000000
  20
108.000000
  0
VERTEX
  8
C7
  10
591.000000
  20
108.000000
  0
VERTEX
  8
C7
  10
610.000000
  20
105.000000
  0
VERTEX
  8
C7
  10
611.000000
  20
105.000000
  0
VERTEX
  8
C7
  10
611.000000
  20
337.000000
  0
VERTEX
  8
C7
  10
620.000000
  20
337.000000
  0
VERTEX
  8
C7
  10
620.000000
  20
338.000000
  0
VERTEX
  8
C7
  10
611.000000
  20
338.000000
  0
VERTEX
  8
C7
  10
610.991000
  20
338.942000
  0
VERTEX
  8
C7
  10
610.966300
  20
339.904600
  0
VERTEX
  8
C7
  10
610.928900
  20
340.885200
  0
VERTEX
  8
C7
  10
610.881800
  20
341.881600
  0
VERTEX
  8
C7
  10
610.828200
  20
342.891100
  0
VERTEX
  8
C7
  10
610.771000
  20
343.911400
  0
VERTEX
  8
C7
  10
610.713400
  20
344.940000
  0
VERTEX
  8
C7
  10
610.658400
  20
345.974600
  0
VERTEX
  8
C7
  10
610.609000
  20
347.012600
  0
VERTEX
  8
C7
  10
610.568400
  20
348.051600
  0
VERTEX
  8
C7
  10
610.539600
  20
349.089200
  0
VERTEX
  8
C7
  10
610.525700
  20
350.122900
  0
VERTEX
  8
C7
  10
610.529700
  20
351.150300
  0
VERTEX
  8
C7
  10
610.554800
  20
352.168900
  0
VERTEX
  8
C7
  10
610.603900
  20
353.176400
  0
VERTEX
  8
C7
  10
610.680100
  20
354.170200
  0
VERTEX
  8
C7
  10
610.786500
  20
355.148000
  0
VERTEX
  8
C7
  10
610.926200
  20
356.107300
  0
VERTEX
  8
C7
  10
611.102300
  20
357.045600
  0
VERTEX
  8
C7
  10
611.317800
  20
357.960600
  0
VERTEX
  8
C7
  10
611.551700
  20
358.784200
  0
VERTEX
  8
C7
  10
611.822900
  20
359.611700
  0
VERTEX
  8
C7
  10
612.130200
  20
360.441700
  0
VERTEX
  8
C7
  10
612.472400
  20
361.273200
  0
VERTEX
  8
C7
  10
612.848400
  20
362.105100
  0
VERTEX
  8
C7
  10
613.257000
  20
362.936300
  0
VERTEX
  8
C7
  10
613.697300
  20
363.765600
  0
VERTEX
  8
C7
  10
614.167900
  20
364.591900
  0
VERTEX
  8
C7
  10
614.667800
  20
365.414200
  0
VERTEX
  8
C7
  10
615.195900
  20
366.231300
  0
VERTEX
  8
C7
  10
615.750900
  20
367.042100
  0
VERTEX
  8
C7
  10
616.331900
  20
367.845500
  0
VERTEX
  8
C7
  10
616.937600
  20
368.640400
  0
VERTEX
  8
C7
  10
617.566900
  20
369.425600
  0
VERTEX
  8
C7
  10
618.218700
  20
370.200000
  0
VERTEX
  8
C7
  10
618.891800
  20
370.962600
  0
VERTEX
  8
C7
  10
619.585200
  20
371.712300
  0
VERTEX
  8
C7
  10
620.297600
  20
372.447800
  0
VERTEX
  8
C7
  10
621.028000
  20
373.168100
  0
VERTEX
  8
C7
  10
621.775200
  20
373.872100
  0
VERTEX
  8
C7
  10
622.538200
  20
374.558700
  0
VERTEX
  8
C7
  10
623.315600
  20
375.226800
  0
VERTEX
  8
C7
  10
624.106500
  20
375.875100
  0
VERTEX
  8
C7
  10
624.909700
  20
376.502700
  0
VERTEX
  8
C7
  10
625.724100
  20
377.108400
  0
VERTEX
  8
C7
  10
626.548500
  20
377.691200
  0
VERTEX
  8
C7
  10
627.381700
  20
378.249800
  0
VERTEX
  8
C7
  10
628.222800
  20
378.783200
  0
VERTEX
  8
C7
  10
629.070400
  20
379.290200
  0
VERTEX
  8
C7
  10
629.923600
  20
379.769800
  0
VERTEX
  8
C7
  10
630.781100
  20
380.220800
  0
VERTEX
  8
C7
  10
631.641900
  20
380.642200
  0
VERTEX
  8
C7
  10
632.504800
  20
381.032700
  0
VERTEX
  8
C7
  10
633.368600
  20
381.391400
  0
VERTEX
  8
C7
  10
634.232300
  20
381.717000
  0
VERTEX
  8
C7
  10
635.094700
  20
382.008600
  0
VERTEX
  8
C7
  10
635.954600
  20
382.264800
  0
VERTEX
  8
C7
  10
636.811000
  20
382.484700
  0
VERTEX
  8
C7
  10
637.662700
  20
382.667200
  0
VERTEX
  8
C7
  10
638.508600
  20
382.811000
  0
VERTEX
  8
C7
  10
639.347500
  20
382.915200
  0
VERTEX
  8
C7
  10
640.178300
  20
382.978500
  0
VERTEX
  8
C7
  10
641.000000
  20
383.000000
  0
VERTEX
  8
C7
  10
641.000000
  20
384.000000
  0
VERTEX
  8
C7
  10
640.043100
  20
383.980800
  0
VERTEX
  8
C7
  10
639.091900
  20
383.924100
  0
VERTEX
  8
C7
  10
638.146600
  20
383.830500
  0
VERTEX
  8
C7
  10
637.207800
  20
383.700900
  0
VERTEX
  8
C7
  10
636.275700
  20
383.536300
  0
VERTEX
  8
C7
  10
635.350800
  20
383.337400
  0
VERTEX
  8
C7
  10
634.433600
  20
383.105100
  0
VERTEX
  8
C7
  10
633.524300
  20
382.840300
  0
VERTEX
  8
C7
  10
632.623500
  20
382.543800
  0
VERTEX
  8
C7
  10
631.731500
  20
382.216500
  0
VERTEX
  8
C7
  10
630.848800
  20
381.859200
  0
VERTEX
  8
C7
  10
629.975800
  20
381.472700
  0
VERTEX
  8
C7
  10
629.112700
  20
381.058000
  0
VERTEX
  8
C7
  10
628.260200
  20
380.615900
  0
VERTEX
  8
C7
  10
627.418500
  20
380.147200
  0
VERTEX
  8
C7
  10
626.588200
  20
379.652800
  0
VERTEX
  8
C7
  10
625.769500
  20
379.133600
  0
VERTEX
  8
C7
  10
624.962900
  20
378.590400
  0
VERTEX
  8
C7
  10
624.168800
  20
378.024000
  0
VERTEX
  8
C7
  10
623.387600
  20
377.435300
  0
VERTEX
  8
C7
  10
622.619800
  20
376.825100
  0
VERTEX
  8
C7
  10
621.865700
  20
376.194400
  0
VERTEX
  8
C7
  10
621.125700
  20
375.544000
  0
VERTEX
  8
C7
  10
620.400300
  20
374.874700
  0
VERTEX
  8
C7
  10
619.689800
  20
374.187300
  0
VERTEX
  8
C7
  10
618.994700
  20
373.482800
  0
VERTEX
  8
C7
  10
618.315300
  20
372.761900
  0
VERTEX
  8
C7
  10
617.652200
  20
372.025600
  0
VERTEX
  8
C7
  10
617.005600
  20
371.274700
  0
VERTEX
  8
C7
  10
616.376000
  20
370.510100
  0
VERTEX
  8
C7
  10
615.763800
  20
369.732500
  0
VERTEX
  8
C7
  10
615.169400
  20
368.942900
  0
VERTEX
  8
C7
  10
614.593300
  20
368.142100
  0
VERTEX
  8
C7
  10
614.035700
  20
367.330900
  0
VERTEX
  8
C7
  10
613.497200
  20
366.510300
  0
VERTEX
  8
C7
  10
612.978100
  20
365.681000
  0
VERTEX
  8
C7
  10
612.478900
  20
364.843900
  0
VERTEX
  8
C7
  10
612.000000
  20
364.000000
  0
VERTEX
  8
C7
  10
611.000000
  20
364.000000
  0
VERTEX
  8
C7
  10
611.000000
  20
458.000000
  0
VERTEX
  8
C7
  10
611.007500
  20
458.742400
  0
VERTEX
  8
C7
  10
611.028700
  20
459.520600
  0
VERTEX
  8
C7
  10
611.061900
  20
460.332100
  0
VERTEX
  8
C7
  10
611.105200
  20
461.174400
  0
VERTEX
  8
C7
  10
611.156600
  20
462.044900
  0
VERTEX
  8
C7
  10
611.214400
  20
462.941300
  0
VERTEX
  8
C7
  10
611.276600
  20
463.861000
  0
VERTEX
  8
C7
  10
611.341500
  20
464.801500
  0
VERTEX
  8
C7
  10
611.407100
  20
465.760400
  0
VERTEX
  8
C7
  10
611.471600
  20
466.735200
  0
VERTEX
  8
C7
  10
611.533100
  20
467.723500
  0
VERTEX
  8
C7
  10
611.589800
  20
468.722600
  0
VERTEX
  8
C7
  10
611.639900
  20
469.730200
  0
VERTEX
  8
C7
  10
611.681300
  20
470.743800
  0
VERTEX
  8
C7
  10
611.712400
  20
471.760900
  0
VERTEX
  8
C7
  10
611.731200
  20
472.779000
  0
VERTEX
  8
C7
  10
611.735900
  20
473.795600
  0
VERTEX
  8
C7
  10
611.724600
  20
474.808300
  0
VERTEX
  8
C7
  10
611.695500
  20
475.814500
  0
VERTEX
  8
C7
  10
611.646700
  20
476.811800
  0
VERTEX
  8
C7
  10
611.576300
  20
477.797800
  0
VERTEX
  8
C7
  10
611.482500
  20
478.769800
  0
VERTEX
  8
C7
  10
611.363400
  20
479.725600
  0
VERTEX
  8
C7
  10
611.217100
  20
480.662500
  0
VERTEX
  8
C7
  10
611.041900
  20
481.578000
  0
VERTEX
  8
C7
  10
610.835800
  20
482.469800
  0
VERTEX
  8
C7
  10
610.596900
  20
483.335300
  0
VERTEX
  8
C7
  10
610.323500
  20
484.172100
  0
VERTEX
  8
C7
  10
610.013700
  20
484.977600
  0
VERTEX
  8
C7
  10
609.665600
  20
485.749500
  0
VERTEX
  8
C7
  10
609.277200
  20
486.485100
  0
VERTEX
  8
C7
  10
608.846900
  20
487.182100
  0
VERTEX
  8
C7
  10
608.372700
  20
487.837900
  0
VERTEX
  8
C7
  10
607.852800
  20
488.450000
  0
VERTEX
  8
C7
  10
607.285300
  20
489.016100
  0
VERTEX
  8
C7
  10
606.668300
  20
489.533600
  0
VERTEX
  8
C7
  10
606.000000
  20
490.000000
  0
VERTEX
  8
C7
  10
606.000000
  20
491.000000
  0
VERTEX
  8
C7
  10
655.000000
  20
491.000000
  0
VERTEX
  8
C7
  10
655.000000
  20
492.000000
  0
VERTEX
  8
C7
  10
630.000000
  20
492.000000
  0
VERTEX
  8
C7
  10
655.000000
  20
518.000000
  0
VERTEX
  8
C7
  10
654.241900
  20
517.449400
  0
VERTEX
  8
C7
  10
653.495200
  20
516.875200
  0
VERTEX
  8
C7
  10
652.759100
  20
516.278800
  0
VERTEX
  8
C7
  10
652.033000
  20
515.661800
  0
VERTEX
  8
C7
  10
651.316000
  20
515.025500
  0
VERTEX
  8
C7
  10
650.607500
  20
514.371500
  0
VERTEX
  8
C7
  10
649.906600
  20
513.701300
  0
VERTEX
  8
C7
  10
649.212800
  20
513.016300
  0
VERTEX
  8
C7
  10
648.525100
  20
512.318100
  0
VERTEX
  8
C7
  10
647.843000
  20
511.608200
  0
VERTEX
  8
C7
  10
647.165700
  20
510.888100
  0
VERTEX
  8
C7
  10
646.492300
  20
510.159200
  0
VERTEX
  8
C7
  10
645.822300
  20
509.423000
  0
VERTEX
  8
C7
  10
645.154900
  20
508.681100
  0
VERTEX
  8
C7
  10
644.489200
  20
507.934900
  0
VERTEX
  8
C7
  10
643.824700
  20
507.185900
  0
VERTEX
  8
C7
  10
643.160600
  20
506.435600
  0
VERTEX
  8
C7
  10
642.496100
  20
505.685600
  0
VERTEX
  8
C7
  10
641.830500
  20
504.937200
  0
VERTEX
  8
C7
  10
641.163000
  20
504.192100
  0
VERTEX
  8
C7
  10
640.493000
  20
503.451600
  0
VERTEX
  8
C7
  10
639.819700
  20
502.717300
  0
VERTEX
  8
C7
  10
639.142400
  20
501.990700
  0
VERTEX
  8
C7
  10
638.460300
  20
501.273200
  0
VERTEX
  8
C7
  10
637.772700
  20
500.566500
  0
VERTEX
  8
C7
  10
637.078900
  20
499.871800
  0
VERTEX
  8
C7
  10
636.378100
  20
499.190800
  0
VERTEX
  8
C7
  10
635.669600
  20
498.525000
  0
VERTEX
  8
C7
  10
634.952700
  20
497.875800
  0
VERTEX
  8
C7
  10
634.226600
  20
497.244700
  0
VERTEX
  8
C7
  10
633.490600
  20
496.633200
  0
VERTEX
  8
C7
  10
632.744000
  20
496.042800
  0
VERTEX
  8
C7
  10
631.986000
  20
495.475100
  0
VERTEX
  8
C7
  10
631.215900
  20
494.931400
  0
VERTEX
  8
C7
  10
630.433000
  20
494.413400
  0
VERTEX
  8
C7
  10
629.636500
  20
493.922400
  0
VERTEX
  8
C7
  10
628.825800
  20
493.460000
  0
VERTEX
  8
C7
  10
628.000000
  20
493.027700
  0
VERTEX
  8
C7
  10
627.274500
  20
492.689400
  0
VERTEX
  8
C7
  10
626.514600
  20
492.381500
  0
VERTEX
  8
C7
  10
625.722100
  20
492.102800
  0
VERTEX
  8
C7
  10
624.898600
  20
491.852400
  0
VERTEX
  8
C7
  10
624.045800
  20
491.628900
  0
VERTEX
  8
C7
  10
623.165500
  20
491.431200
  0
VERTEX
  8
C7
  10
622.259400
  20
491.258300
  0
VERTEX
  8
C7
  10
621.329100
  20
491.109000
  0
VERTEX
  8
C7
  10
620.376300
  20
490.982100
  0
VERTEX
  8
C7
  10
619.402800
  20
490.876600
  0
VERTEX
  8
C7
  10
618.410300
  20
490.791200
  0
VERTEX
  8
C7
  10
617.400400
  20
490.724900
  0
VERTEX
  8
C7
  10
616.374900
  20
490.676600
  0
VERTEX
  8
C7
  10
615.335500
  20
490.645000
  0
VERTEX
  8
C7
  10
614.283800
  20
490.629100
  0
VERTEX
  8
C7
  10
613.221600
  20
490.627600
  0
VERTEX
  8
C7
  10
612.150600
  20
490.639600
  0
VERTEX
  8
C7
  10
611.072500
  20
490.663800
  0
VERTEX
  8
C7
  10
609.988900
  20
490.699200
  0
VERTEX
  8
C7
  10
608.901700
  20
490.744500
  0
VERTEX
  8
C7
  10
607.812400
  20
490.798600
  0
VERTEX
  8
C7
  10
606.722900
  20
490.860500
  0
VERTEX
  8
C7
  10
605.634700
  20
490.929000
  0
VERTEX
  8
C7
  10
604.549600
  20
491.002900
  0
VERTEX
  8
C7
  10
603.469300
  20
491.081100
  0
VERTEX
  8
C7
  10
602.395600
  20
491.162400
  0
VERTEX
  8
C7
  10
601.330000
  20
491.245900
  0
VERTEX
  8
C7
  10
600.274400
  20
491.330200
  0
VERTEX
  8
C7
  10
599.230400
  20
491.414300
  0
VERTEX
  8
C7
  10
598.199700
  20
491.497000
  0
VERTEX
  8
C7
  10
597.184000
  20
491.577300
  0
VERTEX
  8
C7
  10
596.185000
  20
491.653900
  0
VERTEX
  8
C7
  10
595.204500
  20
491.725700
  0
VERTEX
  8
C7
  10
594.244100
  20
491.791700
  0
VERTEX
  8
C7
  10
593.305600
  20
491.850600
  0
VERTEX
  8
C7
  10
592.390600
  20
491.901300
  0
VERTEX
  8
C7
  10
591.500800
  20
491.942800
  0
VERTEX
  8
C7
  10
590.638000
  20
491.973800
  0
VERTEX
  8
C7
  10
589.803800
  20
491.993200
  0
VERTEX
  8
C7
  10
589.000000
  20
492.000000
  0
VERTEX
  8
C7
  10
614.000000
  20
518.000000
  0
VERTEX
  8
C7
  10
613.241900
  20
517.449400
  0
VERTEX
  8
C7
  10
612.495200
  20
516.875200
  0
VERTEX
  8
C7
  10
611.759100
  20
516.278800
  0
VERTEX
  8
C7
  10
611.033000
  20
515.661800
  0
VERTEX
  8
C7
  10
610.316000
  20
515.025500
  0
VERTEX
  8
C7
  10
609.607500
  20
514.371500
  0
VERTEX
  8
C7
  10
608.906600
  20
513.701300
  0
VERTEX
  8
C7
  10
608.212700
  20
513.016300
  0
VERTEX
  8
C7
  10
607.525100
  20
512.318100
  0
VERTEX
  8
C7
  10
606.843000
  20
511.608200
  0
VERTEX
  8
C7
  10
606.165600
  20
510.888100
  0
VERTEX
  8
C7
  10
605.492300
  20
510.159200
  0
VERTEX
  8
C7
  10
604.822300
  20
509.423000
  0
VERTEX
  8
C7
  10
604.154800
  20
508.681100
  0
VERTEX
  8
C7
  10
603.489200
  20
507.934900
  0
VERTEX
  8
C7
  10
602.824700
  20
507.185900
  0
VERTEX
  8
C7
  10
602.160600
  20
506.435600
  0
VERTEX
  8
C7
  10
601.496100
  20
505.685600
  0
VERTEX
  8
C7
  10
600.830500
  20
504.937200
  0
VERTEX
  8
C7
  10
600.163000
  20
504.192100
  0
VERTEX
  8
C7
  10
599.493000
  20
503.451600
  0
VERTEX
  8
C7
  10
598.819700
  20
502.717300
  0
VERTEX
  8
C7
  10
598.142400
  20
501.990700
  0
VERTEX
  8
C7
  10
597.460300
  20
501.273200
  0
VERTEX
  8
C7
  10
596.772700
  20
500.566500
  0
VERTEX
  8
C7
  10
596.078900
  20
499.871800
  0
VERTEX
  8
C7
  10
595.378100
  20
499.190800
  0
VERTEX
  8
C7
  10
594.669600
  20
498.525000
  0
VERTEX
  8
C7
  10
593.952700
  20
497.875800
  0
VERTEX
  8
C7
  10
593.226600
  20
497.244700
  0
VERTEX
  8
C7
  10
592.490600
  20
496.633200
  0
VERTEX
  8
C7
  10
591.744000
  20
496.042800
  0
VERTEX
  8
C7
  10
590.986000
  20
495.475100
  0
VERTEX
  8
C7
  10
590.216000
  20
494.931400
  0
VERTEX
  8
C7
  10
589.433000
  20
494.413400
  0
VERTEX
  8
C7
  10
588.636600
  20
493.922400
  0
VERTEX
  8
C7
  10
587.825800
  20
493.460000
  0
VERTEX
  8
C7
  10
587.000000
  20
493.027700
  0
VERTEX
  8
C7
  10
586.274500
  20
492.689400
  0
VERTEX
  8
C7
  10
585.514600
  20
492.381500
  0
VERTEX
  8
C7
  10
584.722100
  20
492.102800
  0
VERTEX
  8
C7
  10
583.898600
  20
491.852400
  0
VERTEX
  8
C7
  10
583.045800
  20
491.628900
  0
VERTEX
  8
C7
  10
582.165500
  20
491.431200
  0
VERTEX
  8
C7
  10
581.259400
  20
491.258300
  0
VERTEX
  8
C7
  10
580.329100
  20
491.109000
  0
VERTEX
  8
C7
  10
579.376300
  20
490.982100
  0
VERTEX
  8
C7
  10
578.402800
  20
490.876600
  0
VERTEX
  8
C7
  10
577.410300
  20
490.791200
  0
VERTEX
  8
C7
  10
576.400400
  20
490.724900
  0
VERTEX
  8
C7
  10
575.374900
  20
490.676600
  0
VERTEX
  8
C7
  10
574.335500
  20
490.645000
  0
VERTEX
  8
C7
  10
573.283800
  20
490.629100
  0
VERTEX
  8
C7
  10
572.221600
  20
490.627600
  0
VERTEX
  8
C7
  10
571.150600
  20
490.639600
  0
VERTEX
  8
C7
  10
570.072500
  20
490.663800
  0
VERTEX
  8
C7
  10
568.988900
  20
490.699200
  0
VERTEX
  8
C7
  10
567.901700
  20
490.744500
  0
VERTEX
  8
C7
  10
566.812400
  20
490.798600
  0
VERTEX
  8
C7
  10
565.722900
  20
490.860500
  0
VERTEX
  8
C7
  10
564.634700
  20
490.929000
  0
VERTEX
  8
C7
  10
563.549600
  20
491.002900
  0
VERTEX
  8
C7
  10
562.469300
  20
491.081100
  0
VERTEX
  8
C7
  10
561.395600
  20
491.162400
  0
VERTEX
  8
C7
  10
560.330000
  20
491.245900
  0
VERTEX
  8
C7
  10
559.274400
  20
491.330200
  0
VERTEX
  8
C7
  10
558.230400
  20
491.414300
  0
VERTEX
  8
C7
  10
557.199700
  20
491.497000
  0
VERTEX
  8
C7
  10
556.184000
  20
491.577300
  0
VERTEX
  8
C7
  10
555.185000
  20
491.653900
  0
VERTEX
  8
C7
  10
554.204500
  20
491.725700
  0
VERTEX
  8
C7
  10
553.244100
  20
491.791700
  0
VERTEX
  8
C7
  10
552.305600
  20
491.850600
  0
VERTEX
  8
C7
  10
551.390600
  20
491.901300
  0
VERTEX
  8
C7
  10
550.500800
  20
491.942800
  0
VERTEX
  8
C7
  10
549.638000
  20
491.973800
  0
VERTEX
  8
C7
  10
548.803800
  20
491.993200
  0
VERTEX
  8
C7
  10
548.000000
  20
492.000000
  0
VERTEX
  8
C7
  10
573.000000
  20
518.000000
  0
VERTEX
  8
C7
  10
572.241900
  20
517.449400
  0
VERTEX
  8
C7
  10
571.495200
  20
516.875200
  0
VERTEX
  8
C7
  10
570.759100
  20
516.278800
  0
VERTEX
  8
C7
  10
570.033000
  20
515.661800
  0
VERTEX
  8
C7
  10
569.316000
  20
515.025500
  0
VERTEX
  8
C7
  10
568.607400
  20
514.371500
  0
VERTEX
  8
C7
  10
567.906600
  20
513.701300
  0
VERTEX
  8
C7
  10
567.212700
  20
513.016300
  0
VERTEX
  8
C7
  10
566.525100
  20
512.318100
  0
VERTEX
  8
C7
  10
565.843000
  20
511.608200
  0
VERTEX
  8
C7
  10
565.165600
  20
510.888100
  0
VERTEX
  8
C7
  10
564.492300
  20
510.159200
  0
VERTEX
  8
C7
  10
563.822300
  20
509.423000
  0
VERTEX
  8
C7
  10
563.154800
  20
508.681100
  0
VERTEX
  8
C7
  10
562.489200
  20
507.934900
  0
VERTEX
  8
C7
  10
561.824700
  20
507.185900
  0
VERTEX
  8
C7
  10
561.160500
  20
506.435600
  0
VERTEX
  8
C7
  10
560.496000
  20
505.685600
  0
VERTEX
  8
C7
  10
559.830400
  20
504.937200
  0
VERTEX
  8
C7
  10
559.163000
  20
504.192100
  0
VERTEX
  8
C7
  10
558.493000
  20
503.451600
  0
VERTEX
  8
C7
  10
557.819700
  20
502.717300
  0
VERTEX
  8
C7
  10
557.142400
  20
501.990700
  0
VERTEX
  8
C7
  10
556.460300
  20
501.273200
  0
VERTEX
  8
C7
  10
555.772700
  20
500.566500
  0
VERTEX
  8
C7
  10
555.078900
  20
499.871800
  0
VERTEX
  8
C7
  10
554.378100
  20
499.190800
  0
VERTEX
  8
C7
  10
553.669600
  20
498.525000
  0
VERTEX
  8
C7
  10
552.952700
  20
497.875800
  0
VERTEX
  8
C7
  10
552.226600
  20
497.244700
  0
VERTEX
  8
C7
  10
551.490600
  20
496.633200
  0
VERTEX
  8
C7
  10
550.744000
  20
496.042800
  0
VERTEX
  8
C7
  10
549.986000
  20
495.475100
  0
VERTEX
  8
C7
  10
549.215900
  20
494.931400
  0
VERTEX
  8
C7
  10
548.433000
  20
494.413400
  0
VERTEX
  8
C7
  10
547.636500
  20
493.922400
  0
VERTEX
  8
C7
  10
546.825800
  20
493.460000
  0
VERTEX
  8
C7
  10
546.000000
  20
493.027700
  0
VERTEX
  8
C7
  10
545.272500
  20
492.688900
  0
VERTEX
  8
C7
  10
544.510100
  20
492.381300
  0
VERTEX
  8
C7
  10
543.714600
  20
492.103600
  0
VERTEX
  8
C7
  10
542.887900
  20
491.854600
  0
VERTEX
  8
C7
  10
542.031500
  20
491.633300
  0
VERTEX
  8
C7
  10
541.147400
  20
491.438300
  0
VERTEX
  8
C7
  10
540.237300
  20
491.268500
  0
VERTEX
  8
C7
  10
539.303000
  20
491.122700
  0
VERTEX
  8
C7
  10
538.346200
  20
490.999600
  0
VERTEX
  8
C7
  10
537.368800
  20
490.898200
  0
VERTEX
  8
C7
  10
536.372400
  20
490.817200
  0
VERTEX
  8
C7
  10
535.358900
  20
490.755400
  0
VERTEX
  8
C7
  10
534.330000
  20
490.711700
  0
VERTEX
  8
C7
  10
533.287600
  20
490.684700
  0
VERTEX
  8
C7
  10
532.233300
  20
490.673500
  0
VERTEX
  8
C7
  10
531.169000
  20
490.676700
  0
VERTEX
  8
C7
  10
530.096500
  20
490.693100
  0
VERTEX
  8
C7
  10
529.017400
  20
490.721700
  0
VERTEX
  8
C7
  10
527.933700
  20
490.761100
  0
VERTEX
  8
C7
  10
526.847000
  20
490.810200
  0
VERTEX
  8
C7
  10
525.759100
  20
490.867800
  0
VERTEX
  8
C7
  10
524.671800
  20
490.932700
  0
VERTEX
  8
C7
  10
523.587000
  20
491.003700
  0
VERTEX
  8
C7
  10
522.506200
  20
491.079700
  0
VERTEX
  8
C7
  10
521.431400
  20
491.159400
  0
VERTEX
  8
C7
  10
520.364300
  20
491.241600
  0
VERTEX
  8
C7
  10
519.306700
  20
491.325200
  0
VERTEX
  8
C7
  10
518.260300
  20
491.408900
  0
VERTEX
  8
C7
  10
517.227000
  20
491.491700
  0
VERTEX
  8
C7
  10
516.208400
  20
491.572100
  0
VERTEX
  8
C7
  10
515.206400
  20
491.649200
  0
VERTEX
  8
C7
  10
514.222800
  20
491.721700
  0
VERTEX
  8
C7
  10
513.259300
  20
491.788400
  0
VERTEX
  8
C7
  10
512.317600
  20
491.848100
  0
VERTEX
  8
C7
  10
511.399700
  20
491.899600
  0
VERTEX
  8
C7
  10
510.507200
  20
491.941700
  0
VERTEX
  8
C7
  10
509.641800
  20
491.973300
  0
VERTEX
  8
C7
  10
508.805500
  20
491.993100
  0
VERTEX
  8
C7
  10
508.000000
  20
492.000000
  0
VERTEX
  8
C7
  10
532.000000
  20
517.000000
  0
VERTEX
  8
C7
  10
531.230100
  20
516.440100
  0
VERTEX
  8
C7
  10
530.472400
  20
515.855300
  0
VERTEX
  8
C7
  10
529.725900
  20
515.247100
  0
VERTEX
  8
C7
  10
528.989900
  20
514.617200
  0
VERTEX
  8
C7
  10
528.263400
  20
513.967300
  0
VERTEX
  8
C7
  10
527.545800
  20
513.299000
  0
VERTEX
  8
C7
  10
526.836100
  20
512.614100
  0
VERTEX
  8
C7
  10
526.133600
  20
511.914200
  0
VERTEX
  8
C7
  10
525.437300
  20
511.201000
  0
VERTEX
  8
C7
  10
524.746600
  20
510.476100
  0
VERTEX
  8
C7
  10
524.060500
  20
509.741300
  0
VERTEX
  8
C7
  10
523.378200
  20
508.998200
  0
VERTEX
  8
C7
  10
522.698900
  20
508.248500
  0
VERTEX
  8
C7
  10
522.021700
  20
507.493800
  0
VERTEX
  8
C7
  10
521.346000
  20
506.735800
  0
VERTEX
  8
C7
  10
520.670700
  20
505.976300
  0
VERTEX
  8
C7
  10
519.995100
  20
505.216800
  0
VERTEX
  8
C7
  10
519.318400
  20
504.459100
  0
VERTEX
  8
C7
  10
518.639700
  20
503.704800
  0
VERTEX
  8
C7
  10
517.958200
  20
502.955600
  0
VERTEX
  8
C7
  10
517.273100
  20
502.213100
  0
VERTEX
  8
C7
  10
516.583600
  20
501.479100
  0
VERTEX
  8
C7
  10
515.888800
  20
500.755300
  0
VERTEX
  8
C7
  10
515.187900
  20
500.043200
  0
VERTEX
  8
C7
  10
514.480000
  20
499.344600
  0
VERTEX
  8
C7
  10
513.764400
  20
498.661100
  0
VERTEX
  8
C7
  10
513.040200
  20
497.994500
  0
VERTEX
  8
C7
  10
512.306600
  20
497.346300
  0
VERTEX
  8
C7
  10
511.562800
  20
496.718400
  0
VERTEX
  8
C7
  10
510.807900
  20
496.112200
  0
VERTEX
  8
C7
  10
510.041200
  20
495.529600
  0
VERTEX
  8
C7
  10
509.261700
  20
494.972100
  0
VERTEX
  8
C7
  10
508.468600
  20
494.441500
  0
VERTEX
  8
C7
  10
507.661200
  20
493.939500
  0
VERTEX
  8
C7
  10
506.838600
  20
493.467600
  0
VERTEX
  8
C7
  10
506.000000
  20
493.027700
  0
VERTEX
  8
C7
  10
505.274500
  20
492.689400
  0
VERTEX
  8
C7
  10
504.514600
  20
492.381500
  0
VERTEX
  8
C7
  10
503.722100
  20
492.102800
  0
VERTEX
  8
C7
  10
502.898600
  20
491.852400
  0
VERTEX
  8
C7
  10
502.045800
  20
491.628900
  0
VERTEX
  8
C7
  10
501.165500
  20
491.431200
  0
VERTEX
  8
C7
  10
500.259400
  20
491.258300
  0
VERTEX
  8
C7
  10
499.329100
  20
491.109000
  0
VERTEX
  8
C7
  10
498.376300
  20
490.982100
  0
VERTEX
  8
C7
  10
497.402800
  20
490.876600
  0
VERTEX
  8
C7
  10
496.410300
  20
490.791200
  0
VERTEX
  8
C7
  10
495.400400
  20
490.724900
  0
VERTEX
  8
C7
  10
494.374900
  20
490.676600
  0
VERTEX
  8
C7
  10
493.335500
  20
490.645000
  0
VERTEX
  8
C7
  10
492.283800
  20
490.629100
  0
VERTEX
  8
C7
  10
491.221600
  20
490.627600
  0
VERTEX
  8
C7
  10
490.150600
  20
490.639600
  0
VERTEX
  8
C7
  10
489.072500
  20
490.663800
  0
VERTEX
  8
C7
  10
487.988900
  20
490.699200
  0
VERTEX
  8
C7
  10
486.901700
  20
490.744500
  0
VERTEX
  8
C7
  10
485.812400
  20
490.798600
  0
VERTEX
  8
C7
  10
484.722900
  20
490.860500
  0
VERTEX
  8
C7
  10
483.634700
  20
490.929000
  0
VERTEX
  8
C7
  10
482.549600
  20
491.002900
  0
VERTEX
  8
C7
  10
481.469300
  20
491.081100
  0
VERTEX
  8
C7
  10
480.395600
  20
491.162400
  0
VERTEX
  8
C7
  10
479.330000
  20
491.245900
  0
VERTEX
  8
C7
  10
478.274400
  20
491.330200
  0
VERTEX
  8
C7
  10
477.230400
  20
491.414300
  0
VERTEX
  8
C7
  10
476.199700
  20
491.497000
  0
VERTEX
  8
C7
  10
475.184000
  20
491.577300
  0
VERTEX
  8
C7
  10
474.185000
  20
491.653900
  0
VERTEX
  8
C7
  10
473.204500
  20
491.725700
  0
VERTEX
  8
C7
  10
472.244100
  20
491.791700
  0
VERTEX
  8
C7
  10
471.305600
  20
491.850600
  0
VERTEX
  8
C7
  10
470.390600
  20
491.901300
  0
VERTEX
  8
C7
  10
469.500800
  20
491.942800
  0
VERTEX
  8
C7
  10
468.638000
  20
491.973800
  0
VERTEX
  8
C7
  10
467.803800
  20
491.993200
  0
VERTEX
  8
C7
  10
467.000000
  20
492.000000
  0
VERTEX
  8
C7
  10
491.000000
  20
517.000000
  0
VERTEX
  8
C7
  10
490.230100
  20
516.440100
  0
VERTEX
  8
C7
  10
489.472400
  20
515.855300
  0
VERTEX
  8
C7
  10
488.725900
  20
515.247100
  0
VERTEX
  8
C7
  10
487.989900
  20
514.617200
  0
VERTEX
  8
C7
  10
487.263400
  20
513.967300
  0
VERTEX
  8
C7
  10
486.545800
  20
513.299000
  0
VERTEX
  8
C7
  10
485.836100
  20
512.614100
  0
VERTEX
  8
C7
  10
485.133600
  20
511.914200
  0
VERTEX
  8
C7
  10
484.437300
  20
511.201000
  0
VERTEX
  8
C7
  10
483.746600
  20
510.476100
  0
VERTEX
  8
C7
  10
483.060400
  20
509.741300
  0
VERTEX
  8
C7
  10
482.378100
  20
508.998200
  0
VERTEX
  8
C7
  10
481.698800
  20
508.248500
  0
VERTEX
  8
C7
  10
481.021700
  20
507.493800
  0
VERTEX
  8
C7
  10
480.345900
  20
506.735800
  0
VERTEX
  8
C7
  10
479.670700
  20
505.976300
  0
VERTEX
  8
C7
  10
478.995100
  20
505.216800
  0
VERTEX
  8
C7
  10
478.318400
  20
504.459100
  0
VERTEX
  8
C7
  10
477.639700
  20
503.704800
  0
VERTEX
  8
C7
  10
476.958200
  20
502.955600
  0
VERTEX
  8
C7
  10
476.273100
  20
502.213100
  0
VERTEX
  8
C7
  10
475.583600
  20
501.479100
  0
VERTEX
  8
C7
  10
474.888700
  20
500.755300
  0
VERTEX
  8
C7
  10
474.187800
  20
500.043200
  0
VERTEX
  8
C7
  10
473.480000
  20
499.344600
  0
VERTEX
  8
C7
  10
472.764400
  20
498.661100
  0
VERTEX
  8
C7
  10
472.040200
  20
497.994500
  0
VERTEX
  8
C7
  10
471.306600
  20
497.346300
  0
VERTEX
  8
C7
  10
470.562800
  20
496.718400
  0
VERTEX
  8
C7
  10
469.807900
  20
496.112200
  0
VERTEX
  8
C7
  10
469.041100
  20
495.529600
  0
VERTEX
  8
C7
  10
468.261600
  20
494.972100
  0
VERTEX
  8
C7
  10
467.468600
  20
494.441500
  0
VERTEX
  8
C7
  10
466.661200
  20
493.939500
  0
VERTEX
  8
C7
  10
465.838600
  20
493.467600
  0
VERTEX
  8
C7
  10
465.000000
  20
493.027700
  0
VERTEX
  8
C7
  10
464.274500
  20
492.689400
  0
VERTEX
  8
C7
  10
463.514600
  20
492.381500
  0
VERTEX
  8
C7
  10
462.722100
  20
492.102800
  0
VERTEX
  8
C7
  10
461.898600
  20
491.852400
  0
VERTEX
  8
C7
  10
461.045800
  20
491.628900
  0
VERTEX
  8
C7
  10
460.165500
  20
491.431200
  0
VERTEX
  8
C7
  10
459.259400
  20
491.258300
  0
VERTEX
  8
C7
  10
458.329100
  20
491.109000
  0
VERTEX
  8
C7
  10
457.376300
  20
490.982100
  0
VERTEX
  8
C7
  10
456.402800
  20
490.876600
  0
VERTEX
  8
C7
  10
455.410300
  20
490.791200
  0
VERTEX
  8
C7
  10
454.400400
  20
490.724900
  0
VERTEX
  8
C7
  10
453.374900
  20
490.676600
  0
VERTEX
  8
C7
  10
452.335500
  20
490.645000
  0
VERTEX
  8
C7
  10
451.283800
  20
490.629100
  0
VERTEX
  8
C7
  10
450.221600
  20
490.627600
  0
VERTEX
  8
C7
  10
449.150600
  20
490.639600
  0
VERTEX
  8
C7
  10
448.072500
  20
490.663800
  0
VERTEX
  8
C7
  10
446.988900
  20
490.699200
  0
VERTEX
  8
C7
  10
445.901700
  20
490.744500
  0
VERTEX
  8
C7
  10
444.812400
  20
490.798600
  0
VERTEX
  8
C7
  10
443.722900
  20
490.860500
  0
VERTEX
  8
C7
  10
442.634700
  20
490.929000
  0
VERTEX
  8
C7
  10
441.549600
  20
491.002900
  0
VERTEX
  8
C7
  10
440.469300
  20
491.081100
  0
VERTEX
  8
C7
  10
439.395600
  20
491.162400
  0
VERTEX
  8
C7
  10
438.330000
  20
491.245900
  0
VERTEX
  8
C7
  10
437.274400
  20
491.330200
  0
VERTEX
  8
C7
  10
436.230400
  20
491.414300
  0
VERTEX
  8
C7
  10
435.199700
  20
491.497000
  0
VERTEX
  8
C7
  10
434.184000
  20
491.577300
  0
VERTEX
  8
C7
  10
433.185000
  20
491.653900
  0
VERTEX
  8
C7
  10
432.204500
  20
491.725700
  0
VERTEX
  8
C7
  10
431.244100
  20
491.791700
  0
VERTEX
  8
C7
  10
430.305600
  20
491.850600
  0
VERTEX
  8
C7
  10
429.390600
  20
491.901300
  0
VERTEX
  8
C7
  10
428.500800
  20
491.942800
  0
VERTEX
  8
C7
  10
427.638000
  20
491.973800
  0
VERTEX
  8
C7
  10
426.803800
  20
491.993200
  0
VERTEX
  8
C7
  10
426.000000
  20
492.000000
  0
VERTEX
  8
C7
  10
450.000000
  20
517.000000
  0
VERTEX
  8
C7
  10
449.230100
  20
516.440100
  0
VERTEX
  8
C7
  10
448.472400
  20
515.855300
  0
VERTEX
  8
C7
  10
447.725900
  20
515.247100
  0
VERTEX
  8
C7
  10
446.989900
  20
514.617200
  0
VERTEX
  8
C7
  10
446.263400
  20
513.967300
  0
VERTEX
  8
C7
  10
445.545800
  20
513.299000
  0
VERTEX
  8
C7
  10
444.836100
  20
512.614100
  0
VERTEX
  8
C7
  10
444.133600
  20
511.914200
  0
VERTEX
  8
C7
  10
443.437300
  20
511.201000
  0
VERTEX
  8
C7
  10
442.746600
  20
510.476100
  0
VERTEX
  8
C7
  10
442.060500
  20
509.741300
  0
VERTEX
  8
C7
  10
441.378200
  20
508.998200
  0
VERTEX
  8
C7
  10
440.698900
  20
508.248500
  0
VERTEX
  8
C7
  10
440.021700
  20
507.493800
  0
VERTEX
  8
C7
  10
439.346000
  20
506.735800
  0
VERTEX
  8
C7
  10
438.670700
  20
505.976300
  0
VERTEX
  8
C7
  10
437.995100
  20
505.216800
  0
VERTEX
  8
C7
  10
437.318400
  20
504.459100
  0
VERTEX
  8
C7
  10
436.639700
  20
503.704800
  0
VERTEX
  8
C7
  10
435.958200
  20
502.955600
  0
VERTEX
  8
C7
  10
435.273100
  20
502.213100
  0
VERTEX
  8
C7
  10
434.583600
  20
501.479100
  0
VERTEX
  8
C7
  10
433.888800
  20
500.755300
  0
VERTEX
  8
C7
  10
433.187900
  20
500.043200
  0
VERTEX
  8
C7
  10
432.480000
  20
499.344600
  0
VERTEX
  8
C7
  10
431.764400
  20
498.661100
  0
VERTEX
  8
C7
  10
431.040200
  20
497.994500
  0
VERTEX
  8
C7
  10
430.306600
  20
497.346300
  0
VERTEX
  8
C7
  10
429.562800
  20
496.718400
  0
VERTEX
  8
C7
  10
428.807900
  20
496.112200
  0
VERTEX
  8
C7
  10
428.041200
  20
495.529600
  0
VERTEX
  8
C7
  10
427.261700
  20
494.972100
  0
VERTEX
  8
C7
  10
426.468600
  20
494.441500
  0
VERTEX
  8
C7
  10
425.661200
  20
493.939500
  0
VERTEX
  8
C7
  10
424.838600
  20
493.467600
  0
VERTEX
  8
C7
  10
424.000000
  20
493.027700
  0
VERTEX
  8
C7
  10
423.274500
  20
492.689400
  0
VERTEX
  8
C7
  10
422.514600
  20
492.381500
  0
VERTEX
  8
C7
  10
421.722100
  20
492.102800
  0
VERTEX
  8
C7
  10
420.898600
  20
491.852400
  0
VERTEX
  8
C7
  10
420.045800
  20
491.628900
  0
VERTEX
  8
C7
  10
419.165500
  20
491.431200
  0
VERTEX
  8
C7
  10
418.259400
  20
491.258300
  0
VERTEX
  8
C7
  10
417.329100
  20
491.109000
  0
VERTEX
  8
C7
  10
416.376300
  20
490.982100
  0
VERTEX
  8
C7
  10
415.402800
  20
490.876600
  0
VERTEX
  8
C7
  10
414.410300
  20
490.791200
  0
VERTEX
  8
C7
  10
413.400400
  20
490.724900
  0
VERTEX
  8
C7
  10
412.374900
  20
490.676600
  0
VERTEX
  8
C7
  10
411.335500
  20
490.645000
  0
VERTEX
  8
C7
  10
410.283800
  20
490.629100
  0
VERTEX
  8
C7
  10
409.221600
  20
490.627600
  0
VERTEX
  8
C7
  10
408.150600
  20
490.639600
  0
VERTEX
  8
C7
  10
407.072500
  20
490.663800
  0
VERTEX
  8
C7
  10
405.988900
  20
490.699200
  0
VERTEX
  8
C7
  10
404.901700
  20
490.744500
  0
VERTEX
  8
C7
  10
403.812400
  20
490.798600
  0
VERTEX
  8
C7
  10
402.722900
  20
490.860500
  0
VERTEX
  8
C7
  10
401.634700
  20
490.929000
  0
VERTEX
  8
C7
  10
400.549600
  20
491.002900
  0
VERTEX
  8
C7
  10
399.469300
  20
491.081100
  0
VERTEX
  8
C7
  10
398.395600
  20
491.162400
  0
VERTEX
  8
C7
  10
397.330000
  20
491.245900
  0
VERTEX
  8
C7
  10
396.274400
  20
491.330200
  0
VERTEX
  8
C7
  10
395.230400
  20
491.414300
  0
VERTEX
  8
C7
  10
394.199700
  20
491.497000
  0
VERTEX
  8
C7
  10
393.184000
  20
491.577300
  0
VERTEX
  8
C7
  10
392.185000
  20
491.653900
  0
VERTEX
  8
C7
  10
391.204500
  20
491.725700
  0
VERTEX
  8
C7
  10
390.244100
  20
491.791700
  0
VERTEX
  8
C7
  10
389.305600
  20
491.850600
  0
VERTEX
  8
C7
  10
388.390600
  20
491.901300
  0
VERTEX
  8
C7
  10
387.500800
  20
491.942800
  0
VERTEX
  8
C7
  10
386.638000
  20
491.973800
  0
VERTEX
  8
C7
  10
385.803800
  20
491.993200
  0
VERTEX
  8
C7
  10
385.000000
  20
492.000000
  0
VERTEX
  8
C7
  10
409.000000
  20
517.000000
  0
VERTEX
  8
C7
  10
408.230100
  20
516.440100
  0
VERTEX
  8
C7
  10
407.472400
  20
515.855300
  0
VERTEX
  8
C7
  10
406.725900
  20
515.247100
  0
VERTEX
  8
C7
  10
405.989900
  20
514.617200
  0
VERTEX
  8
C7
  10
405.263400
  20
513.967300
  0
VERTEX
  8
C7
  10
404.545800
  20
513.299100
  0
VERTEX
  8
C7
  10
403.836100
  20
512.614200
  0
VERTEX
  8
C7
  10
403.133600
  20
511.914300
  0
VERTEX
  8
C7
  10
402.437300
  20
511.201000
  0
VERTEX
  8
C7
  10
401.746600
  20
510.476200
  0
VERTEX
  8
C7
  10
401.060400
  20
509.741400
  0
VERTEX
  8
C7
  10
400.378100
  20
508.998200
  0
VERTEX
  8
C7
  10
399.698800
  20
508.248500
  0
VERTEX
  8
C7
  10
399.021700
  20
507.493800
  0
VERTEX
  8
C7
  10
398.345900
  20
506.735900
  0
VERTEX
  8
C7
  10
397.670700
  20
505.976300
  0
VERTEX
  8
C7
  10
396.995100
  20
505.216800
  0
VERTEX
  8
C7
  10
396.318400
  20
504.459100
  0
VERTEX
  8
C7
  10
395.639700
  20
503.704800
  0
VERTEX
  8
C7
  10
394.958200
  20
502.955600
  0
VERTEX
  8
C7
  10
394.273100
  20
502.213200
  0
VERTEX
  8
C7
  10
393.583600
  20
501.479200
  0
VERTEX
  8
C7
  10
392.888700
  20
500.755300
  0
VERTEX
  8
C7
  10
392.187800
  20
500.043200
  0
VERTEX
  8
C7
  10
391.480000
  20
499.344600
  0
VERTEX
  8
C7
  10
390.764400
  20
498.661200
  0
VERTEX
  8
C7
  10
390.040200
  20
497.994500
  0
VERTEX
  8
C7
  10
389.306600
  20
497.346400
  0
VERTEX
  8
C7
  10
388.562800
  20
496.718400
  0
VERTEX
  8
C7
  10
387.807900
  20
496.112200
  0
VERTEX
  8
C7
  10
387.041100
  20
495.529600
  0
VERTEX
  8
C7
  10
386.261600
  20
494.972100
  0
VERTEX
  8
C7
  10
385.468600
  20
494.441500
  0
VERTEX
  8
C7
  10
384.661200
  20
493.939500
  0
VERTEX
  8
C7
  10
383.838600
  20
493.467600
  0
VERTEX
  8
C7
  10
383.000000
  20
493.027700
  0
VERTEX
  8
C7
  10
382.274500
  20
492.689400
  0
VERTEX
  8
C7
  10
381.514600
  20
492.381500
  0
VERTEX
  8
C7
  10
380.722100
  20
492.102800
  0
VERTEX
  8
C7
  10
379.898600
  20
491.852400
  0
VERTEX
  8
C7
  10
379.045800
  20
491.628900
  0
VERTEX
  8
C7
  10
378.165500
  20
491.431200
  0
VERTEX
  8
C7
  10
377.259400
  20
491.258300
  0
VERTEX
  8
C7
  10
376.329000
  20
491.109000
  0
VERTEX
  8
C7
  10
375.376300
  20
490.982100
  0
VERTEX
  8
C7
  10
374.402800
  20
490.876600
  0
VERTEX
  8
C7
  10
373.410300
  20
490.791200
  0
VERTEX
  8
C7
  10
372.400400
  20
490.724900
  0
VERTEX
  8
C7
  10
371.374900
  20
490.676600
  0
VERTEX
  8
C7
  10
370.335400
  20
490.645000
  0
VERTEX
  8
C7
  10
369.283800
  20
490.629100
  0
VERTEX
  8
C7
  10
368.221600
  20
490.627600
  0
VERTEX
  8
C7
  10
367.150600
  20
490.639600
  0
VERTEX
  8
C7
  10
366.072400
  20
490.663800
  0
VERTEX
  8
C7
  10
364.988900
  20
490.699200
  0
VERTEX
  8
C7
  10
363.901700
  20
490.744500
  0
VERTEX
  8
C7
  10
362.812400
  20
490.798600
  0
VERTEX
  8
C7
  10
361.722800
  20
490.860500
  0
VERTEX
  8
C7
  10
360.634600
  20
490.929000
  0
VERTEX
  8
C7
  10
359.549600
  20
491.002900
  0
VERTEX
  8
C7
  10
358.469300
  20
491.081100
  0
VERTEX
  8
C7
  10
357.395600
  20
491.162400
  0
VERTEX
  8
C7
  10
356.330000
  20
491.245900
  0
VERTEX
  8
C7
  10
355.274400
  20
491.330200
  0
VERTEX
  8
C7
  10
354.230400
  20
491.414300
  0
VERTEX
  8
C7
  10
353.199700
  20
491.497000
  0
VERTEX
  8
C7
  10
352.184000
  20
491.577300
  0
VERTEX
  8
C7
  10
351.185000
  20
491.653900
  0
VERTEX
  8
C7
  10
350.204500
  20
491.725700
  0
VERTEX
  8
C7
  10
349.244100
  20
491.791700
  0
VERTEX
  8
C7
  10
348.305600
  20
491.850600
  0
VERTEX
  8
C7
  10
347.390600
  20
491.901300
  0
VERTEX
  8
C7
  10
346.500800
  20
491.942800
  0
VERTEX
  8
C7
  10
345.638000
  20
491.973800
  0
VERTEX
  8
C7
  10
344.803800
  20
491.993200
  0
VERTEX
  8
C7
  10
344.000000
  20
492.000000
  0
VERTEX
  8
C7
  10
369.000000
  20
518.000000
  0
VERTEX
  8
C7
  10
368.241900
  20
517.449400
  0
VERTEX
  8
C7
  10
367.495200
  20
516.875200
  0
VERTEX
  8
C7
  10
366.759100
  20
516.278800
  0
VERTEX
  8
C7
  10
366.033000
  20
515.661800
  0
VERTEX
  8
C7
  10
365.316000
  20
515.025500
  0
VERTEX
  8
C7
  10
364.607400
  20
514.371500
  0
VERTEX
  8
C7
  10
363.906600
  20
513.701300
  0
VERTEX
  8
C7
  10
363.212700
  20
513.016300
  0
VERTEX
  8
C7
  10
362.525100
  20
512.318100
  0
VERTEX
  8
C7
  10
361.843000
  20
511.608200
  0
VERTEX
  8
C7
  10
361.165600
  20
510.888100
  0
VERTEX
  8
C7
  10
360.492300
  20
510.159200
  0
VERTEX
  8
C7
  10
359.822300
  20
509.423000
  0
VERTEX
  8
C7
  10
359.154800
  20
508.681100
  0
VERTEX
  8
C7
  10
358.489200
  20
507.934900
  0
VERTEX
  8
C7
  10
357.824700
  20
507.185900
  0
VERTEX
  8
C7
  10
357.160500
  20
506.435600
  0
VERTEX
  8
C7
  10
356.496000
  20
505.685600
  0
VERTEX
  8
C7
  10
355.830400
  20
504.937200
  0
VERTEX
  8
C7
  10
355.163000
  20
504.192100
  0
VERTEX
  8
C7
  10
354.493000
  20
503.451600
  0
VERTEX
  8
C7
  10
353.819700
  20
502.717300
  0
VERTEX
  8
C7
  10
353.142400
  20
501.990700
  0
VERTEX
  8
C7
  10
352.460300
  20
501.273200
  0
VERTEX
  8
C7
  10
351.772700
  20
500.566500
  0
VERTEX
  8
C7
  10
351.078900
  20
499.871800
  0
VERTEX
  8
C7
  10
350.378100
  20
499.190800
  0
VERTEX
  8
C7
  10
349.669600
  20
498.525000
  0
VERTEX
  8
C7
  10
348.952700
  20
497.875800
  0
VERTEX
  8
C7
  10
348.226600
  20
497.244700
  0
VERTEX
  8
C7
  10
347.490600
  20
496.633200
  0
VERTEX
  8
C7
  10
346.744000
  20
496.042800
  0
VERTEX
  8
C7
  10
345.986000
  20
495.475100
  0
VERTEX
  8
C7
  10
345.215900
  20
494.931400
  0
VERTEX
  8
C7
  10
344.433000
  20
494.413400
  0
VERTEX
  8
C7
  10
343.636500
  20
493.922400
  0
VERTEX
  8
C7
  10
342.825800
  20
493.460000
  0
VERTEX
  8
C7
  10
342.000000
  20
493.027700
  0
VERTEX
  8
C7
  10
341.274500
  20
492.689400
  0
VERTEX
  8
C7
  10
340.514600
  20
492.381500
  0
VERTEX
  8
C7
  10
339.722100
  20
492.102800
  0
VERTEX
  8
C7
  10
338.898600
  20
491.852400
  0
VERTEX
  8
C7
  10
338.045800
  20
491.628900
  0
VERTEX
  8
C7
  10
337.165500
  20
491.431200
  0
VERTEX
  8
C7
  10
336.259400
  20
491.258300
  0
VERTEX
  8
C7
  10
335.329100
  20
491.109000
  0
VERTEX
  8
C7
  10
334.376300
  20
490.982100
  0
VERTEX
  8
C7
  10
333.402800
  20
490.876600
  0
VERTEX
  8
C7
  10
332.410300
  20
490.791200
  0
VERTEX
  8
C7
  10
331.400400
  20
490.724900
  0
VERTEX
  8
C7
  10
330.374900
  20
490.676600
  0
VERTEX
  8
C7
  10
329.335500
  20
490.645000
  0
VERTEX
  8
C7
  10
328.283800
  20
490.629100
  0
VERTEX
  8
C7
  10
327.221600
  20
490.627600
  0
VERTEX
  8
C7
  10
326.150600
  20
490.639600
  0
VERTEX
  8
C7
  10
325.072500
  20
490.663800
  0
VERTEX
  8
C7
  10
323.988900
  20
490.699200
  0
VERTEX
  8
C7
  10
322.901700
  20
490.744500
  0
VERTEX
  8
C7
  10
321.812400
  20
490.798600
  0
VERTEX
  8
C7
  10
320.722900
  20
490.860500
  0
VERTEX
  8
C7
  10
319.634700
  20
490.929000
  0
VERTEX
  8
C7
  10
318.549600
  20
491.002900
  0
VERTEX
  8
C7
  10
317.469300
  20
491.081100
  0
VERTEX
  8
C7
  10
316.395600
  20
491.162400
  0
VERTEX
  8
C7
  10
315.330000
  20
491.245900
  0
VERTEX
  8
C7
  10
314.274400
  20
491.330200
  0
VERTEX
  8
C7
  10
313.230400
  20
491.414300
  0
VERTEX
  8
C7
  10
312.199700
  20
491.497000
  0
VERTEX
  8
C7
  10
311.184000
  20
491.577300
  0
VERTEX
  8
C7
  10
310.185000
  20
491.653900
  0
VERTEX
  8
C7
  10
309.204500
  20
491.725700
  0
VERTEX
  8
C7
  10
308.244100
  20
491.791700
  0
VERTEX
  8
C7
  10
307.305600
  20
491.850600
  0
VERTEX
  8
C7
  10
306.390600
  20
491.901300
  0
VERTEX
  8
C7
  10
305.500800
  20
491.942800
  0
VERTEX
  8
C7
  10
304.638000
  20
491.973800
  0
VERTEX
  8
C7
  10
303.803800
  20
491.993200
  0
VERTEX
  8
C7
  10
303.000000
  20
492.000000
  0
VERTEX
  8
C7
  10
328.000000
  20
518.000000
  0
VERTEX
  8
C7
  10
327.241900
  20
517.449400
  0
VERTEX
  8
C7
  10
326.495200
  20
516.875200
  0
VERTEX
  8
C7
  10
325.759100
  20
516.278900
  0
VERTEX
  8
C7
  10
325.033000
  20
515.661800
  0
VERTEX
  8
C7
  10
324.316000
  20
515.025500
  0
VERTEX
  8
C7
  10
323.607400
  20
514.371500
  0
VERTEX
  8
C7
  10
322.906600
  20
513.701300
  0
VERTEX
  8
C7
  10
322.212700
  20
513.016400
  0
VERTEX
  8
C7
  10
321.525100
  20
512.318200
  0
VERTEX
  8
C7
  10
320.843000
  20
511.608300
  0
VERTEX
  8
C7
  10
320.165600
  20
510.888100
  0
VERTEX
  8
C7
  10
319.492300
  20
510.159200
  0
VERTEX
  8
C7
  10
318.822300
  20
509.423100
  0
VERTEX
  8
C7
  10
318.154800
  20
508.681100
  0
VERTEX
  8
C7
  10
317.489200
  20
507.934900
  0
VERTEX
  8
C7
  10
316.824700
  20
507.186000
  0
VERTEX
  8
C7
  10
316.160500
  20
506.435700
  0
VERTEX
  8
C7
  10
315.496000
  20
505.685600
  0
VERTEX
  8
C7
  10
314.830400
  20
504.937300
  0
VERTEX
  8
C7
  10
314.163000
  20
504.192100
  0
VERTEX
  8
C7
  10
313.493000
  20
503.451600
  0
VERTEX
  8
C7
  10
312.819700
  20
502.717300
  0
VERTEX
  8
C7
  10
312.142400
  20
501.990700
  0
VERTEX
  8
C7
  10
311.460300
  20
501.273300
  0
VERTEX
  8
C7
  10
310.772700
  20
500.566500
  0
VERTEX
  8
C7
  10
310.078900
  20
499.871800
  0
VERTEX
  8
C7
  10
309.378100
  20
499.190800
  0
VERTEX
  8
C7
  10
308.669600
  20
498.525000
  0
VERTEX
  8
C7
  10
307.952700
  20
497.875800
  0
VERTEX
  8
C7
  10
307.226600
  20
497.244700
  0
VERTEX
  8
C7
  10
306.490600
  20
496.633200
  0
VERTEX
  8
C7
  10
305.744000
  20
496.042800
  0
VERTEX
  8
C7
  10
304.986000
  20
495.475100
  0
VERTEX
  8
C7
  10
304.215900
  20
494.931400
  0
VERTEX
  8
C7
  10
303.433000
  20
494.413400
  0
VERTEX
  8
C7
  10
302.636500
  20
493.922400
  0
VERTEX
  8
C7
  10
301.825800
  20
493.460000
  0
VERTEX
  8
C7
  10
301.000000
  20
493.027700
  0
VERTEX
  8
C7
  10
300.274500
  20
492.689400
  0
VERTEX
  8
C7
  10
299.514600
  20
492.381500
  0
VERTEX
  8
C7
  10
298.722100
  20
492.102800
  0
VERTEX
  8
C7
  10
297.898600
  20
491.852400
  0
VERTEX
  8
C7
  10
297.045800
  20
491.628900
  0
VERTEX
  8
C7
  10
296.165500
  20
491.431200
  0
VERTEX
  8
C7
  10
295.259400
  20
491.258300
  0
VERTEX
  8
C7
  10
294.329100
  20
491.109000
  0
VERTEX
  8
C7
  10
293.376300
  20
490.982100
  0
VERTEX
  8
C7
  10
292.402800
  20
490.876600
  0
VERTEX
  8
C7
  10
291.410300
  20
490.791200
  0
VERTEX
  8
C7
  10
290.400400
  20
490.724900
  0
VERTEX
  8
C7
  10
289.374900
  20
490.676600
  0
VERTEX
  8
C7
  10
288.335500
  20
490.645000
  0
VERTEX
  8
C7
  10
287.283800
  20
490.629100
  0
VERTEX
  8
C7
  10
286.221600
  20
490.627600
  0
VERTEX
  8
C7
  10
285.150600
  20
490.639600
  0
VERTEX
  8
C7
  10
284.072500
  20
490.663800
  0
VERTEX
  8
C7
  10
282.988900
  20
490.699200
  0
VERTEX
  8
C7
  10
281.901700
  20
490.744500
  0
VERTEX
  8
C7
  10
280.812400
  20
490.798600
  0
VERTEX
  8
C7
  10
279.722900
  20
490.860500
  0
VERTEX
  8
C7
  10
278.634700
  20
490.929000
  0
VERTEX
  8
C7
  10
277.549600
  20
491.002900
  0
VERTEX
  8
C7
  10
276.469300
  20
491.081100
  0
VERTEX
  8
C7
  10
275.395600
  20
491.162400
  0
VERTEX
  8
C7
  10
274.330000
  20
491.245900
  0
VERTEX
  8
C7
  10
273.274400
  20
491.330200
  0
VERTEX
  8
C7
  10
272.230400
  20
491.414300
  0
VERTEX
  8
C7
  10
271.199700
  20
491.497000
  0
VERTEX
  8
C7
  10
270.184000
  20
491.577300
  0
VERTEX
  8
C7
  10
269.185000
  20
491.653900
  0
VERTEX
  8
C7
  10
268.204500
  20
491.725700
  0
VERTEX
  8
C7
  10
267.244100
  20
491.791700
  0
VERTEX
  8
C7
  10
266.305600
  20
491.850600
  0
VERTEX
  8
C7
  10
265.390600
  20
491.901300
  0
VERTEX
  8
C7
  10
264.500800
  20
491.942800
  0
VERTEX
  8
C7
  10
263.638000
  20
491.973800
  0
VERTEX
  8
C7
  10
262.803800
  20
491.993200
  0
VERTEX
  8
C7
  10
262.000000
  20
492.000000
  0
VERTEX
  8
C7
  10
287.000000
  20
518.000000
  0
VERTEX
  8
C7
  10
286.241900
  20
517.449400
  0
VERTEX
  8
C7
  10
285.495200
  20
516.875200
  0
VERTEX
  8
C7
  10
284.759100
  20
516.278800
  0
VERTEX
  8
C7
  10
284.033000
  20
515.661800
  0
VERTEX
  8
C7
  10
283.316000
  20
515.025500
  0
VERTEX
  8
C7
  10
282.607400
  20
514.371500
  0
VERTEX
  8
C7
  10
281.906600
  20
513.701300
  0
VERTEX
  8
C7
  10
281.212700
  20
513.016300
  0
VERTEX
  8
C7
  10
280.525100
  20
512.318100
  0
VERTEX
  8
C7
  10
279.843000
  20
511.608200
  0
VERTEX
  8
C7
  10
279.165600
  20
510.888100
  0
VERTEX
  8
C7
  10
278.492300
  20
510.159200
  0
VERTEX
  8
C7
  10
277.822300
  20
509.423000
  0
VERTEX
  8
C7
  10
277.154800
  20
508.681100
  0
VERTEX
  8
C7
  10
276.489200
  20
507.934900
  0
VERTEX
  8
C7
  10
275.824700
  20
507.185900
  0
VERTEX
  8
C7
  10
275.160500
  20
506.435600
  0
VERTEX
  8
C7
  10
274.496000
  20
505.685600
  0
VERTEX
  8
C7
  10
273.830400
  20
504.937200
  0
VERTEX
  8
C7
  10
273.163000
  20
504.192100
  0
VERTEX
  8
C7
  10
272.493000
  20
503.451600
  0
VERTEX
  8
C7
  10
271.819700
  20
502.717300
  0
VERTEX
  8
C7
  10
271.142400
  20
501.990700
  0
VERTEX
  8
C7
  10
270.460300
  20
501.273200
  0
VERTEX
  8
C7
  10
269.772700
  20
500.566500
  0
VERTEX
  8
C7
  10
269.078900
  20
499.871800
  0
VERTEX
  8
C7
  10
268.378100
  20
499.190800
  0
VERTEX
  8
C7
  10
267.669600
  20
498.525000
  0
VERTEX
  8
C7
  10
266.952700
  20
497.875800
  0
VERTEX
  8
C7
  10
266.226600
  20
497.244700
  0
VERTEX
  8
C7
  10
265.490600
  20
496.633200
  0
VERTEX
  8
C7
  10
264.744000
  20
496.042800
  0
VERTEX
  8
C7
  10
263.986000
  20
495.475100
  0
VERTEX
  8
C7
  10
263.215900
  20
494.931400
  0
VERTEX
  8
C7
  10
262.433000
  20
494.413400
  0
VERTEX
  8
C7
  10
261.636500
  20
493.922400
  0
VERTEX
  8
C7
  10
260.825800
  20
493.460000
  0
VERTEX
  8
C7
  10
260.000000
  20
493.027700
  0
VERTEX
  8
C7
  10
259.274500
  20
492.689400
  0
VERTEX
  8
C7
  10
258.514600
  20
492.381500
  0
VERTEX
  8
C7
  10
257.722100
  20
492.102800
  0
VERTEX
  8
C7
  10
256.898600
  20
491.852400
  0
VERTEX
  8
C7
  10
256.045800
  20
491.628900
  0
VERTEX
  8
C7
  10
255.165500
  20
491.431200
  0
VERTEX
  8
C7
  10
254.259400
  20
491.258300
  0
VERTEX
  8
C7
  10
253.329100
  20
491.109000
  0
VERTEX
  8
C7
  10
252.376300
  20
490.982100
  0
VERTEX
  8
C7
  10
251.402800
  20
490.876600
  0
VERTEX
  8
C7
  10
250.410300
  20
490.791200
  0
VERTEX
  8
C7
  10
249.400400
  20
490.724900
  0
VERTEX
  8
C7
  10
248.374900
  20
490.676600
  0
VERTEX
  8
C7
  10
247.335500
  20
490.645000
  0
VERTEX
  8
C7
  10
246.283800
  20
490.629100
  0
VERTEX
  8
C7
  10
245.221600
  20
490.627600
  0
VERTEX
  8
C7
  10
244.150600
  20
490.639600
  0
VERTEX
  8
C7
  10
243.072500
  20
490.663800
  0
VERTEX
  8
C7
  10
241.988900
  20
490.699200
  0
VERTEX
  8
C7
  10
240.901700
  20
490.744500
  0
VERTEX
  8
C7
  10
239.812400
  20
490.798600
  0
VERTEX
  8
C7
  10
238.722900
  20
490.860500
  0
VERTEX
  8
C7
  10
237.634700
  20
490.929000
  0
VERTEX
  8
C7
  10
236.549600
  20
491.002900
  0
VERTEX
  8
C7
  10
235.469300
  20
491.081100
  0
VERTEX
  8
C7
  10
234.395600
  20
491.162400
  0
VERTEX
  8
C7
  10
233.330000
  20
491.245900
  0
VERTEX
  8
C7
  10
232.274400
  20
491.330200
  0
VERTEX
  8
C7
  10
231.230400
  20
491.414300
  0
VERTEX
  8
C7
  10
230.199700
  20
491.497000
  0
VERTEX
  8
C7
  10
229.184000
  20
491.577300
  0
VERTEX
  8
C7
  10
228.185000
  20
491.653900
  0
VERTEX
  8
C7
  10
227.204500
  20
491.725700
  0
VERTEX
  8
C7
  10
226.244100
  20
491.791700
  0
VERTEX
  8
C7
  10
225.305600
  20
491.850600
  0
VERTEX
  8
C7
  10
224.390600
  20
491.901300
  0
VERTEX
  8
C7
  10
223.500800
  20
491.942800
  0
VERTEX
  8
C7
  10
222.638000
  20
491.973800
  0
VERTEX
  8
C7
  10
221.803800
  20
491.993200
  0
VERTEX
  8
C7
  10
221.000000
  20
492.000000
  0
VERTEX
  8
C7
  10
246.000000
  20
518.000000
  0
VERTEX
  8
C7
  10
245.241900
  20
517.449400
  0
VERTEX
  8
C7
  10
244.495200
  20
516.875200
  0
VERTEX
  8
C7
  10
243.759100
  20
516.278900
  0
VERTEX
  8
C7
  10
243.033000
  20
515.661800
  0
VERTEX
  8
C7
  10
242.316000
  20
515.025500
  0
VERTEX
  8
C7
  10
241.607500
  20
514.371500
  0
VERTEX
  8
C7
  10
240.906600
  20
513.701300
  0
VERTEX
  8
C7
  10
240.212700
  20
513.016400
  0
VERTEX
  8
C7
  10
239.525100
  20
512.318200
  0
VERTEX
  8
C7
  10
238.843000
  20
511.608300
  0
VERTEX
  8
C7
  10
238.165600
  20
510.888100
  0
VERTEX
  8
C7
  10
237.492300
  20
510.159200
  0
VERTEX
  8
C7
  10
236.822300
  20
509.423100
  0
VERTEX
  8
C7
  10
236.154800
  20
508.681100
  0
VERTEX
  8
C7
  10
235.489200
  20
507.934900
  0
VERTEX
  8
C7
  10
234.824700
  20
507.186000
  0
VERTEX
  8
C7
  10
234.160600
  20
506.435700
  0
VERTEX
  8
C7
  10
233.496100
  20
505.685600
  0
VERTEX
  8
C7
  10
232.830500
  20
504.937300
  0
VERTEX
  8
C7
  10
232.163000
  20
504.192100
  0
VERTEX
  8
C7
  10
231.493000
  20
503.451600
  0
VERTEX
  8
C7
  10
230.819700
  20
502.717300
  0
VERTEX
  8
C7
  10
230.142400
  20
501.990700
  0
VERTEX
  8
C7
  10
229.460300
  20
501.273300
  0
VERTEX
  8
C7
  10
228.772700
  20
500.566500
  0
VERTEX
  8
C7
  10
228.078900
  20
499.871800
  0
VERTEX
  8
C7
  10
227.378100
  20
499.190800
  0
VERTEX
  8
C7
  10
226.669600
  20
498.525000
  0
VERTEX
  8
C7
  10
225.952700
  20
497.875800
  0
VERTEX
  8
C7
  10
225.226600
  20
497.244700
  0
VERTEX
  8
C7
  10
224.490600
  20
496.633200
  0
VERTEX
  8
C7
  10
223.744000
  20
496.042800
  0
VERTEX
  8
C7
  10
222.986000
  20
495.475100
  0
VERTEX
  8
C7
  10
222.216000
  20
494.931400
  0
VERTEX
  8
C7
  10
221.433000
  20
494.413400
  0
VERTEX
  8
C7
  10
220.636600
  20
493.922400
  0
VERTEX
  8
C7
  10
219.825800
  20
493.460000
  0
VERTEX
  8
C7
  10
219.000000
  20
493.027700
  0
VERTEX
  8
C7
  10
218.274500
  20
492.689400
  0
VERTEX
  8
C7
  10
217.514600
  20
492.381500
  0
VERTEX
  8
C7
  10
216.722100
  20
492.102800
  0
VERTEX
  8
C7
  10
215.898600
  20
491.852400
  0
VERTEX
  8
C7
  10
215.045800
  20
491.628900
  0
VERTEX
  8
C7
  10
214.165500
  20
491.431200
  0
VERTEX
  8
C7
  10
213.259400
  20
491.258300
  0
VERTEX
  8
C7
  10
212.329000
  20
491.109000
  0
VERTEX
  8
C7
  10
211.376300
  20
490.982100
  0
VERTEX
  8
C7
  10
210.402800
  20
490.876600
  0
VERTEX
  8
C7
  10
209.410300
  20
490.791200
  0
VERTEX
  8
C7
  10
208.400400
  20
490.724900
  0
VERTEX
  8
C7
  10
207.374900
  20
490.676600
  0
VERTEX
  8
C7
  10
206.335400
  20
490.645000
  0
VERTEX
  8
C7
  10
205.283800
  20
490.629100
  0
VERTEX
  8
C7
  10
204.221600
  20
490.627600
  0
VERTEX
  8
C7
  10
203.150600
  20
490.639600
  0
VERTEX
  8
C7
  10
202.072400
  20
490.663800
  0
VERTEX
  8
C7
  10
200.988900
  20
490.699200
  0
VERTEX
  8
C7
  10
199.901700
  20
490.744500
  0
VERTEX
  8
C7
  10
198.812400
  20
490.798600
  0
VERTEX
  8
C7
  10
197.722800
  20
490.860500
  0
VERTEX
  8
C7
  10
196.634600
  20
490.929000
  0
VERTEX
  8
C7
  10
195.549600
  20
491.002900
  0
VERTEX
  8
C7
  10
194.469300
  20
491.081100
  0
VERTEX
  8
C7
  10
193.395600
  20
491.162400
  0
VERTEX
  8
C7
  10
192.330000
  20
491.245900
  0
VERTEX
  8
C7
  10
191.274400
  20
491.330200
  0
VERTEX
  8
C7
  10
190.230400
  20
491.414300
  0
VERTEX
  8
C7
  10
189.199700
  20
491.497000
  0
VERTEX
  8
C7
  10
188.184000
  20
491.577300
  0
VERTEX
  8
C7
  10
187.185000
  20
491.653900
  0
VERTEX
  8
C7
  10
186.204500
  20
491.725700
  0
VERTEX
  8
C7
  10
185.244100
  20
491.791700
  0
VERTEX
  8
C7
  10
184.305600
  20
491.850600
  0
VERTEX
  8
C7
  10
183.390600
  20
491.901300
  0
VERTEX
  8
C7
  10
182.500800
  20
491.942800
  0
VERTEX
  8
C7
  10
181.638000
  20
491.973800
  0
VERTEX
  8
C7
  10
180.803800
  20
491.993200
  0
VERTEX
  8
C7
  10
180.000000
  20
492.000000
  0
VERTEX
  8
C7
  10
180.554200
  20
492.543900
  0
VERTEX
  8
C7
  10
181.143600
  20
493.103400
  0
VERTEX
  8
C7
  10
181.765400
  20
493.678000
  0
VERTEX
  8
C7
  10
182.417100
  20
494.267000
  0
VERTEX
  8
C7
  10
183.096300
  20
494.869900
  0
VERTEX
  8
C7
  10
183.800200
  20
495.486100
  0
VERTEX
  8
C7
  10
184.526500
  20
496.115000
  0
VERTEX
  8
C7
  10
185.272400
  20
496.756000
  0
VERTEX
  8
C7
  10
186.035600
  20
497.408600
  0
VERTEX
  8
C7
  10
186.813300
  20
498.072100
  0
VERTEX
  8
C7
  10
187.603100
  20
498.746000
  0
VERTEX
  8
C7
  10
188.402300
  20
499.429700
  0
VERTEX
  8
C7
  10
189.208600
  20
500.122600
  0
VERTEX
  8
C7
  10
190.019200
  20
500.824100
  0
VERTEX
  8
C7
  10
190.831600
  20
501.533700
  0
VERTEX
  8
C7
  10
191.643400
  20
502.250700
  0
VERTEX
  8
C7
  10
192.451800
  20
502.974600
  0
VERTEX
  8
C7
  10
193.254500
  20
503.704800
  0
VERTEX
  8
C7
  10
194.048700
  20
504.440700
  0
VERTEX
  8
C7
  10
194.832000
  20
505.181800
  0
VERTEX
  8
C7
  10
195.601900
  20
505.927400
  0
VERTEX
  8
C7
  10
196.355600
  20
506.676900
  0
VERTEX
  8
C7
  10
197.090800
  20
507.429900
  0
VERTEX
  8
C7
  10
197.804900
  20
508.185600
  0
VERTEX
  8
C7
  10
198.495200
  20
508.943600
  0
VERTEX
  8
C7
  10
199.159200
  20
509.703200
  0
VERTEX
  8
C7
  10
199.794500
  20
510.463800
  0
VERTEX
  8
C7
  10
200.398300
  20
511.224900
  0
VERTEX
  8
C7
  10
200.968300
  20
511.985900
  0
VERTEX
  8
C7
  10
201.501700
  20
512.746200
  0
VERTEX
  8
C7
  10
201.996200
  20
513.505300
  0
VERTEX
  8
C7
  10
202.449000
  20
514.262400
  0
VERTEX
  8
C7
  10
202.857700
  20
515.017100
  0
VERTEX
  8
C7
  10
203.219700
  20
515.768800
  0
VERTEX
  8
C7
  10
203.532400
  20
516.516900
  0
VERTEX
  8
C7
  10
203.793400
  20
517.260800
  0
VERTEX
  8
C7
  10
204.000000
  20
518.000000
  0
SEQEND
  8
C7
  0
POLYLINE
  8
C7
  66
1
  10
81.000000
  20
517.000000
  0
VERTEX
  8
C7
  10
81.000000
  20
517.000000
  0
VERTEX
  8
C7
  10
75.000000
  20
510.000000
  0
VERTEX
  8
C7
  10
81.000000
  20
517.000000
  0
SEQEND
  8
C7
  0
POLYLINE
  8
C7
  66
1
  10
154.000000
  20
422.000000
  0
VERTEX
  8
C7
  10
154.000000
  20
422.000000
  0
VERTEX
  8
C7
  10
235.000000
  20
422.000000
  0
VERTEX
  8
C7
  10
235.000000
  20
421.000000
  0
VERTEX
  8
C7
  10
154.000000
  20
421.000000
  0
VERTEX
  8
C7
  10
154.000000
  20
214.000000
  0
VERTEX
  8
C7
  10
235.000000
  20
214.000000
  0
VERTEX
  8
C7
  10
235.000000
  20
213.000000
  0
VERTEX
  8
C7
  10
154.000000
  20
213.000000
  0
VERTEX
  8
C7
  10
154.000000
  20
168.000000
  0
VERTEX
  8
C7
  10
237.000000
  20
168.000000
  0
VERTEX
  8
C7
  10
237.000000
  20
211.000000
  0
VERTEX
  8
C7
  10
238.000000
  20
211.000000
  0
VERTEX
  8
C7
  10
238.000000
  20
168.000000
  0
VERTEX
  8
C7
  10
526.000000
  20
168.000000
  0
VERTEX
  8
C7
  10
526.000000
  20
211.000000
  0
VERTEX
  8
C7
  10
527.000000
  20
211.000000
  0
VERTEX
  8
C7
  10
527.000000
  20
168.000000
  0
VERTEX
  8
C7
  10
586.000000
  20
168.000000
  0
VERTEX
  8
C7
  10
586.799000
  20
167.988600
  0
VERTEX
  8
C7
  10
587.651100
  20
167.957500
  0
VERTEX
  8
C7
  10
588.550600
  20
167.911100
  0
VERTEX
  8
C7
  10
589.491600
  20
167.853500
  0
VERTEX
  8
C7
  10
590.468300
  20
167.789200
  0
VERTEX
  8
C7
  10
591.475100
  20
167.722600
  0
VERTEX
  8
C7
  10
592.506000
  20
167.657800
  0
VERTEX
  8
C7
  10
593.555300
  20
167.599500
  0
VERTEX
  8
C7
  10
594.617200
  20
167.551700
  0
VERTEX
  8
C7
  10
595.685900
  20
167.518900
  0
VERTEX
  8
C7
  10
596.755600
  20
167.505500
  0
VERTEX
  8
C7
  10
597.820600
  20
167.515800
  0
VERTEX
  8
C7
  10
598.875100
  20
167.554100
  0
VERTEX
  8
C7
  10
599.913200
  20
167.624700
  0
VERTEX
  8
C7
  10
600.929200
  20
167.732100
  0
VERTEX
  8
C7
  10
601.917300
  20
167.880500
  0
VERTEX
  8
C7
  10
602.871600
  20
168.074300
  0
VERTEX
  8
C7
  10
603.786500
  20
168.317800
  0
VERTEX
  8
C7
  10
604.656200
  20
168.615400
  0
VERTEX
  8
C7
  10
605.474800
  20
168.971400
  0
VERTEX
  8
C7
  10
606.236500
  20
169.390300
  0
VERTEX
  8
C7
  10
606.935600
  20
169.876200
  0
VERTEX
  8
C7
  10
607.566300
  20
170.433600
  0
VERTEX
  8
C7
  10
608.041900
  20
170.962000
  0
VERTEX
  8
C7
  10
608.475300
  20
171.550500
  0
VERTEX
  8
C7
  10
608.868000
  20
172.195600
  0
VERTEX
  8
C7
  10
609.221700
  20
172.894200
  0
VERTEX
  8
C7
  10
609.538100
  20
173.643100
  0
VERTEX
  8
C7
  10
609.819000
  20
174.438900
  0
VERTEX
  8
C7
  10
610.065800
  20
175.278400
  0
VERTEX
  8
C7
  10
610.280500
  20
176.158300
  0
VERTEX
  8
C7
  10
610.464500
  20
177.075400
  0
VERTEX
  8
C7
  10
610.619700
  20
178.026500
  0
VERTEX
  8
C7
  10
610.747600
  20
179.008200
  0
VERTEX
  8
C7
  10
610.849900
  20
180.017400
  0
VERTEX
  8
C7
  10
610.928400
  20
181.050700
  0
VERTEX
  8
C7
  10
610.984700
  20
182.105000
  0
VERTEX
  8
C7
  10
611.020400
  20
183.176900
  0
VERTEX
  8
C7
  10
611.037300
  20
184.263200
  0
VERTEX
  8
C7
  10
611.037100
  20
185.360600
  0
VERTEX
  8
C7
  10
611.021300
  20
186.465900
  0
VERTEX
  8
C7
  10
610.991800
  20
187.575900
  0
VERTEX
  8
C7
  10
610.950000
  20
188.687200
  0
VERTEX
  8
C7
  10
610.897900
  20
189.796700
  0
VERTEX
  8
C7
  10
610.836900
  20
190.901000
  0
VERTEX
  8
C7
  10
610.768800
  20
191.997000
  0
VERTEX
  8
C7
  10
610.695300
  20
193.081300
  0
VERTEX
  8
C7
  10
610.618100
  20
194.150700
  0
VERTEX
  8
C7
  10
610.538800
  20
195.202000
  0
VERTEX
  8
C7
  10
610.459000
  20
196.231800
  0
VERTEX
  8
C7
  10
610.380600
  20
197.237000
  0
VERTEX
  8
C7
  10
610.305000
  20
198.214300
  0
VERTEX
  8
C7
  10
610.234200
  20
199.160400
  0
VERTEX
  8
C7
  10
610.169600
  20
200.072000
  0
VERTEX
  8
C7
  10
610.113000
  20
200.946000
  0
VERTEX
  8
C7
  10
610.066000
  20
201.779000
  0
VERTEX
  8
C7
  10
610.030400
  20
202.567900
  0
VERTEX
  8
C7
  10
610.007900
  20
203.309300
  0
VERTEX
  8
C7
  10
610.000000
  20
204.000000
  0
VERTEX
  8
C7
  10
610.000000
  20
299.000000
  0
VERTEX
  8
C7
  10
610.000000
  20
326.000000
  0
VERTEX
  8
C7
  10
610.016100
  20
326.970500
  0
VERTEX
  8
C7
  10
610.051600
  20
327.957800
  0
VERTEX
  8
C7
  10
610.086800
  20
328.952200
  0
VERTEX
  8
C7
  10
610.102100
  20
329.944000
  0
VERTEX
  8
C7
  10
610.077800
  20
330.923400
  0
VERTEX
  8
C7
  10
609.994200
  20
331.880900
  0
VERTEX
  8
C7
  10
609.831800
  20
332.806700
  0
VERTEX
  8
C7
  10
609.570800
  20
333.691200
  0
VERTEX
  8
C7
  10
609.191600
  20
334.524700
  0
VERTEX
  8
C7
  10
608.674500
  20
335.297500
  0
VERTEX
  8
C7
  10
608.000000
  20
336.000000
  0
VERTEX
  8
C7
  10
608.000000
  20
337.000000
  0
VERTEX
  8
C7
  10
608.516500
  20
337.528200
  0
VERTEX
  8
C7
  10
608.964000
  20
338.142500
  0
VERTEX
  8
C7
  10
609.346600
  20
338.835400
  0
VERTEX
  8
C7
  10
609.668700
  20
339.599800
  0
VERTEX
  8
C7
  10
609.934600
  20
340.428300
  0
VERTEX
  8
C7
  10
610.148500
  20
341.313700
  0
VERTEX
  8
C7
  10
610.314800
  20
342.248500
  0
VERTEX
  8
C7
  10
610.437700
  20
343.225700
  0
VERTEX
  8
C7
  10
610.521600
  20
344.237800
  0
VERTEX
  8
C7
  10
610.570700
  20
345.277600
  0
VERTEX
  8
C7
  10
610.589400
  20
346.337900
  0
VERTEX
  8
C7
  10
610.581800
  20
347.411200
  0
VERTEX
  8
C7
  10
610.552400
  20
348.490400
  0
VERTEX
  8
C7
  10
610.505400
  20
349.568100
  0
VERTEX
  8
C7
  10
610.445200
  20
350.637100
  0
VERTEX
  8
C7
  10
610.375900
  20
351.690100
  0
VERTEX
  8
C7
  10
610.301900
  20
352.719700
  0
VERTEX
  8
C7
  10
610.227500
  20
353.718800
  0
VERTEX
  8
C7
  10
610.157100
  20
354.679900
  0
VERTEX
  8
C7
  10
610.094800
  20
355.595900
  0
VERTEX
  8
C7
  10
610.045000
  20
356.459400
  0
VERTEX
  8
C7
  10
610.011900
  20
357.263200
  0
VERTEX
  8
C7
  10
610.000000
  20
358.000000
  0
VERTEX
  8
C7
  10
610.000000
  20
417.000000
  0
VERTEX
  8
C7
  10
610.000000
  20
468.000000
  0
VERTEX
  8
C7
  10
610.011200
  20
468.845900
  0
VERTEX
  8
C7
  10
610.041700
  20
469.735500
  0
VERTEX
  8
C7
  10
610.086400
  20
470.663400
  0
VERTEX
  8
C7
  10
610.140100
  20
471.624000
  0
VERTEX
  8
C7
  10
610.198000
  20
472.612000
  0
VERTEX
  8
C7
  10
610.254900
  20
473.622000
  0
VERTEX
  8
C7
  10
610.305800
  20
474.648600
  0
VERTEX
  8
C7
  10
610.345600
  20
475.686300
  0
VERTEX
  8
C7
  10
610.369400
  20
476.729600
  0
VERTEX
  8
C7
  10
610.372100
  20
477.773300
  0
VERTEX
  8
C7
  10
610.348600
  20
478.811800
  0
VERTEX
  8
C7
  10
610.293900
  20
479.839700
  0
VERTEX
  8
C7
  10
610.203000
  20
480.851700
  0
VERTEX
  8
C7
  10
610.070800
  20
481.842200
  0
VERTEX
  8
C7
  10
609.892200
  20
482.806000
  0
VERTEX
  8
C7
  10
609.662400
  20
483.737400
  0
VERTEX
  8
C7
  10
609.376100
  20
484.631200
  0
VERTEX
  8
C7
  10
609.028400
  20
485.482000
  0
VERTEX
  8
C7
  10
608.614200
  20
486.284200
  0
VERTEX
  8
C7
  10
608.128500
  20
487.032400
  0
VERTEX
  8
C7
  10
607.566300
  20
487.721400
  0
VERTEX
  8
C7
  10
606.883400
  20
488.388500
  0
VERTEX
  8
C7
  10
606.144400
  20
488.968100
  0
VERTEX
  8
C7
  10
605.354300
  20
489.465800
  0
VERTEX
  8
C7
  10
604.518100
  20
489.887400
  0
VERTEX
  8
C7
  10
603.640800
  20
490.238800
  0
VERTEX
  8
C7
  10
602.727700
  20
490.525600
  0
VERTEX
  8
C7
  10
601.783600
  20
490.753600
  0
VERTEX
  8
C7
  10
600.813600
  20
490.928700
  0
VERTEX
  8
C7
  10
599.822900
  20
491.056500
  0
VERTEX
  8
C7
  10
598.816500
  20
491.143000
  0
VERTEX
  8
C7
  10
597.799400
  20
491.193800
  0
VERTEX
  8
C7
  10
596.776700
  20
491.214700
  0
VERTEX
  8
C7
  10
595.753400
  20
491.211600
  0
VERTEX
  8
C7
  10
594.734700
  20
491.190100
  0
VERTEX
  8
C7
  10
593.725500
  20
491.156000
  0
VERTEX
  8
C7
  10
592.730900
  20
491.115300
  0
VERTEX
  8
C7
  10
591.756000
  20
491.073500
  0
VERTEX
  8
C7
  10
590.805800
  20
491.036500
  0
VERTEX
  8
C7
  10
589.885500
  20
491.010000
  0
VERTEX
  8
C7
  10
589.000000
  20
491.000000
  0
VERTEX
  8
C7
  10
539.000000
  20
491.000000
  0
VERTEX
  8
C7
  10
338.000000
  20
491.000000
  0
VERTEX
  8
C7
  10
340.000000
  20
482.000000
  0
VERTEX
  8
C7
  10
338.000000
  20
479.000000
  0
VERTEX
  8
C7
  10
337.000000
  20
479.000000
  0
VERTEX
  8
C7
  10
337.000000
  20
491.000000
  0
VERTEX
  8
C7
  10
298.000000
  20
491.000000
  0
VERTEX
  8
C7
  10
297.000000
  20
467.000000
  0
VERTEX
  8
C7
  10
296.000000
  20
467.000000
  0
VERTEX
  8
C7
  10
296.000000
  20
491.000000
  0
VERTEX
  8
C7
  10
193.000000
  20
491.000000
  0
VERTEX
  8
C7
  10
192.317900
  20
491.007000
  0
VERTEX
  8
C7
  10
191.591200
  20
491.027100
  0
VERTEX
  8
C7
  10
190.822400
  20
491.059000
  0
VERTEX
  8
C7
  10
190.014100
  20
491.101200
  0
VERTEX
  8
C7
  10
189.168900
  20
491.152300
  0
VERTEX
  8
C7
  10
188.289400
  20
491.211000
  0
VERTEX
  8
C7
  10
187.378200
  20
491.275800
  0
VERTEX
  8
C7
  10
186.437800
  20
491.345400
  0
VERTEX
  8
C7
  10
185.471000
  20
491.418300
  0
VERTEX
  8
C7
  10
184.480300
  20
491.493200
  0
VERTEX
  8
C7
  10
183.468200
  20
491.568600
  0
VERTEX
  8
C7
  10
182.437400
  20
491.643200
  0
VERTEX
  8
C7
  10
181.390500
  20
491.715500
  0
VERTEX
  8
C7
  10
180.330000
  20
491.784200
  0
VERTEX
  8
C7
  10
179.258700
  20
491.847900
  0
VERTEX
  8
C7
  10
178.178900
  20
491.905100
  0
VERTEX
  8
C7
  10
177.093500
  20
491.954600
  0
VERTEX
  8
C7
  10
176.004900
  20
491.994800
  0
VERTEX
  8
C7
  10
174.915700
  20
492.024400
  0
VERTEX
  8
C7
  10
173.828600
  20
492.042000
  0
VERTEX
  8
C7
  10
172.746100
  20
492.046200
  0
VERTEX
  8
C7
  10
171.670900
  20
492.035500
  0
VERTEX
  8
C7
  10
170.605500
  20
492.008700
  0
VERTEX
  8
C7
  10
169.552500
  20
491.964300
  0
VERTEX
  8
C7
  10
168.514500
  20
491.900900
  0
VERTEX
  8
C7
  10
167.494200
  20
491.817100
  0
VERTEX
  8
C7
  10
166.494100
  20
491.711500
  0
VERTEX
  8
C7
  10
165.516800
  20
491.582800
  0
VERTEX
  8
C7
  10
164.564900
  20
491.429400
  0
VERTEX
  8
C7
  10
163.641000
  20
491.250100
  0
VERTEX
  8
C7
  10
162.747700
  20
491.043400
  0
VERTEX
  8
C7
  10
161.887700
  20
490.808000
  0
VERTEX
  8
C7
  10
161.063400
  20
490.542400
  0
VERTEX
  8
C7
  10
160.277500
  20
490.245200
  0
VERTEX
  8
C7
  10
159.532600
  20
489.915100
  0
VERTEX
  8
C7
  10
158.831300
  20
489.550600
  0
VERTEX
  8
C7
  10
158.176100
  20
489.150400
  0
VERTEX
  8
C7
  10
157.569800
  20
488.713100
  0
VERTEX
  8
C7
  10
157.014800
  20
488.237200
  0
VERTEX
  8
C7
  10
156.513800
  20
487.721400
  0
VERTEX
  8
C7
  10
155.948800
  20
487.006100
  0
VERTEX
  8
C7
  10
155.462000
  20
486.236800
  0
VERTEX
  8
C7
  10
155.048000
  20
485.418600
  0
VERTEX
  8
C7
  10
154.701500
  20
484.556700
  0
VERTEX
  8
C7
  10
154.417200
  20
483.656100
  0
VERTEX
  8
C7
  10
154.189800
  20
482.722000
  0
VERTEX
  8
C7
  10
154.013900
  20
481.759600
  0
VERTEX
  8
C7
  10
153.884300
  20
480.773900
  0
VERTEX
  8
C7
  10
153.795500
  20
479.770100
  0
VERTEX
  8
C7
  10
153.742400
  20
478.753400
  0
VERTEX
  8
C7
  10
153.719600
  20
477.728700
  0
VERTEX
  8
C7
  10
153.721700
  20
476.701400
  0
VERTEX
  8
C7
  10
153.743500
  20
475.676400
  0
VERTEX
  8
C7
  10
153.779700
  20
474.659000
  0
VERTEX
  8
C7
  10
153.824800
  20
473.654200
  0
VERTEX
  8
C7
  10
153.873700
  20
472.667300
  0
VERTEX
  8
C7
  10
153.921000
  20
471.703200
  0
VERTEX
  8
C7
  10
153.961300
  20
470.767300
  0
VERTEX
  8
C7
  10
153.989400
  20
469.864400
  0
VERTEX
  8
C7
  10
154.000000
  20
469.000000
  0
VERTEX
  8
C7
  10
154.000000
  20
422.000000
  0
SEQEND
  8
C7
  0
POLYLINE
  8
C7
  66
1
  10
340.000000
  20
469.000000
  0
VERTEX
  8
C7
  10
340.000000
  20
469.000000
  0
VERTEX
  8
C7
  10
341.000000
  20
469.000000
  0
VERTEX
  8
C7
  10
341.612300
  20
468.272500
  0
VERTEX
  8
C7
  10
342.236000
  20
467.737100
  0
VERTEX
  8
C7
  10
342.859200
  20
467.379500
  0
VERTEX
  8
C7
  10
343.470300
  20
467.185300
  0
VERTEX
  8
C7
  10
344.057700
  20
467.140200
  0
VERTEX
  8
C7
  10
344.609600
  20
467.229800
  0
VERTEX
  8
C7
  10
345.114400
  20
467.439700
  0
VERTEX
  8
C7
  10
345.560300
  20
467.755600
  0
VERTEX
  8
C7
  10
345.935800
  20
468.163200
  0
VERTEX
  8
C7
  10
346.229000
  20
468.648000
  0
VERTEX
  8
C7
  10
346.428500
  20
469.195800
  0
VERTEX
  8
C7
  10
346.522400
  20
469.792100
  0
VERTEX
  8
C7
  10
346.499000
  20
470.422700
  0
VERTEX
  8
C7
  10
346.346800
  20
471.073100
  0
VERTEX
  8
C7
  10
346.054000
  20
471.729000
  0
VERTEX
  8
C7
  10
345.608900
  20
472.376100
  0
VERTEX
  8
C7
  10
345.000000
  20
473.000000
  0
VERTEX
  8
C7
  10
345.000000
  20
474.000000
  0
VERTEX
  8
C7
  10
347.000000
  20
477.000000
  0
VERTEX
  8
C7
  10
345.780500
  20
476.867200
  0
VERTEX
  8
C7
  10
344.732500
  20
476.664400
  0
VERTEX
  8
C7
  10
343.843300
  20
476.378900
  0
VERTEX
  8
C7
  10
343.100300
  20
475.998100
  0
VERTEX
  8
C7
  10
342.490700
  20
475.509200
  0
VERTEX
  8
C7
  10
342.001800
  20
474.899600
  0
VERTEX
  8
C7
  10
341.620900
  20
474.156500
  0
VERTEX
  8
C7
  10
341.335500
  20
473.267300
  0
VERTEX
  8
C7
  10
341.132700
  20
472.219400
  0
VERTEX
  8
C7
  10
341.000000
  20
471.000000
  0
VERTEX
  8
C7
  10
345.000000
  20
469.000000
  0
VERTEX
  8
C7
  10
340.000000
  20
470.000000
  0
VERTEX
  8
C7
  10
339.936700
  20
470.723100
  0
VERTEX
  8
C7
  10
339.798800
  20
471.457600
  0
VERTEX
  8
C7
  10
339.593900
  20
472.188800
  0
VERTEX
  8
C7
  10
339.329600
  20
472.902300
  0
VERTEX
  8
C7
  10
339.013500
  20
473.583600
  0
VERTEX
  8
C7
  10
338.653400
  20
474.218000
  0
VERTEX
  8
C7
  10
338.256700
  20
474.791100
  0
VERTEX
  8
C7
  10
337.831200
  20
475.288400
  0
VERTEX
  8
C7
  10
337.384400
  20
475.695300
  0
VERTEX
  8
C7
  10
336.924000
  20
475.997300
  0
VERTEX
  8
C7
  10
336.457700
  20
476.179900
  0
VERTEX
  8
C7
  10
335.992900
  20
476.228600
  0
VERTEX
  8
C7
  10
335.537500
  20
476.128900
  0
VERTEX
  8
C7
  10
335.099000
  20
475.866100
  0
VERTEX
  8
C7
  10
334.685000
  20
475.425900
  0
VERTEX
  8
C7
  10
334.303200
  20
474.793600
  0
VERTEX
  8
C7
  10
333.961200
  20
473.954800
  0
VERTEX
  8
C7
  10
333.666600
  20
472.895000
  0
VERTEX
  8
C7
  10
333.524600
  20
471.983800
  0
VERTEX
  8
C7
  10
333.515100
  20
471.116800
  0
VERTEX
  8
C7
  10
333.626200
  20
470.305000
  0
VERTEX
  8
C7
  10
333.845800
  20
469.559900
  0
VERTEX
  8
C7
  10
334.162000
  20
468.892800
  0
VERTEX
  8
C7
  10
334.562800
  20
468.314900
  0
VERTEX
  8
C7
  10
335.036200
  20
467.837700
  0
VERTEX
  8
C7
  10
335.570200
  20
467.472400
  0
VERTEX
  8
C7
  10
336.152900
  20
467.230300
  0
VERTEX
  8
C7
  10
336.772200
  20
467.122800
  0
VERTEX
  8
C7
  10
337.416300
  20
467.161200
  0
VERTEX
  8
C7
  10
338.073100
  20
467.356800
  0
VERTEX
  8
C7
  10
338.730600
  20
467.720900
  0
VERTEX
  8
C7
  10
339.376900
  20
468.264800
  0
VERTEX
  8
C7
  10
340.000000
  20
469.000000
  0
SEQEND
  8
C7
  0
POLYLINE
  8
C7
  66
1
  10
336.666656
  20
473.666656
  0
VERTEX
  8
C7
  10
336.666656
  20
473.666656
  0
VERTEX
  8
C7
  10
337.333344
  20
473.333344
  0
VERTEX
  8
C7
  10
336.666656
  20
473.666656
  0
SEQEND
  8
C7
  0
POLYLINE
  8
C7
  66
1
  10
336.000000
  20
471.000000
  0
VERTEX
  8
C7
  10
336.000000
  20
471.000000
  0
VERTEX
  8
C7
  10
336.000000
  20
469.000000
  0
VERTEX
  8
C7
  10
338.000000
  20
469.000000
  0
VERTEX
  8
C7
  10
338.000000
  20
471.000000
  0
VERTEX
  8
C7
  10
336.000000
  20
471.000000
  0
SEQEND
  8
C7
  0
POLYLINE
  8
C7
  66
1
  10
287.000000
  20
461.000000
  0
VERTEX
  8
C7
  10
287.000000
  20
461.000000
  0
VERTEX
  8
C7
  10
289.000000
  20
455.000000
  0
VERTEX
  8
C7
  10
291.000000
  20
455.000000
  0
VERTEX
  8
C7
  10
291.000000
  20
465.000000
  0
VERTEX
  8
C7
  10
287.000000
  20
461.000000
  0
SEQEND
  8
C7
  0
POLYLINE
  8
C7
  66
1
  10
299.000000
  20
457.000000
  0
VERTEX
  8
C7
  10
299.000000
  20
457.000000
  0
VERTEX
  8
C7
  10
300.000000
  20
457.000000
  0
VERTEX
  8
C7
  10
301.000000
  20
457.000000
  0
VERTEX
  8
C7
  10
301.481400
  20
456.485700
  0
VERTEX
  8
C7
  10
301.939800
  20
456.064800
  0
VERTEX
  8
C7
  10
302.375400
  20
455.732800
  0
VERTEX
  8
C7
  10
302.788000
  20
455.485100
  0
VERTEX
  8
C7
  10
303.177800
  20
455.317100
  0
VERTEX
  8
C7
  10
303.544500
  20
455.224300
  0
VERTEX
  8
C7
  10
303.888400
  20
455.202000
  0
VERTEX
  8
C7
  10
304.209300
  20
455.245900
  0
VERTEX
  8
C7
  10
304.507400
  20
455.351300
  0
VERTEX
  8
C7
  10
304.782500
  20
455.513600
  0
VERTEX
  8
C7
  10
305.034600
  20
455.728300
  0
VERTEX
  8
C7
  10
305.263900
  20
455.990800
  0
VERTEX
  8
C7
  10
305.470200
  20
456.296700
  0
VERTEX
  8
C7
  10
305.653600
  20
456.641200
  0
VERTEX
  8
C7
  10
305.814000
  20
457.020000
  0
VERTEX
  8
C7
  10
305.951600
  20
457.428300
  0
VERTEX
  8
C7
  10
306.066200
  20
457.861700
  0
VERTEX
  8
C7
  10
306.157900
  20
458.315600
  0
VERTEX
  8
C7
  10
306.226700
  20
458.785500
  0
VERTEX
  8
C7
  10
306.272500
  20
459.266700
  0
VERTEX
  8
C7
  10
306.295500
  20
459.754800
  0
VERTEX
  8
C7
  10
306.295500
  20
460.245100
  0
VERTEX
  8
C7
  10
306.272500
  20
460.733200
  0
VERTEX
  8
C7
  10
306.226700
  20
461.214400
  0
VERTEX
  8
C7
  10
306.157900
  20
461.684300
  0
VERTEX
  8
C7
  10
306.066200
  20
462.138200
  0
VERTEX
  8
C7
  10
305.951600
  20
462.571600
  0
VERTEX
  8
C7
  10
305.814000
  20
462.979900
  0
VERTEX
  8
C7
  10
305.653600
  20
463.358700
  0
VERTEX
  8
C7
  10
305.470200
  20
463.703200
  0
VERTEX
  8
C7
  10
305.263900
  20
464.009100
  0
VERTEX
  8
C7
  10
305.034600
  20
464.271600
  0
VERTEX
  8
C7
  10
304.782500
  20
464.486300
  0
VERTEX
  8
C7
  10
304.507400
  20
464.648600
  0
VERTEX
  8
C7
  10
304.209300
  20
464.754000
  0
VERTEX
  8
C7
  10
303.888400
  20
464.797900
  0
VERTEX
  8
C7
  10
303.544500
  20
464.775600
  0
VERTEX
  8
C7
  10
303.177800
  20
464.682800
  0
VERTEX
  8
C7
  10
302.788000
  20
464.514800
  0
VERTEX
  8
C7
  10
302.375400
  20
464.267100
  0
VERTEX
  8
C7
  10
301.939800
  20
463.935100
  0
VERTEX
  8
C7
  10
301.481400
  20
463.514200
  0
VERTEX
  8
C7
  10
301.000000
  20
463.000000
  0
VERTEX
  8
C7
  10
300.000000
  20
463.000000
  0
VERTEX
  8
C7
  10
299.285000
  20
463.463000
  0
VERTEX
  8
C7
  10
298.616600
  20
463.831700
  0
VERTEX
  8
C7
  10
297.993800
  20
464.111100
  0
VERTEX
  8
C7
  10
297.415700
  20
464.306000
  0
VERTEX
  8
C7
  10
296.881600
  20
464.421500
  0
VERTEX
  8
C7
  10
296.390400
  20
464.462600
  0
VERTEX
  8
C7
  10
295.941300
  20
464.434100
  0
VERTEX
  8
C7
  10
295.533500
  20
464.341100
  0
VERTEX
  8
C7
  10
295.166000
  20
464.188500
  0
VERTEX
  8
C7
  10
294.838000
  20
463.981300
  0
VERTEX
  8
C7
  10
294.548600
  20
463.724500
  0
VERTEX
  8
C7
  10
294.297000
  20
463.423000
  0
VERTEX
  8
C7
  10
294.082200
  20
463.081800
  0
VERTEX
  8
C7
  10
293.903300
  20
462.705800
  0
VERTEX
  8
C7
  10
293.759500
  20
462.300000
  0
VERTEX
  8
C7
  10
293.650000
  20
461.869500
  0
VERTEX
  8
C7
  10
293.573800
  20
461.419000
  0
VERTEX
  8
C7
  10
293.530000
  20
460.953700
  0
VERTEX
  8
C7
  10
293.517800
  20
460.478500
  0
VERTEX
  8
C7
  10
293.536300
  20
459.998300
  0
VERTEX
  8
C7
  10
293.584600
  20
459.518100
  0
VERTEX
  8
C7
  10
293.661900
  20
459.042900
  0
VERTEX
  8
C7
  10
293.767200
  20
458.577600
  0
VERTEX
  8
C7
  10
293.899700
  20
458.127200
  0
VERTEX
  8
C7
  10
294.058500
  20
457.696700
  0
VERTEX
  8
C7
  10
294.242700
  20
457.291000
  0
VERTEX
  8
C7
  10
294.451500
  20
456.915200
  0
VERTEX
  8
C7
  10
294.684000
  20
456.574100
  0
VERTEX
  8
C7
  10
294.939200
  20
456.272700
  0
VERTEX
  8
C7
  10
295.216400
  20
456.016000
  0
VERTEX
  8
C7
  10
295.514600
  20
455.809000
  0
VERTEX
  8
C7
  10
295.832900
  20
455.656600
  0
VERTEX
  8
C7
  10
296.170600
  20
455.563800
  0
VERTEX
  8
C7
  10
296.526600
  20
455.535600
  0
VERTEX
  8
C7
  10
296.900100
  20
455.576900
  0
VERTEX
  8
C7
  10
297.290300
  20
455.692700
  0
VERTEX
  8
C7
  10
297.696300
  20
455.887900
  0
VERTEX
  8
C7
  10
298.117100
  20
456.167500
  0
VERTEX
  8
C7
  10
298.552000
  20
456.536600
  0
VERTEX
  8
C7
  10
299.000000
  20
457.000000
  0
SEQEND
  8
C7
  0
POLYLINE
  8
C7
  66
1
  10
391.000000
  20
447.000000
  0
VERTEX
  8
C7
  10
391.000000
  20
447.000000
  0
VERTEX
  8
C7
  10
392.000000
  20
447.000000
  0
VERTEX
  8
C7
  10
392.606200
  20
446.209600
  0
VERTEX
  8
C7
  10
393.242500
  20
445.458900
  0
VERTEX
  8
C7
  10
393.907700
  20
444.746900
  0
VERTEX
  8
C7
  10
394.600300
  20
444.072700
  0
VERTEX
  8
C7
  10
395.319200
  20
443.435500
  0
VERTEX
  8
C7
  10
396.062900
  20
442.834400
  0
VERTEX
  8
C7
  10
396.830100
  20
442.268600
  0
VERTEX
  8
C7
  10
397.619600
  20
441.737300
  0
VERTEX
  8
C7
  10
398.430000
  20
441.239400
  0
VERTEX
  8
C7
  10
399.260000
  20
440.774200
  0
VERTEX
  8
C7
  10
400.108200
  20
440.340900
  0
VERTEX
  8
C7
  10
400.973500
  20
439.938500
  0
VERTEX
  8
C7
  10
401.854300
  20
439.566200
  0
VERTEX
  8
C7
  10
402.749500
  20
439.223100
  0
VERTEX
  8
C7
  10
403.657700
  20
438.908500
  0
VERTEX
  8
C7
  10
404.577500
  20
438.621300
  0
VERTEX
  8
C7
  10
405.507800
  20
438.360800
  0
VERTEX
  8
C7
  10
406.447100
  20
438.126100
  0
VERTEX
  8
C7
  10
407.394100
  20
437.916300
  0
VERTEX
  8
C7
  10
408.347500
  20
437.730500
  0
VERTEX
  8
C7
  10
409.306100
  20
437.568000
  0
VERTEX
  8
C7
  10
410.268400
  20
437.427800
  0
VERTEX
  8
C7
  10
411.233200
  20
437.309200
  0
VERTEX
  8
C7
  10
412.199200
  20
437.211100
  0
VERTEX
  8
C7
  10
413.164900
  20
437.132800
  0
VERTEX
  8
C7
  10
414.129200
  20
437.073400
  0
VERTEX
  8
C7
  10
415.090700
  20
437.032000
  0
VERTEX
  8
C7
  10
416.048000
  20
437.007800
  0
VERTEX
  8
C7
  10
417.000000
  20
437.000000
  0
VERTEX
  8
C7
  10
417.000000
  20
438.000000
  0
VERTEX
  8
C7
  10
400.000000
  20
442.000000
  0
VERTEX
  8
C7
  10
399.709600
  20
442.999800
  0
VERTEX
  8
C7
  10
399.294600
  20
443.861500
  0
VERTEX
  8
C7
  10
398.767300
  20
444.600800
  0
VERTEX
  8
C7
  10
398.140200
  20
445.233500
  0
VERTEX
  8
C7
  10
397.425700
  20
445.775200
  0
VERTEX
  8
C7
  10
396.636200
  20
446.241800
  0
VERTEX
  8
C7
  10
395.784200
  20
446.649100
  0
VERTEX
  8
C7
  10
394.882200
  20
447.012800
  0
VERTEX
  8
C7
  10
393.942500
  20
447.348600
  0
VERTEX
  8
C7
  10
392.977600
  20
447.672400
  0
VERTEX
  8
C7
  10
392.000000
  20
448.000000
  0
VERTEX
  8
C7
  10
392.291800
  20
448.773300
  0
VERTEX
  8
C7
  10
392.528200
  20
449.544700
  0
VERTEX
  8
C7
  10
392.710900
  20
450.312700
  0
VERTEX
  8
C7
  10
392.841600
  20
451.075900
  0
VERTEX
  8
C7
  10
392.921900
  20
451.832900
  0
VERTEX
  8
C7
  10
392.953500
  20
452.582400
  0
VERTEX
  8
C7
  10
392.938100
  20
453.323000
  0
VERTEX
  8
C7
  10
392.877400
  20
454.053400
  0
VERTEX
  8
C7
  10
392.773000
  20
454.772100
  0
VERTEX
  8
C7
  10
392.626600
  20
455.477800
  0
VERTEX
  8
C7
  10
392.439900
  20
456.169100
  0
VERTEX
  8
C7
  10
392.214500
  20
456.844700
  0
VERTEX
  8
C7
  10
391.952200
  20
457.503100
  0
VERTEX
  8
C7
  10
391.654600
  20
458.143000
  0
VERTEX
  8
C7
  10
391.323400
  20
458.763100
  0
VERTEX
  8
C7
  10
390.960300
  20
459.361900
  0
VERTEX
  8
C7
  10
390.566900
  20
459.938000
  0
VERTEX
  8
C7
  10
390.145000
  20
460.490200
  0
VERTEX
  8
C7
  10
389.696100
  20
461.017000
  0
VERTEX
  8
C7
  10
389.222000
  20
461.517100
  0
VERTEX
  8
C7
  10
388.724300
  20
461.989000
  0
VERTEX
  8
C7
  10
388.204800
  20
462.431500
  0
VERTEX
  8
C7
  10
387.665100
  20
462.843100
  0
VERTEX
  8
C7
  10
387.106800
  20
463.222500
  0
VERTEX
  8
C7
  10
386.531700
  20
463.568300
  0
VERTEX
  8
C7
  10
385.941500
  20
463.879100
  0
VERTEX
  8
C7
  10
385.337700
  20
464.153500
  0
VERTEX
  8
C7
  10
384.722100
  20
464.390200
  0
VERTEX
  8
C7
  10
384.096400
  20
464.587900
  0
VERTEX
  8
C7
  10
383.462200
  20
464.745000
  0
VERTEX
  8
C7
  10
382.821200
  20
464.860400
  0
VERTEX
  8
C7
  10
382.175100
  20
464.932500
  0
VERTEX
  8
C7
  10
381.525500
  20
464.960000
  0
VERTEX
  8
C7
  10
380.874200
  20
464.941500
  0
VERTEX
  8
C7
  10
380.222800
  20
464.875800
  0
VERTEX
  8
C7
  10
379.573000
  20
464.761300
  0
VERTEX
  8
C7
  10
378.926500
  20
464.596700
  0
VERTEX
  8
C7
  10
378.284800
  20
464.380700
  0
VERTEX
  8
C7
  10
377.649900
  20
464.111900
  0
VERTEX
  8
C7
  10
377.023100
  20
463.788900
  0
VERTEX
  8
C7
  10
376.406400
  20
463.410300
  0
VERTEX
  8
C7
  10
375.801300
  20
462.974800
  0
VERTEX
  8
C7
  10
375.209500
  20
462.480900
  0
VERTEX
  8
C7
  10
374.632800
  20
461.927400
  0
VERTEX
  8
C7
  10
374.072600
  20
461.312800
  0
VERTEX
  8
C7
  10
373.530900
  20
460.635800
  0
VERTEX
  8
C7
  10
373.009200
  20
459.895000
  0
VERTEX
  8
C7
  10
372.544300
  20
459.144500
  0
VERTEX
  8
C7
  10
372.142100
  20
458.396500
  0
VERTEX
  8
C7
  10
371.800800
  20
457.652100
  0
VERTEX
  8
C7
  10
371.518600
  20
456.912500
  0
VERTEX
  8
C7
  10
371.293800
  20
456.178900
  0
VERTEX
  8
C7
  10
371.124500
  20
455.452500
  0
VERTEX
  8
C7
  10
371.009200
  20
454.734500
  0
VERTEX
  8
C7
  10
370.945900
  20
454.026000
  0
VERTEX
  8
C7
  10
370.932900
  20
453.328100
  0
VERTEX
  8
C7
  10
370.968600
  20
452.642200
  0
VERTEX
  8
C7
  10
371.051100
  20
451.969300
  0
VERTEX
  8
C7
  10
371.178700
  20
451.310600
  0
VERTEX
  8
C7
  10
371.349600
  20
450.667300
  0
VERTEX
  8
C7
  10
371.562100
  20
450.040600
  0
VERTEX
  8
C7
  10
371.814400
  20
449.431700
  0
VERTEX
  8
C7
  10
372.104700
  20
448.841700
  0
VERTEX
  8
C7
  10
372.431400
  20
448.271800
  0
VERTEX
  8
C7
  10
372.792700
  20
447.723200
  0
VERTEX
  8
C7
  10
373.186700
  20
447.197100
  0
VERTEX
  8
C7
  10
373.611800
  20
446.694600
  0
VERTEX
  8
C7
  10
374.066200
  20
446.216900
  0
VERTEX
  8
C7
  10
374.548200
  20
445.765200
  0
VERTEX
  8
C7
  10
375.055900
  20
445.340700
  0
VERTEX
  8
C7
  10
375.587700
  20
444.944600
  0
VERTEX
  8
C7
  10
376.141700
  20
444.577900
  0
VERTEX
  8
C7
  10
376.716300
  20
444.242000
  0
VERTEX
  8
C7
  10
377.309600
  20
443.937900
  0
VERTEX
  8
C7
  10
377.920000
  20
443.666900
  0
VERTEX
  8
C7
  10
378.545600
  20
443.430100
  0
VERTEX
  8
C7
  10
379.184800
  20
443.228800
  0
VERTEX
  8
C7
  10
379.835700
  20
443.064000
  0
VERTEX
  8
C7
  10
380.496600
  20
442.936900
  0
VERTEX
  8
C7
  10
381.165700
  20
442.848900
  0
VERTEX
  8
C7
  10
381.841300
  20
442.800900
  0
VERTEX
  8
C7
  10
382.521700
  20
442.794200
  0
VERTEX
  8
C7
  10
383.205100
  20
442.830000
  0
VERTEX
  8
C7
  10
383.889700
  20
442.909400
  0
VERTEX
  8
C7
  10
384.573800
  20
443.033600
  0
VERTEX
  8
C7
  10
385.255600
  20
443.203900
  0
VERTEX
  8
C7
  10
385.933300
  20
443.421300
  0
VERTEX
  8
C7
  10
386.605300
  20
443.687000
  0
VERTEX
  8
C7
  10
387.269800
  20
444.002300
  0
VERTEX
  8
C7
  10
387.924900
  20
444.368300
  0
VERTEX
  8
C7
  10
388.569100
  20
444.786200
  0
VERTEX
  8
C7
  10
389.200400
  20
445.257100
  0
VERTEX
  8
C7
  10
389.817100
  20
445.782200
  0
VERTEX
  8
C7
  10
390.417600
  20
446.362800
  0
VERTEX
  8
C7
  10
391.000000
  20
447.000000
  0
SEQEND
  8
C7
  0
POLYLINE
  8
C7
  66
1
  10
337.000000
  20
464.000000
  0
VERTEX
  8
C7
  10
337.000000
  20
464.000000
  0
VERTEX
  8
C7
  10
334.000000
  20
454.000000
  0
VERTEX
  8
C7
  10
334.000000
  20
453.000000
  0
VERTEX
  8
C7
  10
369.000000
  20
453.000000
  0
VERTEX
  8
C7
  10
369.000000
  20
454.000000
  0
VERTEX
  8
C7
  10
339.000000
  20
454.000000
  0
VERTEX
  8
C7
  10
340.000000
  20
463.000000
  0
VERTEX
  8
C7
  10
337.000000
  20
464.000000
  0
SEQEND
  8
C7
  0
POLYLINE
  8
C7
  66
1
  10
379.015442
  20
463.343353
  0
VERTEX
  8
C7
  10
379.015442
  20
463.343353
  0
VERTEX
  8
C7
  10
378.246900
  20
463.075000
  0
VERTEX
  8
C7
  10
377.528200
  20
462.764300
  0
VERTEX
  8
C7
  10
376.858400
  20
462.413700
  0
VERTEX
  8
C7
  10
376.236900
  20
462.025600
  0
VERTEX
  8
C7
  10
375.663100
  20
461.602300
  0
VERTEX
  8
C7
  10
375.136300
  20
461.146300
  0
VERTEX
  8
C7
  10
374.655800
  20
460.659900
  0
VERTEX
  8
C7
  10
374.220900
  20
460.145600
  0
VERTEX
  8
C7
  10
373.831100
  20
459.605800
  0
VERTEX
  8
C7
  10
373.485600
  20
459.042800
  0
VERTEX
  8
C7
  10
373.183800
  20
458.459200
  0
VERTEX
  8
C7
  10
372.925100
  20
457.857200
  0
VERTEX
  8
C7
  10
372.708600
  20
457.239400
  0
VERTEX
  8
C7
  10
372.533900
  20
456.608000
  0
VERTEX
  8
C7
  10
372.400200
  20
455.965600
  0
VERTEX
  8
C7
  10
372.306900
  20
455.314400
  0
VERTEX
  8
C7
  10
372.253300
  20
454.657000
  0
VERTEX
  8
C7
  10
372.238700
  20
453.995700
  0
VERTEX
  8
C7
  10
372.262500
  20
453.332900
  0
VERTEX
  8
C7
  10
372.324100
  20
452.671000
  0
VERTEX
  8
C7
  10
372.422700
  20
452.012500
  0
VERTEX
  8
C7
  10
372.557700
  20
451.359700
  0
VERTEX
  8
C7
  10
372.728400
  20
450.715100
  0
VERTEX
  8
C7
  10
372.934200
  20
450.081000
  0
VERTEX
  8
C7
  10
373.174500
  20
449.459800
  0
VERTEX
  8
C7
  10
373.448400
  20
448.854100
  0
VERTEX
  8
C7
  10
373.755500
  20
448.266100
  0
VERTEX
  8
C7
  10
374.095000
  20
447.698200
  0
VERTEX
  8
C7
  10
374.466300
  20
447.152900
  0
VERTEX
  8
C7
  10
374.868600
  20
446.632600
  0
VERTEX
  8
C7
  10
375.301400
  20
446.139700
  0
VERTEX
  8
C7
  10
375.764000
  20
445.676600
  0
VERTEX
  8
C7
  10
376.255700
  20
445.245700
  0
VERTEX
  8
C7
  10
376.775800
  20
444.849300
  0
VERTEX
  8
C7
  10
377.323800
  20
444.490000
  0
VERTEX
  8
C7
  10
377.898800
  20
444.170100
  0
VERTEX
  8
C7
  10
378.500400
  20
443.892000
  0
VERTEX
  8
C7
  10
379.127700
  20
443.658100
  0
VERTEX
  8
C7
  10
379.780200
  20
443.470800
  0
VERTEX
  8
C7
  10
380.457200
  20
443.332600
  0
VERTEX
  8
C7
  10
381.158000
  20
443.245800
  0
VERTEX
  8
C7
  10
381.881900
  20
443.212800
  0
VERTEX
  8
C7
  10
382.628400
  20
443.236100
  0
VERTEX
  8
C7
  10
383.396600
  20
443.318000
  0
VERTEX
  8
C7
  10
384.186100
  20
443.460900
  0
VERTEX
  8
C7
  10
384.996100
  20
443.667400
  0
VERTEX
  8
C7
  10
385.799800
  20
443.930600
  0
VERTEX
  8
C7
  10
386.552400
  20
444.235200
  0
VERTEX
  8
C7
  10
387.254500
  20
444.578900
  0
VERTEX
  8
C7
  10
387.906800
  20
444.959400
  0
VERTEX
  8
C7
  10
388.510000
  20
445.374400
  0
VERTEX
  8
C7
  10
389.064900
  20
445.821500
  0
VERTEX
  8
C7
  10
389.572100
  20
446.298500
  0
VERTEX
  8
C7
  10
390.032400
  20
446.803000
  0
VERTEX
  8
C7
  10
390.446400
  20
447.332700
  0
VERTEX
  8
C7
  10
390.815000
  20
447.885400
  0
VERTEX
  8
C7
  10
391.138900
  20
448.458700
  0
VERTEX
  8
C7
  10
391.418600
  20
449.050300
  0
VERTEX
  8
C7
  10
391.655000
  20
449.657800
  0
VERTEX
  8
C7
  10
391.848800
  20
450.279100
  0
VERTEX
  8
C7
  10
392.000700
  20
450.911700
  0
VERTEX
  8
C7
  10
392.111300
  20
451.553500
  0
VERTEX
  8
C7
  10
392.181500
  20
452.201900
  0
VERTEX
  8
C7
  10
392.212000
  20
452.854800
  0
VERTEX
  8
C7
  10
392.203300
  20
453.509900
  0
VERTEX
  8
C7
  10
392.156400
  20
454.164700
  0
VERTEX
  8
C7
  10
392.071800
  20
454.817100
  0
VERTEX
  8
C7
  10
391.950400
  20
455.464700
  0
VERTEX
  8
C7
  10
391.792700
  20
456.105300
  0
VERTEX
  8
C7
  10
391.599600
  20
456.736400
  0
VERTEX
  8
C7
  10
391.371700
  20
457.355700
  0
VERTEX
  8
C7
  10
391.109800
  20
457.961100
  0
VERTEX
  8
C7
  10
390.814600
  20
458.550100
  0
VERTEX
  8
C7
  10
390.486700
  20
459.120500
  0
VERTEX
  8
C7
  10
390.127000
  20
459.669900
  0
VERTEX
  8
C7
  10
389.736100
  20
460.196000
  0
VERTEX
  8
C7
  10
389.314800
  20
460.696600
  0
VERTEX
  8
C7
  10
388.863700
  20
461.169300
  0
VERTEX
  8
C7
  10
388.383600
  20
461.611800
  0
VERTEX
  8
C7
  10
387.875100
  20
462.021800
  0
VERTEX
  8
C7
  10
387.339100
  20
462.397000
  0
VERTEX
  8
C7
  10
386.776200
  20
462.735000
  0
VERTEX
  8
C7
  10
386.187200
  20
463.033700
  0
VERTEX
  8
C7
  10
385.572700
  20
463.290600
  0
VERTEX
  8
C7
  10
384.933500
  20
463.503400
  0
VERTEX
  8
C7
  10
384.270200
  20
463.669900
  0
VERTEX
  8
C7
  10
383.583700
  20
463.787700
  0
VERTEX
  8
C7
  10
382.874600
  20
463.854500
  0
VERTEX
  8
C7
  10
382.143600
  20
463.868100
  0
VERTEX
  8
C7
  10
381.391500
  20
463.826000
  0
VERTEX
  8
C7
  10
380.618900
  20
463.726100
  0
VERTEX
  8
C7
  10
379.826600
  20
463.565900
  0
VERTEX
  8
C7
  10
379.015400
  20
463.343300
  0
SEQEND
  8
C7
  0
POLYLINE
  8
C7
  66
1
  10
296.000000
  20
463.000000
  0
VERTEX
  8
C7
  10
296.000000
  20
463.000000
  0
VERTEX
  8
C7
  10
296.000000
  20
457.000000
  0
VERTEX
  8
C7
  10
297.000000
  20
457.000000
  0
VERTEX
  8
C7
  10
296.000000
  20
463.000000
  0
SEQEND
  8
C7
  0
POLYLINE
  8
C7
  66
1
  10
303.000000
  20
463.000000
  0
VERTEX
  8
C7
  10
303.000000
  20
463.000000
  0
VERTEX
  8
C7
  10
303.000000
  20
457.000000
  0
VERTEX
  8
C7
  10
304.000000
  20
457.000000
  0
VERTEX
  8
C7
  10
303.000000
  20
463.000000
  0
SEQEND
  8
C7
  0
POLYLINE
  8
C7
  66
1
  10
109.000000
  20
462.000000
  0
VERTEX
  8
C7
  10
109.000000
  20
462.000000
  0
VERTEX
  8
C7
  10
107.000000
  20
457.000000
  0
VERTEX
  8
C7
  10
107.885500
  20
456.880800
  0
VERTEX
  8
C7
  10
108.503400
  20
456.546100
  0
VERTEX
  8
C7
  10
108.897100
  20
456.029400
  0
VERTEX
  8
C7
  10
109.110500
  20
455.364600
  0
VERTEX
  8
C7
  10
109.187200
  20
454.585400
  0
VERTEX
  8
C7
  10
109.170800
  20
453.725600
  0
VERTEX
  8
C7
  10
109.105000
  20
452.818900
  0
VERTEX
  8
C7
  10
109.033500
  20
451.899100
  0
VERTEX
  8
C7
  10
109.000000
  20
451.000000
  0
VERTEX
  8
C7
  10
111.000000
  20
451.000000
  0
VERTEX
  8
C7
  10
111.000000
  20
462.000000
  0
VERTEX
  8
C7
  10
109.000000
  20
462.000000
  0
SEQEND
  8
C7
  0
POLYLINE
  8
C7
  66
1
  10
113.000000
  20
458.000000
  0
VERTEX
  8
C7
  10
113.000000
  20
458.000000
  0
VERTEX
  8
C7
  10
117.000000
  20
460.000000
  0
VERTEX
  8
C7
  10
118.000000
  20
459.000000
  0
VERTEX
  8
C7
  10
113.000000
  20
451.000000
  0
VERTEX
  8
C7
  10
121.000000
  20
453.000000
  0
VERTEX
  8
C7
  10
121.625400
  20
452.617600
  0
VERTEX
  8
C7
  10
122.208600
  20
452.323200
  0
VERTEX
  8
C7
  10
122.750300
  20
452.112300
  0
VERTEX
  8
C7
  10
123.251400
  20
451.979900
  0
VERTEX
  8
C7
  10
123.712800
  20
451.921400
  0
VERTEX
  8
C7
  10
124.135300
  20
451.932000
  0
VERTEX
  8
C7
  10
124.519800
  20
452.006900
  0
VERTEX
  8
C7
  10
124.867000
  20
452.141500
  0
VERTEX
  8
C7
  10
125.177900
  20
452.331000
  0
VERTEX
  8
C7
  10
125.453300
  20
452.570600
  0
VERTEX
  8
C7
  10
125.694000
  20
452.855700
  0
VERTEX
  8
C7
  10
125.900900
  20
453.181400
  0
VERTEX
  8
C7
  10
126.074900
  20
453.543000
  0
VERTEX
  8
C7
  10
126.216700
  20
453.935800
  0
VERTEX
  8
C7
  10
126.327200
  20
454.355000
  0
VERTEX
  8
C7
  10
126.407400
  20
454.796000
  0
VERTEX
  8
C7
  10
126.457900
  20
455.253900
  0
VERTEX
  8
C7
  10
126.479700
  20
455.724000
  0
VERTEX
  8
C7
  10
126.473700
  20
456.201500
  0
VERTEX
  8
C7
  10
126.440600
  20
456.681800
  0
VERTEX
  8
C7
  10
126.381300
  20
457.160100
  0
VERTEX
  8
C7
  10
126.296600
  20
457.631600
  0
VERTEX
  8
C7
  10
126.187500
  20
458.091600
  0
VERTEX
  8
C7
  10
126.054700
  20
458.535400
  0
VERTEX
  8
C7
  10
125.899100
  20
458.958200
  0
VERTEX
  8
C7
  10
125.721600
  20
459.355300
  0
VERTEX
  8
C7
  10
125.522900
  20
459.721900
  0
VERTEX
  8
C7
  10
125.304000
  20
460.053300
  0
VERTEX
  8
C7
  10
125.065700
  20
460.344800
  0
VERTEX
  8
C7
  10
124.808800
  20
460.591500
  0
VERTEX
  8
C7
  10
124.534200
  20
460.788800
  0
VERTEX
  8
C7
  10
124.242700
  20
460.932000
  0
VERTEX
  8
C7
  10
123.935200
  20
461.016200
  0
VERTEX
  8
C7
  10
123.612500
  20
461.036800
  0
VERTEX
  8
C7
  10
123.275500
  20
460.989000
  0
VERTEX
  8
C7
  10
122.925000
  20
460.868000
  0
VERTEX
  8
C7
  10
122.561900
  20
460.669100
  0
VERTEX
  8
C7
  10
122.187000
  20
460.387600
  0
VERTEX
  8
C7
  10
121.801100
  20
460.018800
  0
VERTEX
  8
C7
  10
121.405200
  20
459.557800
  0
VERTEX
  8
C7
  10
121.000000
  20
459.000000
  0
VERTEX
  8
C7
  10
120.070700
  20
459.614300
  0
VERTEX
  8
C7
  10
119.199400
  20
460.125000
  0
VERTEX
  8
C7
  10
118.380100
  20
460.519600
  0
VERTEX
  8
C7
  10
117.607000
  20
460.785600
  0
VERTEX
  8
C7
  10
116.874400
  20
460.910600
  0
VERTEX
  8
C7
  10
116.176300
  20
460.882100
  0
VERTEX
  8
C7
  10
115.506900
  20
460.687500
  0
VERTEX
  8
C7
  10
114.860400
  20
460.314500
  0
VERTEX
  8
C7
  10
114.231000
  20
459.750500
  0
VERTEX
  8
C7
  10
113.612800
  20
458.983200
  0
VERTEX
  8
C7
  10
113.000000
  20
458.000000
  0
SEQEND
  8
C7
  0
POLYLINE
  8
C7
  66
1
  10
123.000000
  20
460.000000
  0
VERTEX
  8
C7
  10
123.000000
  20
460.000000
  0
VERTEX
  8
C7
  10
123.000000
  20
453.000000
  0
VERTEX
  8
C7
  10
124.000000
  20
453.000000
  0
VERTEX
  8
C7
  10
123.000000
  20
460.000000
  0
SEQEND
  8
C7
  0
POLYLINE
  8
C7
  66
1
  10
119.000000
  20
457.000000
  0
VERTEX
  8
C7
  10
119.000000
  20
457.000000
  0
VERTEX
  8
C7
  10
117.000000
  20
454.000000
  0
VERTEX
  8
C7
  10
118.179500
  20
454.288200
  0
VERTEX
  8
C7
  10
118.998200
  20
454.644100
  0
VERTEX
  8
C7
  10
119.427000
  20
455.155800
  0
VERTEX
  8
C7
  10
119.437200
  20
455.911700
  0
VERTEX
  8
C7
  10
119.000000
  20
457.000000
  0
SEQEND
  8
C7
  0
POLYLINE
  8
C7
  66
1
  10
296.000000
  20
453.000000
  0
VERTEX
  8
C7
  10
296.000000
  20
453.000000
  0
VERTEX
  8
C7
  10
296.006800
  20
452.248800
  0
VERTEX
  8
C7
  10
296.025600
  20
451.423100
  0
VERTEX
  8
C7
  10
296.052000
  20
450.532100
  0
VERTEX
  8
C7
  10
296.081700
  20
449.585200
  0
VERTEX
  8
C7
  10
296.110700
  20
448.591800
  0
VERTEX
  8
C7
  10
296.134500
  20
447.561300
  0
VERTEX
  8
C7
  10
296.149000
  20
446.502800
  0
VERTEX
  8
C7
  10
296.150000
  20
445.426000
  0
VERTEX
  8
C7
  10
296.133100
  20
444.340000
  0
VERTEX
  8
C7
  10
296.094300
  20
443.254200
  0
VERTEX
  8
C7
  10
296.029100
  20
442.178000
  0
VERTEX
  8
C7
  10
295.933400
  20
441.120700
  0
VERTEX
  8
C7
  10
295.803000
  20
440.091700
  0
VERTEX
  8
C7
  10
295.633600
  20
439.100300
  0
VERTEX
  8
C7
  10
295.421000
  20
438.155900
  0
VERTEX
  8
C7
  10
295.160900
  20
437.267900
  0
VERTEX
  8
C7
  10
294.849100
  20
436.445500
  0
VERTEX
  8
C7
  10
294.481300
  20
435.698200
  0
VERTEX
  8
C7
  10
294.053300
  20
435.035300
  0
VERTEX
  8
C7
  10
293.561000
  20
434.466100
  0
VERTEX
  8
C7
  10
293.000000
  20
434.000000
  0
VERTEX
  8
C7
  10
293.000000
  20
433.000000
  0
VERTEX
  8
C7
  10
357.000000
  20
433.000000
  0
VERTEX
  8
C7
  10
357.000000
  20
434.000000
  0
VERTEX
  8
C7
  10
298.000000
  20
434.000000
  0
VERTEX
  8
C7
  10
296.000000
  20
453.000000
  0
SEQEND
  8
C7
  0
POLYLINE
  8
C7
  66
1
  10
419.000000
  20
443.000000
  0
VERTEX
  8
C7
  10
419.000000
  20
443.000000
  0
VERTEX
  8
C7
  10
419.000000
  20
433.000000
  0
VERTEX
  8
C7
  10
421.000000
  20
433.000000
  0
VERTEX
  8
C7
  10
421.000000
  20
437.000000
  0
VERTEX
  8
C7
  10
425.000000
  20
437.000000
  0
VERTEX
  8
C7
  10
425.000000
  20
439.000000
  0
VERTEX
  8
C7
  10
421.000000
  20
439.000000
  0
VERTEX
  8
C7
  10
421.000000
  20
441.000000
  0
VERTEX
  8
C7
  10
426.000000
  20
441.000000
  0
VERTEX
  8
C7
  10
426.000000
  20
443.000000
  0
VERTEX
  8
C7
  10
419.000000
  20
443.000000
  0
SEQEND
  8
C7
  0
POLYLINE
  8
C7
  66
1
  10
455.000000
  20
443.000000
  0
VERTEX
  8
C7
  10
455.000000
  20
443.000000
  0
VERTEX
  8
C7
  10
454.236700
  20
442.343300
  0
VERTEX
  8
C7
  10
453.434700
  20
441.773700
  0
VERTEX
  8
C7
  10
452.597200
  20
441.285600
  0
VERTEX
  8
C7
  10
451.727600
  20
440.873500
  0
VERTEX
  8
C7
  10
450.829000
  20
440.531900
  0
VERTEX
  8
C7
  10
449.904800
  20
440.255200
  0
VERTEX
  8
C7
  10
448.958100
  20
440.038100
  0
VERTEX
  8
C7
  10
447.992400
  20
439.874900
  0
VERTEX
  8
C7
  10
447.010700
  20
439.760100
  0
VERTEX
  8
C7
  10
446.016500
  20
439.688400
  0
VERTEX
  8
C7
  10
445.012900
  20
439.654000
  0
VERTEX
  8
C7
  10
444.003200
  20
439.651700
  0
VERTEX
  8
C7
  10
442.990700
  20
439.675700
  0
VERTEX
  8
C7
  10
441.978600
  20
439.720700
  0
VERTEX
  8
C7
  10
440.970200
  20
439.781200
  0
VERTEX
  8
C7
  10
439.968800
  20
439.851500
  0
VERTEX
  8
C7
  10
438.977600
  20
439.926300
  0
VERTEX
  8
C7
  10
438.000000
  20
440.000000
  0
VERTEX
  8
C7
  10
437.000000
  20
435.000000
  0
VERTEX
  8
C7
  10
436.000000
  20
435.000000
  0
VERTEX
  8
C7
  10
435.000000
  20
440.000000
  0
VERTEX
  8
C7
  10
433.845500
  20
439.966300
  0
VERTEX
  8
C7
  10
432.775100
  20
439.926600
  0
VERTEX
  8
C7
  10
431.787700
  20
439.867800
  0
VERTEX
  8
C7
  10
430.882100
  20
439.777100
  0
VERTEX
  8
C7
  10
430.057200
  20
439.641600
  0
VERTEX
  8
C7
  10
429.311900
  20
439.448600
  0
VERTEX
  8
C7
  10
428.645000
  20
439.185200
  0
VERTEX
  8
C7
  10
428.055500
  20
438.838500
  0
VERTEX
  8
C7
  10
427.542100
  20
438.395600
  0
VERTEX
  8
C7
  10
427.103900
  20
437.843800
  0
VERTEX
  8
C7
  10
426.739700
  20
437.170100
  0
VERTEX
  8
C7
  10
426.448300
  20
436.361700
  0
VERTEX
  8
C7
  10
426.228600
  20
435.405800
  0
VERTEX
  8
C7
  10
426.079500
  20
434.289500
  0
VERTEX
  8
C7
  10
426.000000
  20
433.000000
  0
VERTEX
  8
C7
  10
426.668200
  20
432.994300
  0
VERTEX
  8
C7
  10
427.407500
  20
432.971900
  0
VERTEX
  8
C7
  10
428.212100
  20
432.935200
  0
VERTEX
  8
C7
  10
429.076100
  20
432.886700
  0
VERTEX
  8
C7
  10
429.993800
  20
432.828900
  0
VERTEX
  8
C7
  10
430.959300
  20
432.764100
  0
VERTEX
  8
C7
  10
431.966800
  20
432.694900
  0
VERTEX
  8
C7
  10
433.010600
  20
432.623600
  0
VERTEX
  8
C7
  10
434.084700
  20
432.552800
  0
VERTEX
  8
C7
  10
435.183400
  20
432.484900
  0
VERTEX
  8
C7
  10
436.300900
  20
432.422200
  0
VERTEX
  8
C7
  10
437.431300
  20
432.367400
  0
VERTEX
  8
C7
  10
438.568900
  20
432.322800
  0
VERTEX
  8
C7
  10
439.707800
  20
432.290900
  0
VERTEX
  8
C7
  10
440.842300
  20
432.274200
  0
VERTEX
  8
C7
  10
441.966400
  20
432.275000
  0
VERTEX
  8
C7
  10
443.074500
  20
432.295800
  0
VERTEX
  8
C7
  10
444.160600
  20
432.339100
  0
VERTEX
  8
C7
  10
445.219100
  20
432.407400
  0
VERTEX
  8
C7
  10
446.244000
  20
432.503000
  0
VERTEX
  8
C7
  10
447.229500
  20
432.628400
  0
VERTEX
  8
C7
  10
448.169900
  20
432.786200
  0
VERTEX
  8
C7
  10
449.059300
  20
432.978700
  0
VERTEX
  8
C7
  10
449.891900
  20
433.208300
  0
VERTEX
  8
C7
  10
450.662000
  20
433.477600
  0
VERTEX
  8
C7
  10
451.363600
  20
433.788900
  0
VERTEX
  8
C7
  10
451.991000
  20
434.144800
  0
VERTEX
  8
C7
  10
452.538400
  20
434.547700
  0
VERTEX
  8
C7
  10
453.000000
  20
435.000000
  0
VERTEX
  8
C7
  10
454.000000
  20
435.000000
  0
VERTEX
  8
C7
  10
458.000000
  20
433.000000
  0
VERTEX
  8
C7
  10
455.000000
  20
443.000000
  0
SEQEND
  8
C7
  0
POLYLINE
  8
C7
  66
1
  10
461.000000
  20
443.000000
  0
VERTEX
  8
C7
  10
461.000000
  20
443.000000
  0
VERTEX
  8
C7
  10
461.000000
  20
433.000000
  0
VERTEX
  8
C7
  10
463.000000
  20
433.000000
  0
VERTEX
  8
C7
  10
463.000000
  20
437.000000
  0
VERTEX
  8
C7
  10
467.000000
  20
437.000000
  0
VERTEX
  8
C7
  10
467.000000
  20
433.000000
  0
VERTEX
  8
C7
  10
469.000000
  20
433.000000
  0
VERTEX
  8
C7
  10
469.000000
  20
443.000000
  0
VERTEX
  8
C7
  10
467.000000
  20
443.000000
  0
VERTEX
  8
C7
  10
467.000000
  20
439.000000
  0
VERTEX
  8
C7
  10
463.000000
  20
439.000000
  0
VERTEX
  8
C7
  10
463.000000
  20
443.000000
  0
VERTEX
  8
C7
  10
461.000000
  20
443.000000
  0
SEQEND
  8
C7
  0
POLYLINE
  8
C7
  66
1
  10
477.000000
  20
443.000000
  0
VERTEX
  8
C7
  10
477.000000
  20
443.000000
  0
VERTEX
  8
C7
  10
477.000000
  20
439.000000
  0
VERTEX
  8
C7
  10
476.408900
  20
439.113500
  0
VERTEX
  8
C7
  10
475.739500
  20
439.165400
  0
VERTEX
  8
C7
  10
475.015600
  20
439.156600
  0
VERTEX
  8
C7
  10
474.261400
  20
439.088400
  0
VERTEX
  8
C7
  10
473.501000
  20
438.961900
  0
VERTEX
  8
C7
  10
472.758300
  20
438.778100
  0
VERTEX
  8
C7
  10
472.057500
  20
438.538100
  0
VERTEX
  8
C7
  10
471.422600
  20
438.243200
  0
VERTEX
  8
C7
  10
470.877700
  20
437.894400
  0
VERTEX
  8
C7
  10
470.446800
  20
437.492800
  0
VERTEX
  8
C7
  10
470.154100
  20
437.039600
  0
VERTEX
  8
C7
  10
470.023500
  20
436.535800
  0
VERTEX
  8
C7
  10
470.079100
  20
435.982600
  0
VERTEX
  8
C7
  10
470.345000
  20
435.381200
  0
VERTEX
  8
C7
  10
470.845300
  20
434.732500
  0
VERTEX
  8
C7
  10
471.604100
  20
434.037800
  0
VERTEX
  8
C7
  10
472.468700
  20
433.532500
  0
VERTEX
  8
C7
  10
473.479100
  20
433.226600
  0
VERTEX
  8
C7
  10
474.586100
  20
433.071800
  0
VERTEX
  8
C7
  10
475.740800
  20
433.019900
  0
VERTEX
  8
C7
  10
476.894000
  20
433.022800
  0
VERTEX
  8
C7
  10
477.996800
  20
433.032200
  0
VERTEX
  8
C7
  10
479.000000
  20
433.000000
  0
VERTEX
  8
C7
  10
479.000000
  20
443.000000
  0
VERTEX
  8
C7
  10
477.000000
  20
443.000000
  0
SEQEND
  8
C7
  0
POLYLINE
  8
C7
  66
1
  10
491.000000
  20
443.000000
  0
VERTEX
  8
C7
  10
491.000000
  20
443.000000
  0
VERTEX
  8
C7
  10
491.000000
  20
433.000000
  0
VERTEX
  8
C7
  10
492.143800
  20
433.014000
  0
VERTEX
  8
C7
  10
493.213900
  20
433.045400
  0
VERTEX
  8
C7
  10
494.209300
  20
433.119800
  0
VERTEX
  8
C7
  10
495.128900
  20
433.262800
  0
VERTEX
  8
C7
  10
495.971800
  20
433.500200
  0
VERTEX
  8
C7
  10
496.737000
  20
433.857500
  0
VERTEX
  8
C7
  10
497.423400
  20
434.360500
  0
VERTEX
  8
C7
  10
498.030000
  20
435.034800
  0
VERTEX
  8
C7
  10
498.555900
  20
435.906000
  0
VERTEX
  8
C7
  10
499.000000
  20
437.000000
  0
VERTEX
  8
C7
  10
500.000000
  20
437.000000
  0
VERTEX
  8
C7
  10
500.000000
  20
433.000000
  0
VERTEX
  8
C7
  10
502.000000
  20
433.000000
  0
VERTEX
  8
C7
  10
502.000000
  20
440.000000
  0
VERTEX
  8
C7
  10
500.000000
  20
438.000000
  0
VERTEX
  8
C7
  10
499.409700
  20
439.073000
  0
VERTEX
  8
C7
  10
498.806700
  20
439.980400
  0
VERTEX
  8
C7
  10
498.180000
  20
440.736000
  0
VERTEX
  8
C7
  10
497.518700
  20
441.354000
  0
VERTEX
  8
C7
  10
496.811900
  20
441.848200
  0
VERTEX
  8
C7
  10
496.048400
  20
442.232800
  0
VERTEX
  8
C7
  10
495.217500
  20
442.521600
  0
VERTEX
  8
C7
  10
494.308200
  20
442.728800
  0
VERTEX
  8
C7
  10
493.309500
  20
442.868200
  0
VERTEX
  8
C7
  10
492.210400
  20
442.953900
  0
VERTEX
  8
C7
  10
491.000000
  20
443.000000
  0
SEQEND
  8
C7
  0
POLYLINE
  8
C7
  66
1
  10
500.000000
  20
443.000000
  0
VERTEX
  8
C7
  10
500.000000
  20
443.000000
  0
VERTEX
  8
C7
  10
500.000000
  20
441.000000
  0
VERTEX
  8
C7
  10
502.000000
  20
441.000000
  0
VERTEX
  8
C7
  10
502.000000
  20
443.000000
  0
VERTEX
  8
C7
  10
500.000000
  20
443.000000
  0
SEQEND
  8
C7
  0
POLYLINE
  8
C7
  66
1
  10
513.000000
  20
433.000000
  0
VERTEX
  8
C7
  10
513.000000
  20
433.000000
  0
VERTEX
  8
C7
  10
514.000000
  20
432.000000
  0
VERTEX
  8
C7
  10
522.000000
  20
435.000000
  0
VERTEX
  8
C7
  10
523.000000
  20
435.000000
  0
VERTEX
  8
C7
  10
537.000000
  20
433.000000
  0
VERTEX
  8
C7
  10
536.976900
  20
433.732300
  0
VERTEX
  8
C7
  10
536.911000
  20
434.472600
  0
VERTEX
  8
C7
  10
536.805600
  20
435.214200
  0
VERTEX
  8
C7
  10
536.664000
  20
435.950300
  0
VERTEX
  8
C7
  10
536.489400
  20
436.674000
  0
VERTEX
  8
C7
  10
536.285000
  20
437.378500
  0
VERTEX
  8
C7
  10
536.054200
  20
438.057200
  0
VERTEX
  8
C7
  10
535.800300
  20
438.703200
  0
VERTEX
  8
C7
  10
535.526500
  20
439.309600
  0
VERTEX
  8
C7
  10
535.236000
  20
439.869800
  0
VERTEX
  8
C7
  10
534.932200
  20
440.376900
  0
VERTEX
  8
C7
  10
534.618400
  20
440.824200
  0
VERTEX
  8
C7
  10
534.297700
  20
441.204800
  0
VERTEX
  8
C7
  10
533.973500
  20
441.512000
  0
VERTEX
  8
C7
  10
533.649100
  20
441.739000
  0
VERTEX
  8
C7
  10
533.327700
  20
441.878900
  0
VERTEX
  8
C7
  10
533.012600
  20
441.925100
  0
VERTEX
  8
C7
  10
532.707000
  20
441.870700
  0
VERTEX
  8
C7
  10
532.414300
  20
441.708900
  0
VERTEX
  8
C7
  10
532.137700
  20
441.433000
  0
VERTEX
  8
C7
  10
531.880500
  20
441.036100
  0
VERTEX
  8
C7
  10
531.646000
  20
440.511500
  0
VERTEX
  8
C7
  10
531.437400
  20
439.852400
  0
VERTEX
  8
C7
  10
531.258000
  20
439.051900
  0
VERTEX
  8
C7
  10
531.111100
  20
438.103400
  0
VERTEX
  8
C7
  10
531.000000
  20
437.000000
  0
VERTEX
  8
C7
  10
530.573500
  20
437.818600
  0
VERTEX
  8
C7
  10
530.104600
  20
438.570300
  0
VERTEX
  8
C7
  10
529.596700
  20
439.255700
  0
VERTEX
  8
C7
  10
529.053200
  20
439.875700
  0
VERTEX
  8
C7
  10
528.477500
  20
440.431100
  0
VERTEX
  8
C7
  10
527.872900
  20
440.922600
  0
VERTEX
  8
C7
  10
527.242800
  20
441.351100
  0
VERTEX
  8
C7
  10
526.590600
  20
441.717500
  0
VERTEX
  8
C7
  10
525.919800
  20
442.022300
  0
VERTEX
  8
C7
  10
525.233500
  20
442.266600
  0
VERTEX
  8
C7
  10
524.535400
  20
442.451100
  0
VERTEX
  8
C7
  10
523.828600
  20
442.576500
  0
VERTEX
  8
C7
  10
523.116700
  20
442.643800
  0
VERTEX
  8
C7
  10
522.403000
  20
442.653600
  0
VERTEX
  8
C7
  10
521.690900
  20
442.606900
  0
VERTEX
  8
C7
  10
520.983700
  20
442.504300
  0
VERTEX
  8
C7
  10
520.284900
  20
442.346700
  0
VERTEX
  8
C7
  10
519.597800
  20
442.135000
  0
VERTEX
  8
C7
  10
518.925900
  20
441.869800
  0
VERTEX
  8
C7
  10
518.272400
  20
441.552000
  0
VERTEX
  8
C7
  10
517.640800
  20
441.182500
  0
VERTEX
  8
C7
  10
517.034500
  20
440.761900
  0
VERTEX
  8
C7
  10
516.456900
  20
440.291200
  0
VERTEX
  8
C7
  10
515.911200
  20
439.771100
  0
VERTEX
  8
C7
  10
515.401000
  20
439.202400
  0
VERTEX
  8
C7
  10
514.929600
  20
438.585900
  0
VERTEX
  8
C7
  10
514.500300
  20
437.922400
  0
VERTEX
  8
C7
  10
514.116600
  20
437.212800
  0
VERTEX
  8
C7
  10
513.781900
  20
436.457800
  0
VERTEX
  8
C7
  10
513.499400
  20
435.658200
  0
VERTEX
  8
C7
  10
513.272700
  20
434.814800
  0
VERTEX
  8
C7
  10
513.105100
  20
433.928500
  0
VERTEX
  8
C7
  10
513.000000
  20
433.000000
  0
SEQEND
  8
C7
  0
POLYLINE
  8
C7
  66
1
  10
493.000000
  20
441.000000
  0
VERTEX
  8
C7
  10
493.000000
  20
441.000000
  0
VERTEX
  8
C7
  10
493.000000
  20
435.000000
  0
VERTEX
  8
C7
  10
493.962700
  20
435.384700
  0
VERTEX
  8
C7
  10
494.750400
  20
435.832200
  0
VERTEX
  8
C7
  10
495.363100
  20
436.330100
  0
VERTEX
  8
C7
  10
495.800700
  20
436.865800
  0
VERTEX
  8
C7
  10
496.063300
  20
437.426600
  0
VERTEX
  8
C7
  10
496.150800
  20
437.999900
  0
VERTEX
  8
C7
  10
496.063300
  20
438.573300
  0
VERTEX
  8
C7
  10
495.800700
  20
439.134100
  0
VERTEX
  8
C7
  10
495.363100
  20
439.669700
  0
VERTEX
  8
C7
  10
494.750400
  20
440.167600
  0
VERTEX
  8
C7
  10
493.962700
  20
440.615200
  0
VERTEX
  8
C7
  10
493.000000
  20
441.000000
  0
SEQEND
  8
C7
  0
POLYLINE
  8
C7
  66
1
  10
503.000000
  20
433.000000
  0
VERTEX
  8
C7
  10
503.000000
  20
433.000000
  0
VERTEX
  8
C7
  10
512.000000
  20
435.000000
  0
VERTEX
  8
C7
  10
509.000000
  20
434.000000
  0
VERTEX
  8
C7
  10
509.000000
  20
440.000000
  0
VERTEX
  8
C7
  10
507.743000
  20
440.044200
  0
VERTEX
  8
C7
  10
506.675200
  20
439.969500
  0
VERTEX
  8
C7
  10
505.781200
  20
439.777400
  0
VERTEX
  8
C7
  10
505.045500
  20
439.469300
  0
VERTEX
  8
C7
  10
504.452500
  20
439.046600
  0
VERTEX
  8
C7
  10
503.986900
  20
438.510700
  0
VERTEX
  8
C7
  10
503.633100
  20
437.863200
  0
VERTEX
  8
C7
  10
503.375700
  20
437.105300
  0
VERTEX
  8
C7
  10
503.199100
  20
436.238700
  0
VERTEX
  8
C7
  10
503.088000
  20
435.264600
  0
VERTEX
  8
C7
  10
503.026700
  20
434.184500
  0
VERTEX
  8
C7
  10
503.000000
  20
433.000000
  0
SEQEND
  8
C7
  0
POLYLINE
  8
C7
  66
1
  10
518.000000
  20
441.000000
  0
VERTEX
  8
C7
  10
518.000000
  20
441.000000
  0
VERTEX
  8
C7
  10
515.000000
  20
436.000000
  0
VERTEX
  8
C7
  10
518.000000
  20
441.000000
  0
SEQEND
  8
C7
  0
POLYLINE
  8
C7
  66
1
  10
526.000000
  20
441.000000
  0
VERTEX
  8
C7
  10
526.000000
  20
441.000000
  0
VERTEX
  8
C7
  10
523.000000
  20
440.000000
  0
VERTEX
  8
C7
  10
523.000000
  20
436.000000
  0
VERTEX
  8
C7
  10
528.000000
  20
435.000000
  0
VERTEX
  8
C7
  10
525.000000
  20
437.000000
  0
VERTEX
  8
C7
  10
526.000000
  20
441.000000
  0
SEQEND
  8
C7
  0
POLYLINE
  8
C7
  66
1
  10
533.333313
  20
440.333344
  0
VERTEX
  8
C7
  10
533.333313
  20
440.333344
  0
VERTEX
  8
C7
  10
533.666687
  20
439.666656
  0
VERTEX
  8
C7
  10
533.333313
  20
440.333344
  0
SEQEND
  8
C7
  0
POLYLINE
  8
C7
  66
1
  10
481.603394
  20
438.953705
  0
VERTEX
  8
C7
  10
481.603394
  20
438.953705
  0
VERTEX
  8
C7
  10
481.030200
  20
438.406100
  0
VERTEX
  8
C7
  10
480.652700
  20
437.802400
  0
VERTEX
  8
C7
  10
480.454300
  20
437.164400
  0
VERTEX
  8
C7
  10
480.418500
  20
436.513400
  0
VERTEX
  8
C7
  10
480.529000
  20
435.871200
  0
VERTEX
  8
C7
  10
480.769400
  20
435.259200
  0
VERTEX
  8
C7
  10
481.123200
  20
434.699200
  0
VERTEX
  8
C7
  10
481.573900
  20
434.212700
  0
VERTEX
  8
C7
  10
482.105300
  20
433.821300
  0
VERTEX
  8
C7
  10
482.700900
  20
433.546600
  0
VERTEX
  8
C7
  10
483.344200
  20
433.410100
  0
VERTEX
  8
C7
  10
484.018800
  20
433.433500
  0
VERTEX
  8
C7
  10
484.708400
  20
433.638300
  0
VERTEX
  8
C7
  10
485.396600
  20
434.046300
  0
SEQEND
  8
C7
  0
POLYLINE
  8
C7
  66
1
  10
485.396600
  20
434.046200
  0
VERTEX
  8
C7
  10
485.396600
  20
434.046200
  0
VERTEX
  8
C7
  10
485.969600
  20
434.593800
  0
VERTEX
  8
C7
  10
486.347100
  20
435.197400
  0
VERTEX
  8
C7
  10
486.545500
  20
435.835500
  0
VERTEX
  8
C7
  10
486.581300
  20
436.486500
  0
VERTEX
  8
C7
  10
486.470800
  20
437.128700
  0
VERTEX
  8
C7
  10
486.230400
  20
437.740600
  0
VERTEX
  8
C7
  10
485.876700
  20
438.300700
  0
VERTEX
  8
C7
  10
485.425900
  20
438.787200
  0
VERTEX
  8
C7
  10
484.894500
  20
439.178600
  0
VERTEX
  8
C7
  10
484.299000
  20
439.453300
  0
VERTEX
  8
C7
  10
483.655600
  20
439.589800
  0
VERTEX
  8
C7
  10
482.981000
  20
439.566400
  0
VERTEX
  8
C7
  10
482.291400
  20
439.361500
  0
VERTEX
  8
C7
  10
481.603400
  20
438.953700
  0
SEQEND
  8
C7
  0
POLYLINE
  8
C7
  66
1
  10
538.000000
  20
440.000000
  0
VERTEX
  8
C7
  10
538.000000
  20
440.000000
  0
VERTEX
  8
C7
  10
538.000000
  20
433.000000
  0
VERTEX
  8
C7
  10
540.000000
  20
433.000000
  0
VERTEX
  8
C7
  10
540.000000
  20
438.000000
  0
VERTEX
  8
C7
  10
541.000000
  20
438.000000
  0
VERTEX
  8
C7
  10
541.000000
  20
433.000000
  0
VERTEX
  8
C7
  10
544.000000
  20
433.000000
  0
VERTEX
  8
C7
  10
544.000000
  20
438.000000
  0
VERTEX
  8
C7
  10
545.000000
  20
438.000000
  0
VERTEX
  8
C7
  10
545.000000
  20
433.000000
  0
VERTEX
  8
C7
  10
550.000000
  20
433.000000
  0
VERTEX
  8
C7
  10
550.000000
  20
438.000000
  0
VERTEX
  8
C7
  10
552.000000
  20
438.000000
  0
VERTEX
  8
C7
  10
552.000000
  20
433.000000
  0
VERTEX
  8
C7
  10
554.000000
  20
433.000000
  0
VERTEX
  8
C7
  10
554.000000
  20
438.000000
  0
VERTEX
  8
C7
  10
556.000000
  20
438.000000
  0
VERTEX
  8
C7
  10
556.000000
  20
433.000000
  0
VERTEX
  8
C7
  10
558.000000
  20
433.000000
  0
VERTEX
  8
C7
  10
558.000000
  20
440.000000
  0
VERTEX
  8
C7
  10
538.000000
  20
440.000000
  0
SEQEND
  8
C7
  0
POLYLINE
  8
C7
  66
1
  10
442.000000
  20
437.000000
  0
VERTEX
  8
C7
  10
442.000000
  20
437.000000
  0
VERTEX
  8
C7
  10
442.000000
  20
436.000000
  0
VERTEX
  8
C7
  10
447.000000
  20
436.000000
  0
VERTEX
  8
C7
  10
442.000000
  20
437.000000
  0
SEQEND
  8
C7
  0
POLYLINE
  8
C7
  66
1
  10
472.000000
  20
438.000000
  0
VERTEX
  8
C7
  10
472.000000
  20
438.000000
  0
VERTEX
  8
C7
  10
472.000000
  20
435.000000
  0
VERTEX
  8
C7
  10
475.000000
  20
435.000000
  0
VERTEX
  8
C7
  10
475.000000
  20
438.000000
  0
VERTEX
  8
C7
  10
472.000000
  20
438.000000
  0
SEQEND
  8
C7
  0
POLYLINE
  8
C7
  66
1
  10
520.000000
  20
438.000000
  0
VERTEX
  8
C7
  10
520.000000
  20
438.000000
  0
VERTEX
  8
C7
  10
517.000000
  20
434.000000
  0
VERTEX
  8
C7
  10
520.000000
  20
438.000000
  0
SEQEND
  8
C7
  0
POLYLINE
  8
C7
  66
1
  10
533.000000
  20
437.000000
  0
VERTEX
  8
C7
  10
533.000000
  20
437.000000
  0
VERTEX
  8
C7
  10
533.000000
  20
435.000000
  0
VERTEX
  8
C7
  10
535.000000
  20
435.000000
  0
VERTEX
  8
C7
  10
535.000000
  20
437.000000
  0
VERTEX
  8
C7
  10
533.000000
  20
437.000000
  0
SEQEND
  8
C7
  0
POLYLINE
  8
C7
  66
1
  10
429.000000
  20
436.000000
  0
VERTEX
  8
C7
  10
429.000000
  20
436.000000
  0
VERTEX
  8
C7
  10
430.000000
  20
435.000000
  0
VERTEX
  8
C7
  10
429.000000
  20
436.000000
  0
SEQEND
  8
C7
  0
POLYLINE
  8
C7
  66
1
  10
449.666656
  20
435.666656
  0
VERTEX
  8
C7
  10
449.666656
  20
435.666656
  0
VERTEX
  8
C7
  10
450.333344
  20
435.333344
  0
VERTEX
  8
C7
  10
449.666656
  20
435.666656
  0
SEQEND
  8
C7
  0
POLYLINE
  8
C7
  66
1
  10
482.000000
  20
436.000000
  0
VERTEX
  8
C7
  10
482.000000
  20
436.000000
  0
VERTEX
  8
C7
  10
482.000000
  20
435.000000
  0
VERTEX
  8
C7
  10
485.000000
  20
435.000000
  0
VERTEX
  8
C7
  10
482.000000
  20
436.000000
  0
SEQEND
  8
C7
  0
POLYLINE
  8
C7
  66
1
  10
506.000000
  20
436.000000
  0
VERTEX
  8
C7
  10
506.000000
  20
436.000000
  0
VERTEX
  8
C7
  10
507.000000
  20
435.000000
  0
VERTEX
  8
C7
  10
506.000000
  20
436.000000
  0
SEQEND
  8
C7
  0
POLYLINE
  8
C7
  66
1
  10
359.000000
  20
434.000000
  0
VERTEX
  8
C7
  10
359.000000
  20
434.000000
  0
VERTEX
  8
C7
  10
359.000000
  20
429.000000
  0
VERTEX
  8
C7
  10
360.000000
  20
429.000000
  0
VERTEX
  8
C7
  10
363.000000
  20
433.000000
  0
VERTEX
  8
C7
  10
359.000000
  20
434.000000
  0
SEQEND
  8
C7
  0
POLYLINE
  8
C7
  66
1
  10
367.000000
  20
434.000000
  0
VERTEX
  8
C7
  10
367.000000
  20
434.000000
  0
VERTEX
  8
C7
  10
367.000000
  20
433.000000
  0
VERTEX
  8
C7
  10
372.000000
  20
433.000000
  0
VERTEX
  8
C7
  10
367.000000
  20
434.000000
  0
SEQEND
  8
C7
  0
POLYLINE
  8
C7
  66
1
  10
375.000000
  20
434.000000
  0
VERTEX
  8
C7
  10
375.000000
  20
434.000000
  0
VERTEX
  8
C7
  10
375.000000
  20
433.000000
  0
VERTEX
  8
C7
  10
381.000000
  20
433.000000
  0
VERTEX
  8
C7
  10
375.000000
  20
434.000000
  0
SEQEND
  8
C7
  0
POLYLINE
  8
C7
  66
1
  10
384.000000
  20
434.000000
  0
VERTEX
  8
C7
  10
384.000000
  20
434.000000
  0
VERTEX
  8
C7
  10
384.000000
  20
433.000000
  0
VERTEX
  8
C7
  10
389.000000
  20
433.000000
  0
VERTEX
  8
C7
  10
384.000000
  20
434.000000
  0
SEQEND
  8
C7
  0
POLYLINE
  8
C7
  66
1
  10
393.000000
  20
434.000000
  0
VERTEX
  8
C7
  10
393.000000
  20
434.000000
  0
VERTEX
  8
C7
  10
393.000000
  20
433.000000
  0
VERTEX
  8
C7
  10
398.000000
  20
433.000000
  0
VERTEX
  8
C7
  10
393.000000
  20
434.000000
  0
SEQEND
  8
C7
  0
POLYLINE
  8
C7
  66
1
  10
401.000000
  20
434.000000
  0
VERTEX
  8
C7
  10
401.000000
  20
434.000000
  0
VERTEX
  8
C7
  10
401.000000
  20
433.000000
  0
VERTEX
  8
C7
  10
405.000000
  20
433.000000
  0
VERTEX
  8
C7
  10
405.000000
  20
429.000000
  0
VERTEX
  8
C7
  10
406.000000
  20
429.000000
  0
VERTEX
  8
C7
  10
406.000000
  20
434.000000
  0
VERTEX
  8
C7
  10
401.000000
  20
434.000000
  0
SEQEND
  8
C7
  0
POLYLINE
  8
C7
  66
1
  10
359.000000
  20
426.000000
  0
VERTEX
  8
C7
  10
359.000000
  20
426.000000
  0
VERTEX
  8
C7
  10
356.000000
  20
422.000000
  0
VERTEX
  8
C7
  10
356.000000
  20
421.000000
  0
VERTEX
  8
C7
  10
360.000000
  20
421.000000
  0
VERTEX
  8
C7
  10
359.000000
  20
426.000000
  0
SEQEND
  8
C7
  0
POLYLINE
  8
C7
  66
1
  10
405.000000
  20
426.000000
  0
VERTEX
  8
C7
  10
405.000000
  20
426.000000
  0
VERTEX
  8
C7
  10
405.026100
  20
424.814800
  0
VERTEX
  8
C7
  10
405.088600
  20
423.814100
  0
VERTEX
  8
C7
  10
405.246100
  20
422.981400
  0
VERTEX
  8
C7
  10
405.557300
  20
422.300100
  0
VERTEX
  8
C7
  10
406.080900
  20
421.753800
  0
VERTEX
  8
C7
  10
406.875600
  20
421.325900
  0
VERTEX
  8
C7
  10
408.000000
  20
421.000000
  0
VERTEX
  8
C7
  10
408.000000
  20
422.000000
  0
VERTEX
  8
C7
  10
405.000000
  20
426.000000
  0
SEQEND
  8
C7
  0
POLYLINE
  8
C7
  66
1
  10
237.000000
  20
419.000000
  0
VERTEX
  8
C7
  10
237.000000
  20
419.000000
  0
VERTEX
  8
C7
  10
238.000000
  20
419.000000
  0
VERTEX
  8
C7
  10
240.000000
  20
421.000000
  0
VERTEX
  8
C7
  10
238.911700
  20
421.437200
  0
VERTEX
  8
C7
  10
238.155900
  20
421.427000
  0
VERTEX
  8
C7
  10
237.644100
  20
420.998200
  0
VERTEX
  8
C7
  10
237.288200
  20
420.179600
  0
VERTEX
  8
C7
  10
237.000000
  20
419.000000
  0
SEQEND
  8
C7
  0
POLYLINE
  8
C7
  66
1
  10
244.000000
  20
422.000000
  0
VERTEX
  8
C7
  10
244.000000
  20
422.000000
  0
VERTEX
  8
C7
  10
244.000000
  20
421.000000
  0
VERTEX
  8
C7
  10
249.000000
  20
421.000000
  0
VERTEX
  8
C7
  10
244.000000
  20
422.000000
  0
SEQEND
  8
C7
  0
POLYLINE
  8
C7
  66
1
  10
252.000000
  20
422.000000
  0
VERTEX
  8
C7
  10
252.000000
  20
422.000000
  0
VERTEX
  8
C7
  10
252.000000
  20
421.000000
  0
VERTEX
  8
C7
  10
258.000000
  20
421.000000
  0
VERTEX
  8
C7
  10
252.000000
  20
422.000000
  0
SEQEND
  8
C7
  0
POLYLINE
  8
C7
  66
1
  10
261.000000
  20
422.000000
  0
VERTEX
  8
C7
  10
261.000000
  20
422.000000
  0
VERTEX
  8
C7
  10
261.000000
  20
421.000000
  0
VERTEX
  8
C7
  10
266.000000
  20
421.000000
  0
VERTEX
  8
C7
  10
261.000000
  20
422.000000
  0
SEQEND
  8
C7
  0
POLYLINE
  8
C7
  66
1
  10
270.000000
  20
422.000000
  0
VERTEX
  8
C7
  10
270.000000
  20
422.000000
  0
VERTEX
  8
C7
  10
270.000000
  20
421.000000
  0
VERTEX
  8
C7
  10
274.000000
  20
421.000000
  0
VERTEX
  8
C7
  10
270.000000
  20
422.000000
  0
SEQEND
  8
C7
  0
POLYLINE
  8
C7
  66
1
  10
278.000000
  20
422.000000
  0
VERTEX
  8
C7
  10
278.000000
  20
422.000000
  0
VERTEX
  8
C7
  10
278.000000
  20
421.000000
  0
VERTEX
  8
C7
  10
284.000000
  20
421.000000
  0
VERTEX
  8
C7
  10
278.000000
  20
422.000000
  0
SEQEND
  8
C7
  0
POLYLINE
  8
C7
  66
1
  10
287.000000
  20
422.000000
  0
VERTEX
  8
C7
  10
287.000000
  20
422.000000
  0
VERTEX
  8
C7
  10
287.000000
  20
421.000000
  0
VERTEX
  8
C7
  10
292.000000
  20
421.000000
  0
VERTEX
  8
C7
  10
287.000000
  20
422.000000
  0
SEQEND
  8
C7
  0
POLYLINE
  8
C7
  66
1
  10
296.000000
  20
422.000000
  0
VERTEX
  8
C7
  10
296.000000
  20
422.000000
  0
VERTEX
  8
C7
  10
296.000000
  20
421.000000
  0
VERTEX
  8
C7
  10
301.000000
  20
421.000000
  0
VERTEX
  8
C7
  10
296.000000
  20
422.000000
  0
SEQEND
  8
C7
  0
POLYLINE
  8
C7
  66
1
  10
304.000000
  20
422.000000
  0
VERTEX
  8
C7
  10
304.000000
  20
422.000000
  0
VERTEX
  8
C7
  10
304.000000
  20
421.000000
  0
VERTEX
  8
C7
  10
310.000000
  20
421.000000
  0
VERTEX
  8
C7
  10
304.000000
  20
422.000000
  0
SEQEND
  8
C7
  0
POLYLINE
  8
C7
  66
1
  10
313.000000
  20
422.000000
  0
VERTEX
  8
C7
  10
313.000000
  20
422.000000
  0
VERTEX
  8
C7
  10
313.000000
  20
421.000000
  0
VERTEX
  8
C7
  10
318.000000
  20
421.000000
  0
VERTEX
  8
C7
  10
313.000000
  20
422.000000
  0
SEQEND
  8
C7
  0
POLYLINE
  8
C7
  66
1
  10
322.000000
  20
422.000000
  0
VERTEX
  8
C7
  10
322.000000
  20
422.000000
  0
VERTEX
  8
C7
  10
322.000000
  20
421.000000
  0
VERTEX
  8
C7
  10
327.000000
  20
421.000000
  0
VERTEX
  8
C7
  10
322.000000
  20
422.000000
  0
SEQEND
  8
C7
  0
POLYLINE
  8
C7
  66
1
  10
330.000000
  20
422.000000
  0
VERTEX
  8
C7
  10
330.000000
  20
422.000000
  0
VERTEX
  8
C7
  10
330.000000
  20
421.000000
  0
VERTEX
  8
C7
  10
336.000000
  20
421.000000
  0
VERTEX
  8
C7
  10
330.000000
  20
422.000000
  0
SEQEND
  8
C7
  0
POLYLINE
  8
C7
  66
1
  10
339.000000
  20
422.000000
  0
VERTEX
  8
C7
  10
339.000000
  20
422.000000
  0
VERTEX
  8
C7
  10
339.000000
  20
421.000000
  0
VERTEX
  8
C7
  10
344.000000
  20
421.000000
  0
VERTEX
  8
C7
  10
339.000000
  20
422.000000
  0
SEQEND
  8
C7
  0
POLYLINE
  8
C7
  66
1
  10
348.000000
  20
422.000000
  0
VERTEX
  8
C7
  10
348.000000
  20
422.000000
  0
VERTEX
  8
C7
  10
348.000000
  20
421.000000
  0
VERTEX
  8
C7
  10
353.000000
  20
421.000000
  0
VERTEX
  8
C7
  10
348.000000
  20
422.000000
  0
SEQEND
  8
C7
  0
POLYLINE
  8
C7
  66
1
  10
411.000000
  20
422.000000
  0
VERTEX
  8
C7
  10
411.000000
  20
422.000000
  0
VERTEX
  8
C7
  10
411.000000
  20
421.000000
  0
VERTEX
  8
C7
  10
417.000000
  20
421.000000
  0
VERTEX
  8
C7
  10
411.000000
  20
422.000000
  0
SEQEND
  8
C7
  0
POLYLINE
  8
C7
  66
1
  10
420.000000
  20
422.000000
  0
VERTEX
  8
C7
  10
420.000000
  20
422.000000
  0
VERTEX
  8
C7
  10
420.000000
  20
421.000000
  0
VERTEX
  8
C7
  10
425.000000
  20
421.000000
  0
VERTEX
  8
C7
  10
420.000000
  20
422.000000
  0
SEQEND
  8
C7
  0
POLYLINE
  8
C7
  66
1
  10
429.000000
  20
422.000000
  0
VERTEX
  8
C7
  10
429.000000
  20
422.000000
  0
VERTEX
  8
C7
  10
429.000000
  20
421.000000
  0
VERTEX
  8
C7
  10
434.000000
  20
421.000000
  0
VERTEX
  8
C7
  10
429.000000
  20
422.000000
  0
SEQEND
  8
C7
  0
POLYLINE
  8
C7
  66
1
  10
437.000000
  20
422.000000
  0
VERTEX
  8
C7
  10
437.000000
  20
422.000000
  0
VERTEX
  8
C7
  10
437.000000
  20
421.000000
  0
VERTEX
  8
C7
  10
443.000000
  20
421.000000
  0
VERTEX
  8
C7
  10
437.000000
  20
422.000000
  0
SEQEND
  8
C7
  0
POLYLINE
  8
C7
  66
1
  10
446.000000
  20
422.000000
  0
VERTEX
  8
C7
  10
446.000000
  20
422.000000
  0
VERTEX
  8
C7
  10
446.000000
  20
421.000000
  0
VERTEX
  8
C7
  10
451.000000
  20
421.000000
  0
VERTEX
  8
C7
  10
446.000000
  20
422.000000
  0
SEQEND
  8
C7
  0
POLYLINE
  8
C7
  66
1
  10
455.000000
  20
422.000000
  0
VERTEX
  8
C7
  10
455.000000
  20
422.000000
  0
VERTEX
  8
C7
  10
455.000000
  20
421.000000
  0
VERTEX
  8
C7
  10
460.000000
  20
421.000000
  0
VERTEX
  8
C7
  10
455.000000
  20
422.000000
  0
SEQEND
  8
C7
  0
POLYLINE
  8
C7
  66
1
  10
463.000000
  20
422.000000
  0
VERTEX
  8
C7
  10
463.000000
  20
422.000000
  0
VERTEX
  8
C7
  10
463.000000
  20
421.000000
  0
VERTEX
  8
C7
  10
469.000000
  20
421.000000
  0
VERTEX
  8
C7
  10
463.000000
  20
422.000000
  0
SEQEND
  8
C7
  0
POLYLINE
  8
C7
  66
1
  10
472.000000
  20
422.000000
  0
VERTEX
  8
C7
  10
472.000000
  20
422.000000
  0
VERTEX
  8
C7
  10
472.000000
  20
421.000000
  0
VERTEX
  8
C7
  10
477.000000
  20
421.000000
  0
VERTEX
  8
C7
  10
472.000000
  20
422.000000
  0
SEQEND
  8
C7
  0
POLYLINE
  8
C7
  66
1
  10
481.000000
  20
422.000000
  0
VERTEX
  8
C7
  10
481.000000
  20
422.000000
  0
VERTEX
  8
C7
  10
481.000000
  20
421.000000
  0
VERTEX
  8
C7
  10
486.000000
  20
421.000000
  0
VERTEX
  8
C7
  10
481.000000
  20
422.000000
  0
SEQEND
  8
C7
  0
POLYLINE
  8
C7
  66
1
  10
489.000000
  20
422.000000
  0
VERTEX
  8
C7
  10
489.000000
  20
422.000000
  0
VERTEX
  8
C7
  10
489.000000
  20
421.000000
  0
VERTEX
  8
C7
  10
495.000000
  20
421.000000
  0
VERTEX
  8
C7
  10
489.000000
  20
422.000000
  0
SEQEND
  8
C7
  0
POLYLINE
  8
C7
  66
1
  10
498.000000
  20
422.000000
  0
VERTEX
  8
C7
  10
498.000000
  20
422.000000
  0
VERTEX
  8
C7
  10
498.000000
  20
421.000000
  0
VERTEX
  8
C7
  10
503.000000
  20
421.000000
  0
VERTEX
  8
C7
  10
498.000000
  20
422.000000
  0
SEQEND
  8
C7
  0
POLYLINE
  8
C7
  66
1
  10
507.000000
  20
422.000000
  0
VERTEX
  8
C7
  10
507.000000
  20
422.000000
  0
VERTEX
  8
C7
  10
507.000000
  20
421.000000
  0
VERTEX
  8
C7
  10
512.000000
  20
421.000000
  0
VERTEX
  8
C7
  10
507.000000
  20
422.000000
  0
SEQEND
  8
C7
  0
POLYLINE
  8
C7
  66
1
  10
515.000000
  20
422.000000
  0
VERTEX
  8
C7
  10
515.000000
  20
422.000000
  0
VERTEX
  8
C7
  10
515.000000
  20
421.000000
  0
VERTEX
  8
C7
  10
521.000000
  20
421.000000
  0
VERTEX
  8
C7
  10
515.000000
  20
422.000000
  0
SEQEND
  8
C7
  0
POLYLINE
  8
C7
  66
1
  10
524.000000
  20
422.000000
  0
VERTEX
  8
C7
  10
524.000000
  20
422.000000
  0
VERTEX
  8
C7
  10
524.000000
  20
421.000000
  0
VERTEX
  8
C7
  10
526.000000
  20
419.000000
  0
VERTEX
  8
C7
  10
527.000000
  20
419.000000
  0
VERTEX
  8
C7
  10
524.000000
  20
422.000000
  0
SEQEND
  8
C7
  0
POLYLINE
  8
C7
  66
1
  10
359.000000
  20
419.000000
  0
VERTEX
  8
C7
  10
359.000000
  20
419.000000
  0
VERTEX
  8
C7
  10
359.000000
  20
398.000000
  0
VERTEX
  8
C7
  10
360.000000
  20
398.000000
  0
VERTEX
  8
C7
  10
360.000000
  20
401.000000
  0
VERTEX
  8
C7
  10
374.000000
  20
401.000000
  0
VERTEX
  8
C7
  10
374.000000
  20
402.000000
  0
VERTEX
  8
C7
  10
360.000000
  20
403.000000
  0
VERTEX
  8
C7
  10
359.000000
  20
419.000000
  0
SEQEND
  8
C7
  0
POLYLINE
  8
C7
  66
1
  10
405.000000
  20
419.000000
  0
VERTEX
  8
C7
  10
405.000000
  20
419.000000
  0
VERTEX
  8
C7
  10
405.000000
  20
402.000000
  0
VERTEX
  8
C7
  10
396.000000
  20
404.000000
  0
VERTEX
  8
C7
  10
392.000000
  20
402.000000
  0
VERTEX
  8
C7
  10
392.000000
  20
401.000000
  0
VERTEX
  8
C7
  10
405.000000
  20
398.000000
  0
VERTEX
  8
C7
  10
406.000000
  20
398.000000
  0
VERTEX
  8
C7
  10
405.000000
  20
419.000000
  0
SEQEND
  8
C7
  0
POLYLINE
  8
C7
  66
1
  10
237.000000
  20
416.000000
  0
VERTEX
  8
C7
  10
237.000000
  20
416.000000
  0
VERTEX
  8
C7
  10
237.000000
  20
410.000000
  0
VERTEX
  8
C7
  10
238.000000
  20
410.000000
  0
VERTEX
  8
C7
  10
237.000000
  20
416.000000
  0
SEQEND
  8
C7
  0
POLYLINE
  8
C7
  66
1
  10
526.000000
  20
416.000000
  0
VERTEX
  8
C7
  10
526.000000
  20
416.000000
  0
VERTEX
  8
C7
  10
526.000000
  20
410.000000
  0
VERTEX
  8
C7
  10
527.000000
  20
410.000000
  0
VERTEX
  8
C7
  10
526.000000
  20
416.000000
  0
SEQEND
  8
C7
  0
POLYLINE
  8
C7
  66
1
  10
237.000000
  20
407.000000
  0
VERTEX
  8
C7
  10
237.000000
  20
407.000000
  0
VERTEX
  8
C7
  10
237.000000
  20
402.000000
  0
VERTEX
  8
C7
  10
238.000000
  20
402.000000
  0
VERTEX
  8
C7
  10
237.000000
  20
407.000000
  0
SEQEND
  8
C7
  0
POLYLINE
  8
C7
  66
1
  10
383.000000
  20
399.000000
  0
VERTEX
  8
C7
  10
383.000000
  20
399.000000
  0
VERTEX
  8
C7
  10
383.692300
  20
398.552500
  0
VERTEX
  8
C7
  10
384.340700
  20
398.190800
  0
VERTEX
  8
C7
  10
384.946000
  20
397.910500
  0
VERTEX
  8
C7
  10
385.509100
  20
397.707300
  0
VERTEX
  8
C7
  10
386.030900
  20
397.576900
  0
VERTEX
  8
C7
  10
386.512300
  20
397.515100
  0
VERTEX
  8
C7
  10
386.954000
  20
397.517400
  0
VERTEX
  8
C7
  10
387.357200
  20
397.579700
  0
VERTEX
  8
C7
  10
387.722500
  20
397.697500
  0
VERTEX
  8
C7
  10
388.051000
  20
397.866500
  0
VERTEX
  8
C7
  10
388.343500
  20
398.082500
  0
VERTEX
  8
C7
  10
388.600800
  20
398.341200
  0
VERTEX
  8
C7
  10
388.824000
  20
398.638200
  0
VERTEX
  8
C7
  10
389.013700
  20
398.969200
  0
VERTEX
  8
C7
  10
389.171100
  20
399.330000
  0
VERTEX
  8
C7
  10
389.296800
  20
399.716100
  0
VERTEX
  8
C7
  10
389.391900
  20
400.123400
  0
VERTEX
  8
C7
  10
389.457200
  20
400.547400
  0
VERTEX
  8
C7
  10
389.493600
  20
400.984000
  0
VERTEX
  8
C7
  10
389.501900
  20
401.428700
  0
VERTEX
  8
C7
  10
389.483200
  20
401.877200
  0
VERTEX
  8
C7
  10
389.438100
  20
402.325300
  0
VERTEX
  8
C7
  10
389.367800
  20
402.768700
  0
VERTEX
  8
C7
  10
389.272900
  20
403.203000
  0
VERTEX
  8
C7
  10
389.154500
  20
403.623900
  0
VERTEX
  8
C7
  10
389.013300
  20
404.027100
  0
VERTEX
  8
C7
  10
388.850400
  20
404.408300
  0
VERTEX
  8
C7
  10
388.666500
  20
404.763200
  0
VERTEX
  8
C7
  10
388.462500
  20
405.087500
  0
VERTEX
  8
C7
  10
388.239500
  20
405.376900
  0
VERTEX
  8
C7
  10
387.998100
  20
405.627100
  0
VERTEX
  8
C7
  10
387.739400
  20
405.833700
  0
VERTEX
  8
C7
  10
387.464200
  20
405.992400
  0
VERTEX
  8
C7
  10
387.173400
  20
406.099000
  0
VERTEX
  8
C7
  10
386.867800
  20
406.149100
  0
VERTEX
  8
C7
  10
386.548400
  20
406.138500
  0
VERTEX
  8
C7
  10
386.216100
  20
406.062700
  0
VERTEX
  8
C7
  10
385.871700
  20
405.917500
  0
VERTEX
  8
C7
  10
385.516200
  20
405.698700
  0
VERTEX
  8
C7
  10
385.150300
  20
405.401800
  0
VERTEX
  8
C7
  10
384.775100
  20
405.022600
  0
VERTEX
  8
C7
  10
384.391300
  20
404.556700
  0
VERTEX
  8
C7
  10
384.000000
  20
404.000000
  0
VERTEX
  8
C7
  10
383.387500
  20
404.536700
  0
VERTEX
  8
C7
  10
382.801300
  20
404.982800
  0
VERTEX
  8
C7
  10
382.241600
  20
405.342800
  0
VERTEX
  8
C7
  10
381.708500
  20
405.620900
  0
VERTEX
  8
C7
  10
381.202100
  20
405.821600
  0
VERTEX
  8
C7
  10
380.722800
  20
405.949300
  0
VERTEX
  8
C7
  10
380.270600
  20
406.008400
  0
VERTEX
  8
C7
  10
379.845700
  20
406.003200
  0
VERTEX
  8
C7
  10
379.448400
  20
405.938200
  0
VERTEX
  8
C7
  10
379.078900
  20
405.817800
  0
VERTEX
  8
C7
  10
378.737200
  20
405.646300
  0
VERTEX
  8
C7
  10
378.423700
  20
405.428200
  0
VERTEX
  8
C7
  10
378.138400
  20
405.167900
  0
VERTEX
  8
C7
  10
377.881600
  20
404.869700
  0
VERTEX
  8
C7
  10
377.653400
  20
404.538000
  0
VERTEX
  8
C7
  10
377.454100
  20
404.177300
  0
VERTEX
  8
C7
  10
377.283800
  20
403.791900
  0
VERTEX
  8
C7
  10
377.142700
  20
403.386300
  0
VERTEX
  8
C7
  10
377.031000
  20
402.964700
  0
VERTEX
  8
C7
  10
376.948900
  20
402.531700
  0
VERTEX
  8
C7
  10
376.896500
  20
402.091700
  0
VERTEX
  8
C7
  10
376.874100
  20
401.648900
  0
VERTEX
  8
C7
  10
376.881800
  20
401.207900
  0
VERTEX
  8
C7
  10
376.919800
  20
400.772900
  0
VERTEX
  8
C7
  10
376.988400
  20
400.348500
  0
VERTEX
  8
C7
  10
377.087600
  20
399.938900
  0
VERTEX
  8
C7
  10
377.217700
  20
399.548700
  0
VERTEX
  8
C7
  10
377.378900
  20
399.182200
  0
VERTEX
  8
C7
  10
377.571300
  20
398.843700
  0
VERTEX
  8
C7
  10
377.795100
  20
398.537700
  0
VERTEX
  8
C7
  10
378.050500
  20
398.268600
  0
VERTEX
  8
C7
  10
378.337800
  20
398.040800
  0
VERTEX
  8
C7
  10
378.657000
  20
397.858700
  0
VERTEX
  8
C7
  10
379.008400
  20
397.726600
  0
VERTEX
  8
C7
  10
379.392200
  20
397.649000
  0
VERTEX
  8
C7
  10
379.808500
  20
397.630200
  0
VERTEX
  8
C7
  10
380.257500
  20
397.674700
  0
VERTEX
  8
C7
  10
380.739400
  20
397.786900
  0
VERTEX
  8
C7
  10
381.254400
  20
397.971100
  0
VERTEX
  8
C7
  10
381.802700
  20
398.231700
  0
VERTEX
  8
C7
  10
382.384500
  20
398.573200
  0
VERTEX
  8
C7
  10
383.000000
  20
399.000000
  0
SEQEND
  8
C7
  0
POLYLINE
  8
C7
  66
1
  10
526.000000
  20
407.000000
  0
VERTEX
  8
C7
  10
526.000000
  20
407.000000
  0
VERTEX
  8
C7
  10
526.000000
  20
402.000000
  0
VERTEX
  8
C7
  10
527.000000
  20
402.000000
  0
VERTEX
  8
C7
  10
526.000000
  20
407.000000
  0
SEQEND
  8
C7
  0
POLYLINE
  8
C7
  66
1
  10
379.333344
  20
404.333344
  0
VERTEX
  8
C7
  10
379.333344
  20
404.333344
  0
VERTEX
  8
C7
  10
379.666656
  20
403.666656
  0
VERTEX
  8
C7
  10
379.333344
  20
404.333344
  0
SEQEND
  8
C7
  0
POLYLINE
  8
C7
  66
1
  10
386.000000
  20
405.000000
  0
VERTEX
  8
C7
  10
386.000000
  20
405.000000
  0
VERTEX
  8
C7
  10
388.000000
  20
399.000000
  0
VERTEX
  8
C7
  10
386.000000
  20
405.000000
  0
SEQEND
  8
C7
  0
POLYLINE
  8
C7
  66
1
  10
382.000000
  20
403.000000
  0
VERTEX
  8
C7
  10
382.000000
  20
403.000000
  0
VERTEX
  8
C7
  10
383.000000
  20
402.000000
  0
VERTEX
  8
C7
  10
382.000000
  20
403.000000
  0
SEQEND
  8
C7
  0
POLYLINE
  8
C7
  66
1
  10
379.000000
  20
401.000000
  0
VERTEX
  8
C7
  10
379.000000
  20
401.000000
  0
VERTEX
  8
C7
  10
379.000000
  20
399.000000
  0
VERTEX
  8
C7
  10
381.000000
  20
399.000000
  0
VERTEX
  8
C7
  10
381.000000
  20
401.000000
  0
VERTEX
  8
C7
  10
379.000000
  20
401.000000
  0
SEQEND
  8
C7
  0
POLYLINE
  8
C7
  66
1
  10
237.000000
  20
398.000000
  0
VERTEX
  8
C7
  10
237.000000
  20
398.000000
  0
VERTEX
  8
C7
  10
237.000000
  20
393.000000
  0
VERTEX
  8
C7
  10
238.000000
  20
393.000000
  0
VERTEX
  8
C7
  10
237.000000
  20
398.000000
  0
SEQEND
  8
C7
  0
POLYLINE
  8
C7
  66
1
  10
526.000000
  20
398.000000
  0
VERTEX
  8
C7
  10
526.000000
  20
398.000000
  0
VERTEX
  8
C7
  10
526.000000
  20
393.000000
  0
VERTEX
  8
C7
  10
527.000000
  20
393.000000
  0
VERTEX
  8
C7
  10
526.000000
  20
398.000000
  0
SEQEND
  8
C7
  0
POLYLINE
  8
C7
  66
1
  10
237.000000
  20
390.000000
  0
VERTEX
  8
C7
  10
237.000000
  20
390.000000
  0
VERTEX
  8
C7
  10
237.000000
  20
384.000000
  0
VERTEX
  8
C7
  10
238.000000
  20
384.000000
  0
VERTEX
  8
C7
  10
237.000000
  20
390.000000
  0
SEQEND
  8
C7
  0
POLYLINE
  8
C7
  66
1
  10
526.000000
  20
390.000000
  0
VERTEX
  8
C7
  10
526.000000
  20
390.000000
  0
VERTEX
  8
C7
  10
526.000000
  20
384.000000
  0
VERTEX
  8
C7
  10
527.000000
  20
384.000000
  0
VERTEX
  8
C7
  10
526.000000
  20
390.000000
  0
SEQEND
  8
C7
  0
POLYLINE
  8
C7
  66
1
  10
644.603394
  20
388.967590
  0
VERTEX
  8
C7
  10
644.603394
  20
388.967590
  0
VERTEX
  8
C7
  10
644.046000
  20
388.450800
  0
VERTEX
  8
C7
  10
643.618900
  20
387.868300
  0
VERTEX
  8
C7
  10
643.315200
  20
387.233500
  0
VERTEX
  8
C7
  10
643.128100
  20
386.560000
  0
VERTEX
  8
C7
  10
643.050800
  20
385.861400
  0
VERTEX
  8
C7
  10
643.076400
  20
385.151200
  0
VERTEX
  8
C7
  10
643.198200
  20
384.443000
  0
VERTEX
  8
C7
  10
643.409300
  20
383.750500
  0
VERTEX
  8
C7
  10
643.703000
  20
383.087100
  0
VERTEX
  8
C7
  10
644.072400
  20
382.466600
  0
VERTEX
  8
C7
  10
644.510800
  20
381.902400
  0
VERTEX
  8
C7
  10
645.011300
  20
381.408100
  0
VERTEX
  8
C7
  10
645.567100
  20
380.997300
  0
VERTEX
  8
C7
  10
646.171400
  20
380.683600
  0
VERTEX
  8
C7
  10
646.817500
  20
380.480600
  0
VERTEX
  8
C7
  10
647.498400
  20
380.401900
  0
VERTEX
  8
C7
  10
648.207500
  20
380.461000
  0
VERTEX
  8
C7
  10
648.937900
  20
380.671500
  0
VERTEX
  8
C7
  10
649.682800
  20
381.047000
  0
VERTEX
  8
C7
  10
650.308900
  20
381.503900
  0
VERTEX
  8
C7
  10
650.812200
  20
382.017300
  0
VERTEX
  8
C7
  10
651.199000
  20
382.577500
  0
VERTEX
  8
C7
  10
651.475300
  20
383.174400
  0
VERTEX
  8
C7
  10
651.647400
  20
383.798400
  0
VERTEX
  8
C7
  10
651.721300
  20
384.439400
  0
VERTEX
  8
C7
  10
651.703400
  20
385.087600
  0
VERTEX
  8
C7
  10
651.599700
  20
385.733100
  0
VERTEX
  8
C7
  10
651.416500
  20
386.366200
  0
VERTEX
  8
C7
  10
651.159900
  20
386.976900
  0
VERTEX
  8
C7
  10
650.836100
  20
387.555300
  0
VERTEX
  8
C7
  10
650.451200
  20
388.091600
  0
VERTEX
  8
C7
  10
650.011400
  20
388.575900
  0
VERTEX
  8
C7
  10
649.523000
  20
388.998400
  0
VERTEX
  8
C7
  10
648.992000
  20
389.349200
  0
VERTEX
  8
C7
  10
648.424700
  20
389.618300
  0
VERTEX
  8
C7
  10
647.827300
  20
389.796000
  0
VERTEX
  8
C7
  10
647.205800
  20
389.872500
  0
VERTEX
  8
C7
  10
646.566500
  20
389.837700
  0
VERTEX
  8
C7
  10
645.915500
  20
389.681800
  0
VERTEX
  8
C7
  10
645.259100
  20
389.395100
  0
VERTEX
  8
C7
  10
644.603400
  20
388.967600
  0
SEQEND
  8
C7
  0
POLYLINE
  8
C7
  66
1
  10
660.000000
  20
390.000000
  0
VERTEX
  8
C7
  10
660.000000
  20
390.000000
  0
VERTEX
  8
C7
  10
657.000000
  20
388.000000
  0
VERTEX
  8
C7
  10
657.000000
  20
382.000000
  0
VERTEX
  8
C7
  10
655.000000
  20
382.000000
  0
VERTEX
  8
C7
  10
655.000000
  20
388.000000
  0
VERTEX
  8
C7
  10
653.000000
  20
388.000000
  0
VERTEX
  8
C7
  10
653.024000
  20
386.885700
  0
VERTEX
  8
C7
  10
653.076800
  20
385.857700
  0
VERTEX
  8
C7
  10
653.170400
  20
384.915100
  0
VERTEX
  8
C7
  10
653.316900
  20
384.057200
  0
VERTEX
  8
C7
  10
653.528200
  20
383.283000
  0
VERTEX
  8
C7
  10
653.816500
  20
382.591600
  0
VERTEX
  8
C7
  10
654.193700
  20
381.982200
  0
VERTEX
  8
C7
  10
654.671900
  20
381.454000
  0
VERTEX
  8
C7
  10
655.263200
  20
381.006100
  0
VERTEX
  8
C7
  10
655.979700
  20
380.637600
  0
VERTEX
  8
C7
  10
656.833200
  20
380.347600
  0
VERTEX
  8
C7
  10
657.836000
  20
380.135400
  0
VERTEX
  8
C7
  10
659.000000
  20
380.000000
  0
VERTEX
  8
C7
  10
659.000000
  20
386.000000
  0
VERTEX
  8
C7
  10
660.000000
  20
386.000000
  0
VERTEX
  8
C7
  10
660.000000
  20
380.000000
  0
VERTEX
  8
C7
  10
672.000000
  20
380.000000
  0
VERTEX
  8
C7
  10
675.000000
  20
388.000000
  0
VERTEX
  8
C7
  10
663.000000
  20
386.000000
  0
VERTEX
  8
C7
  10
662.000000
  20
390.000000
  0
VERTEX
  8
C7
  10
660.000000
  20
390.000000
  0
SEQEND
  8
C7
  0
POLYLINE
  8
C7
  66
1
  10
678.000000
  20
390.000000
  0
VERTEX
  8
C7
  10
678.000000
  20
390.000000
  0
VERTEX
  8
C7
  10
678.000000
  20
380.000000
  0
VERTEX
  8
C7
  10
687.000000
  20
382.000000
  0
VERTEX
  8
C7
  10
687.724900
  20
381.348700
  0
VERTEX
  8
C7
  10
688.461400
  20
380.831600
  0
VERTEX
  8
C7
  10
689.194800
  20
380.461000
  0
VERTEX
  8
C7
  10
689.910300
  20
380.249200
  0
VERTEX
  8
C7
  10
690.593000
  20
380.208400
  0
VERTEX
  8
C7
  10
691.228300
  20
380.350900
  0
VERTEX
  8
C7
  10
691.801400
  20
380.689000
  0
VERTEX
  8
C7
  10
692.297600
  20
381.235100
  0
VERTEX
  8
C7
  10
692.702000
  20
382.001300
  0
VERTEX
  8
C7
  10
693.000000
  20
383.000000
  0
VERTEX
  8
C7
  10
694.000000
  20
383.000000
  0
VERTEX
  8
C7
  10
695.000000
  20
377.000000
  0
VERTEX
  8
C7
  10
700.000000
  20
378.000000
  0
VERTEX
  8
C7
  10
700.000000
  20
388.000000
  0
VERTEX
  8
C7
  10
694.000000
  20
385.000000
  0
VERTEX
  8
C7
  10
693.000000
  20
385.000000
  0
VERTEX
  8
C7
  10
693.000000
  20
390.000000
  0
VERTEX
  8
C7
  10
681.000000
  20
386.000000
  0
VERTEX
  8
C7
  10
681.000000
  20
388.000000
  0
VERTEX
  8
C7
  10
686.000000
  20
388.000000
  0
VERTEX
  8
C7
  10
686.000000
  20
390.000000
  0
VERTEX
  8
C7
  10
678.000000
  20
390.000000
  0
SEQEND
  8
C7
  0
POLYLINE
  8
C7
  66
1
  10
718.000000
  20
387.000000
  0
VERTEX
  8
C7
  10
718.000000
  20
387.000000
  0
VERTEX
  8
C7
  10
717.216800
  20
387.154900
  0
VERTEX
  8
C7
  10
716.498100
  20
387.258100
  0
VERTEX
  8
C7
  10
715.842100
  20
387.312400
  0
VERTEX
  8
C7
  10
715.246500
  20
387.320800
  0
VERTEX
  8
C7
  10
714.709400
  20
387.286200
  0
VERTEX
  8
C7
  10
714.228700
  20
387.211600
  0
VERTEX
  8
C7
  10
713.802500
  20
387.099800
  0
VERTEX
  8
C7
  10
713.428600
  20
386.954000
  0
VERTEX
  8
C7
  10
713.105000
  20
386.776900
  0
VERTEX
  8
C7
  10
712.829800
  20
386.571500
  0
VERTEX
  8
C7
  10
712.600800
  20
386.340900
  0
VERTEX
  8
C7
  10
712.416000
  20
386.087800
  0
VERTEX
  8
C7
  10
712.273400
  20
385.815300
  0
VERTEX
  8
C7
  10
712.171000
  20
385.526400
  0
VERTEX
  8
C7
  10
712.106700
  20
385.223800
  0
VERTEX
  8
C7
  10
712.078500
  20
384.910700
  0
VERTEX
  8
C7
  10
712.084300
  20
384.589900
  0
VERTEX
  8
C7
  10
712.122200
  20
384.264400
  0
VERTEX
  8
C7
  10
712.190000
  20
383.937100
  0
VERTEX
  8
C7
  10
712.285800
  20
383.611000
  0
VERTEX
  8
C7
  10
712.407500
  20
383.289000
  0
VERTEX
  8
C7
  10
712.553100
  20
382.974000
  0
VERTEX
  8
C7
  10
712.720500
  20
382.669100
  0
VERTEX
  8
C7
  10
712.907700
  20
382.377000
  0
VERTEX
  8
C7
  10
713.112700
  20
382.100900
  0
VERTEX
  8
C7
  10
713.333500
  20
381.843500
  0
VERTEX
  8
C7
  10
713.567900
  20
381.608000
  0
VERTEX
  8
C7
  10
713.814000
  20
381.397100
  0
VERTEX
  8
C7
  10
714.069700
  20
381.213900
  0
VERTEX
  8
C7
  10
714.333100
  20
381.061300
  0
VERTEX
  8
C7
  10
714.602000
  20
380.942300
  0
VERTEX
  8
C7
  10
714.874400
  20
380.859700
  0
VERTEX
  8
C7
  10
715.148300
  20
380.816500
  0
VERTEX
  8
C7
  10
715.421700
  20
380.815700
  0
VERTEX
  8
C7
  10
715.692400
  20
380.860300
  0
VERTEX
  8
C7
  10
715.958600
  20
380.953000
  0
VERTEX
  8
C7
  10
716.218100
  20
381.097000
  0
VERTEX
  8
C7
  10
716.469000
  20
381.295100
  0
VERTEX
  8
C7
  10
716.709100
  20
381.550300
  0
VERTEX
  8
C7
  10
716.936500
  20
381.865500
  0
VERTEX
  8
C7
  10
717.149000
  20
382.243700
  0
VERTEX
  8
C7
  10
717.344800
  20
382.687800
  0
VERTEX
  8
C7
  10
717.521700
  20
383.200700
  0
VERTEX
  8
C7
  10
717.677700
  20
383.785500
  0
VERTEX
  8
C7
  10
717.810700
  20
384.445000
  0
VERTEX
  8
C7
  10
717.918800
  20
385.182200
  0
VERTEX
  8
C7
  10
718.000000
  20
386.000000
  0
VERTEX
  8
C7
  10
719.000000
  20
386.000000
  0
VERTEX
  8
C7
  10
719.000000
  20
380.000000
  0
VERTEX
  8
C7
  10
721.000000
  20
380.000000
  0
VERTEX
  8
C7
  10
723.000000
  20
390.000000
  0
VERTEX
  8
C7
  10
718.000000
  20
387.000000
  0
SEQEND
  8
C7
  0
POLYLINE
  8
C7
  66
1
  10
726.000000
  20
390.000000
  0
VERTEX
  8
C7
  10
726.000000
  20
390.000000
  0
VERTEX
  8
C7
  10
728.000000
  20
385.000000
  0
VERTEX
  8
C7
  10
728.000000
  20
384.000000
  0
VERTEX
  8
C7
  10
725.000000
  20
383.000000
  0
VERTEX
  8
C7
  10
725.874000
  20
382.173000
  0
VERTEX
  8
C7
  10
726.723800
  20
381.508500
  0
VERTEX
  8
C7
  10
727.561300
  20
381.013700
  0
VERTEX
  8
C7
  10
728.398500
  20
380.695400
  0
VERTEX
  8
C7
  10
729.247400
  20
380.560800
  0
VERTEX
  8
C7
  10
730.120000
  20
380.617000
  0
VERTEX
  8
C7
  10
731.028300
  20
380.870800
  0
VERTEX
  8
C7
  10
731.984300
  20
381.329500
  0
VERTEX
  8
C7
  10
733.000000
  20
382.000000
  0
VERTEX
  8
C7
  10
736.000000
  20
380.000000
  0
VERTEX
  8
C7
  10
736.000000
  20
390.000000
  0
VERTEX
  8
C7
  10
734.000000
  20
390.000000
  0
VERTEX
  8
C7
  10
734.000000
  20
384.000000
  0
VERTEX
  8
C7
  10
733.000000
  20
384.000000
  0
VERTEX
  8
C7
  10
728.000000
  20
387.000000
  0
VERTEX
  8
C7
  10
728.000000
  20
388.000000
  0
VERTEX
  8
C7
  10
733.000000
  20
387.000000
  0
VERTEX
  8
C7
  10
732.701200
  20
387.986900
  0
VERTEX
  8
C7
  10
732.289000
  20
388.738800
  0
VERTEX
  8
C7
  10
731.772300
  20
389.286600
  0
VERTEX
  8
C7
  10
731.160400
  20
389.661200
  0
VERTEX
  8
C7
  10
730.462300
  20
389.893400
  0
VERTEX
  8
C7
  10
729.687300
  20
390.014100
  0
VERTEX
  8
C7
  10
728.844400
  20
390.054200
  0
VERTEX
  8
C7
  10
727.942700
  20
390.044700
  0
VERTEX
  8
C7
  10
726.991600
  20
390.016300
  0
VERTEX
  8
C7
  10
726.000000
  20
390.000000
  0
SEQEND
  8
C7
  0
POLYLINE
  8
C7
  66
1
  10
744.000000
  20
390.000000
  0
VERTEX
  8
C7
  10
744.000000
  20
390.000000
  0
VERTEX
  8
C7
  10
744.000000
  20
380.000000
  0
VERTEX
  8
C7
  10
747.000000
  20
382.000000
  0
VERTEX
  8
C7
  10
750.000000
  20
380.000000
  0
VERTEX
  8
C7
  10
750.000000
  20
388.000000
  0
VERTEX
  8
C7
  10
746.000000
  20
386.000000
  0
VERTEX
  8
C7
  10
746.000000
  20
390.000000
  0
VERTEX
  8
C7
  10
744.000000
  20
390.000000
  0
SEQEND
  8
C7
  0
POLYLINE
  8
C7
  66
1
  10
646.564087
  20
386.828705
  0
VERTEX
  8
C7
  10
646.564087
  20
386.828705
  0
VERTEX
  8
C7
  10
646.031600
  20
386.313800
  0
VERTEX
  8
C7
  10
645.744400
  20
385.678000
  0
VERTEX
  8
C7
  10
645.676700
  20
384.984500
  0
VERTEX
  8
C7
  10
645.802700
  20
384.297000
  0
VERTEX
  8
C7
  10
646.096500
  20
383.679000
  0
VERTEX
  8
C7
  10
646.532600
  20
383.193900
  0
VERTEX
  8
C7
  10
647.085000
  20
382.905300
  0
VERTEX
  8
C7
  10
647.728000
  20
382.876500
  0
VERTEX
  8
C7
  10
648.435900
  20
383.171300
  0
SEQEND
  8
C7
  0
POLYLINE
  8
C7
  66
1
  10
648.435900
  20
383.171200
  0
VERTEX
  8
C7
  10
648.435900
  20
383.171200
  0
VERTEX
  8
C7
  10
648.968200
  20
383.685900
  0
VERTEX
  8
C7
  10
649.255300
  20
384.321800
  0
VERTEX
  8
C7
  10
649.323100
  20
385.015200
  0
VERTEX
  8
C7
  10
649.197100
  20
385.702700
  0
VERTEX
  8
C7
  10
648.903200
  20
386.320800
  0
VERTEX
  8
C7
  10
648.467200
  20
386.805900
  0
VERTEX
  8
C7
  10
647.914900
  20
387.094600
  0
VERTEX
  8
C7
  10
647.271900
  20
387.123300
  0
VERTEX
  8
C7
  10
646.564100
  20
386.828700
  0
SEQEND
  8
C7
  0
POLYLINE
  8
C7
  66
1
  10
702.588745
  20
386.913574
  0
VERTEX
  8
C7
  10
702.588745
  20
386.913574
  0
VERTEX
  8
C7
  10
702.015900
  20
386.404800
  0
VERTEX
  8
C7
  10
701.611500
  20
385.810700
  0
VERTEX
  8
C7
  10
701.363600
  20
385.154600
  0
VERTEX
  8
C7
  10
701.260300
  20
384.460300
  0
VERTEX
  8
C7
  10
701.289600
  20
383.751300
  0
VERTEX
  8
C7
  10
701.439600
  20
383.051200
  0
VERTEX
  8
C7
  10
701.698200
  20
382.383700
  0
VERTEX
  8
C7
  10
702.053600
  20
381.772200
  0
VERTEX
  8
C7
  10
702.493800
  20
381.240600
  0
VERTEX
  8
C7
  10
703.006900
  20
380.812200
  0
VERTEX
  8
C7
  10
703.580800
  20
380.510800
  0
VERTEX
  8
C7
  10
704.203800
  20
380.360000
  0
VERTEX
  8
C7
  10
704.863700
  20
380.383400
  0
VERTEX
  8
C7
  10
705.548700
  20
380.604500
  0
VERTEX
  8
C7
  10
706.246900
  20
381.047000
  0
SEQEND
  8
C7
  0
POLYLINE
  8
C7
  66
1
  10
706.246800
  20
381.047000
  0
VERTEX
  8
C7
  10
706.246800
  20
381.047000
  0
VERTEX
  8
C7
  10
706.766100
  20
381.586000
  0
VERTEX
  8
C7
  10
707.112600
  20
382.208900
  0
VERTEX
  8
C7
  10
707.299500
  20
382.890200
  0
VERTEX
  8
C7
  10
707.339900
  20
383.604200
  0
VERTEX
  8
C7
  10
707.247100
  20
384.325300
  0
VERTEX
  8
C7
  10
707.034200
  20
385.028000
  0
VERTEX
  8
C7
  10
706.714300
  20
385.686700
  0
VERTEX
  8
C7
  10
706.300800
  20
386.275700
  0
VERTEX
  8
C7
  10
705.806600
  20
386.769400
  0
VERTEX
  8
C7
  10
705.245100
  20
387.142300
  0
VERTEX
  8
C7
  10
704.629400
  20
387.368700
  0
VERTEX
  8
C7
  10
703.972600
  20
387.423200
  0
VERTEX
  8
C7
  10
703.288000
  20
387.279900
  0
VERTEX
  8
C7
  10
702.588700
  20
386.913500
  0
SEQEND
  8
C7
  0
POLYLINE
  8
C7
  66
1
  10
737.000000
  20
388.000000
  0
VERTEX
  8
C7
  10
737.000000
  20
388.000000
  0
VERTEX
  8
C7
  10
737.000000
  20
380.000000
  0
VERTEX
  8
C7
  10
739.000000
  20
380.000000
  0
VERTEX
  8
C7
  10
740.000000
  20
386.000000
  0
VERTEX
  8
C7
  10
741.000000
  20
386.000000
  0
VERTEX
  8
C7
  10
741.000000
  20
380.000000
  0
VERTEX
  8
C7
  10
743.000000
  20
380.000000
  0
VERTEX
  8
C7
  10
742.975900
  20
381.114200
  0
VERTEX
  8
C7
  10
742.923000
  20
382.142200
  0
VERTEX
  8
C7
  10
742.829400
  20
383.084700
  0
VERTEX
  8
C7
  10
742.683000
  20
383.942700
  0
VERTEX
  8
C7
  10
742.471600
  20
384.716900
  0
VERTEX
  8
C7
  10
742.183400
  20
385.408300
  0
VERTEX
  8
C7
  10
741.806200
  20
386.017600
  0
VERTEX
  8
C7
  10
741.327900
  20
386.545900
  0
VERTEX
  8
C7
  10
740.736600
  20
386.993800
  0
VERTEX
  8
C7
  10
740.020200
  20
387.362300
  0
VERTEX
  8
C7
  10
739.166700
  20
387.652300
  0
VERTEX
  8
C7
  10
738.163900
  20
387.864500
  0
VERTEX
  8
C7
  10
737.000000
  20
388.000000
  0
SEQEND
  8
C7
  0
POLYLINE
  8
C7
  66
1
  10
662.000000
  20
386.000000
  0
VERTEX
  8
C7
  10
662.000000
  20
386.000000
  0
VERTEX
  8
C7
  10
662.000000
  20
382.000000
  0
VERTEX
  8
C7
  10
663.000000
  20
382.000000
  0
VERTEX
  8
C7
  10
662.000000
  20
386.000000
  0
SEQEND
  8
C7
  0
POLYLINE
  8
C7
  66
1
  10
666.000000
  20
386.000000
  0
VERTEX
  8
C7
  10
666.000000
  20
386.000000
  0
VERTEX
  8
C7
  10
667.000000
  20
385.000000
  0
VERTEX
  8
C7
  10
666.000000
  20
386.000000
  0
SEQEND
  8
C7
  0
POLYLINE
  8
C7
  66
1
  10
689.000000
  20
386.000000
  0
VERTEX
  8
C7
  10
689.000000
  20
386.000000
  0
VERTEX
  8
C7
  10
691.000000
  20
382.000000
  0
VERTEX
  8
C7
  10
689.000000
  20
386.000000
  0
SEQEND
  8
C7
  0
POLYLINE
  8
C7
  66
1
  10
696.000000
  20
386.000000
  0
VERTEX
  8
C7
  10
696.000000
  20
386.000000
  0
VERTEX
  8
C7
  10
696.000000
  20
382.000000
  0
VERTEX
  8
C7
  10
697.000000
  20
382.000000
  0
VERTEX
  8
C7
  10
696.000000
  20
386.000000
  0
SEQEND
  8
C7
  0
POLYLINE
  8
C7
  66
1
  10
704.000000
  20
386.000000
  0
VERTEX
  8
C7
  10
704.000000
  20
386.000000
  0
VERTEX
  8
C7
  10
705.000000
  20
385.000000
  0
VERTEX
  8
C7
  10
704.000000
  20
386.000000
  0
SEQEND
  8
C7
  0
POLYLINE
  8
C7
  66
1
  10
714.000000
  20
386.000000
  0
VERTEX
  8
C7
  10
714.000000
  20
386.000000
  0
VERTEX
  8
C7
  10
714.000000
  20
382.000000
  0
VERTEX
  8
C7
  10
715.000000
  20
382.000000
  0
VERTEX
  8
C7
  10
714.000000
  20
386.000000
  0
SEQEND
  8
C7
  0
POLYLINE
  8
C7
  66
1
  10
681.000000
  20
384.000000
  0
VERTEX
  8
C7
  10
681.000000
  20
384.000000
  0
VERTEX
  8
C7
  10
681.000000
  20
382.000000
  0
VERTEX
  8
C7
  10
686.000000
  20
382.000000
  0
VERTEX
  8
C7
  10
686.000000
  20
384.000000
  0
VERTEX
  8
C7
  10
681.000000
  20
384.000000
  0
SEQEND
  8
C7
  0
POLYLINE
  8
C7
  66
1
  10
728.000000
  20
384.000000
  0
VERTEX
  8
C7
  10
728.000000
  20
384.000000
  0
VERTEX
  8
C7
  10
728.000000
  20
382.000000
  0
VERTEX
  8
C7
  10
731.000000
  20
382.000000
  0
VERTEX
  8
C7
  10
731.000000
  20
384.000000
  0
VERTEX
  8
C7
  10
728.000000
  20
384.000000
  0
SEQEND
  8
C7
  0
POLYLINE
  8
C7
  66
1
  10
666.000000
  20
383.000000
  0
VERTEX
  8
C7
  10
666.000000
  20
383.000000
  0
VERTEX
  8
C7
  10
667.000000
  20
382.000000
  0
VERTEX
  8
C7
  10
666.000000
  20
383.000000
  0
SEQEND
  8
C7
  0
POLYLINE
  8
C7
  66
1
  10
703.666687
  20
382.666656
  0
VERTEX
  8
C7
  10
703.666687
  20
382.666656
  0
VERTEX
  8
C7
  10
704.333313
  20
382.333344
  0
VERTEX
  8
C7
  10
703.666687
  20
382.666656
  0
SEQEND
  8
C7
  0
POLYLINE
  8
C7
  66
1
  10
237.000000
  20
381.000000
  0
VERTEX
  8
C7
  10
237.000000
  20
381.000000
  0
VERTEX
  8
C7
  10
237.000000
  20
376.000000
  0
VERTEX
  8
C7
  10
238.000000
  20
376.000000
  0
VERTEX
  8
C7
  10
237.000000
  20
381.000000
  0
SEQEND
  8
C7
  0
POLYLINE
  8
C7
  66
1
  10
526.000000
  20
381.000000
  0
VERTEX
  8
C7
  10
526.000000
  20
381.000000
  0
VERTEX
  8
C7
  10
526.000000
  20
376.000000
  0
VERTEX
  8
C7
  10
527.000000
  20
376.000000
  0
VERTEX
  8
C7
  10
526.000000
  20
381.000000
  0
SEQEND
  8
C7
  0
POLYLINE
  8
C7
  66
1
  10
696.000000
  20
380.000000
  0
VERTEX
  8
C7
  10
696.000000
  20
380.000000
  0
VERTEX
  8
C7
  10
697.000000
  20
379.000000
  0
VERTEX
  8
C7
  10
696.000000
  20
380.000000
  0
SEQEND
  8
C7
  0
POLYLINE
  8
C7
  66
1
  10
331.000000
  20
375.000000
  0
VERTEX
  8
C7
  10
331.000000
  20
375.000000
  0
VERTEX
  8
C7
  10
331.000000
  20
361.000000
  0
VERTEX
  8
C7
  10
340.000000
  20
361.000000
  0
VERTEX
  8
C7
  10
340.000000
  20
364.000000
  0
VERTEX
  8
C7
  10
334.000000
  20
364.000000
  0
VERTEX
  8
C7
  10
334.000000
  20
375.000000
  0
VERTEX
  8
C7
  10
331.000000
  20
375.000000
  0
SEQEND
  8
C7
  0
POLYLINE
  8
C7
  66
1
  10
341.000000
  20
375.000000
  0
VERTEX
  8
C7
  10
341.000000
  20
375.000000
  0
VERTEX
  8
C7
  10
341.000000
  20
361.000000
  0
VERTEX
  8
C7
  10
342.000300
  20
361.027300
  0
VERTEX
  8
C7
  10
342.949100
  20
361.101900
  0
VERTEX
  8
C7
  10
343.846400
  20
361.221300
  0
VERTEX
  8
C7
  10
344.692400
  20
361.383000
  0
VERTEX
  8
C7
  10
345.487200
  20
361.584700
  0
VERTEX
  8
C7
  10
346.230900
  20
361.823900
  0
VERTEX
  8
C7
  10
346.923600
  20
362.098300
  0
VERTEX
  8
C7
  10
347.565500
  20
362.405300
  0
VERTEX
  8
C7
  10
348.156600
  20
362.742500
  0
VERTEX
  8
C7
  10
348.697100
  20
363.107600
  0
VERTEX
  8
C7
  10
349.187100
  20
363.498100
  0
VERTEX
  8
C7
  10
349.626700
  20
363.911500
  0
VERTEX
  8
C7
  10
350.016100
  20
364.345500
  0
VERTEX
  8
C7
  10
350.355300
  20
364.797700
  0
VERTEX
  8
C7
  10
350.644500
  20
365.265500
  0
VERTEX
  8
C7
  10
350.883800
  20
365.746700
  0
VERTEX
  8
C7
  10
351.073300
  20
366.238600
  0
VERTEX
  8
C7
  10
351.213200
  20
366.739100
  0
VERTEX
  8
C7
  10
351.303500
  20
367.245500
  0
VERTEX
  8
C7
  10
351.344400
  20
367.755500
  0
VERTEX
  8
C7
  10
351.336000
  20
368.266700
  0
VERTEX
  8
C7
  10
351.278500
  20
368.776600
  0
VERTEX
  8
C7
  10
351.171800
  20
369.282800
  0
VERTEX
  8
C7
  10
351.016300
  20
369.782900
  0
VERTEX
  8
C7
  10
350.811900
  20
370.274400
  0
VERTEX
  8
C7
  10
350.558800
  20
370.755000
  0
VERTEX
  8
C7
  10
350.257100
  20
371.222200
  0
VERTEX
  8
C7
  10
349.907000
  20
371.673600
  0
VERTEX
  8
C7
  10
349.508500
  20
372.106800
  0
VERTEX
  8
C7
  10
349.061800
  20
372.519300
  0
VERTEX
  8
C7
  10
348.567000
  20
372.908700
  0
VERTEX
  8
C7
  10
348.024300
  20
373.272600
  0
VERTEX
  8
C7
  10
347.433600
  20
373.608600
  0
VERTEX
  8
C7
  10
346.795300
  20
373.914200
  0
VERTEX
  8
C7
  10
346.109300
  20
374.187100
  0
VERTEX
  8
C7
  10
345.375800
  20
374.424700
  0
VERTEX
  8
C7
  10
344.594900
  20
374.624700
  0
VERTEX
  8
C7
  10
343.766700
  20
374.784700
  0
VERTEX
  8
C7
  10
342.891500
  20
374.902100
  0
VERTEX
  8
C7
  10
341.969200
  20
374.974700
  0
VERTEX
  8
C7
  10
341.000000
  20
375.000000
  0
SEQEND
  8
C7
  0
POLYLINE
  8
C7
  66
1
  10
352.000000
  20
375.000000
  0
VERTEX
  8
C7
  10
352.000000
  20
375.000000
  0
VERTEX
  8
C7
  10
352.000000
  20
373.000000
  0
VERTEX
  8
C7
  10
357.000000
  20
373.000000
  0
VERTEX
  8
C7
  10
357.000000
  20
361.000000
  0
VERTEX
  8
C7
  10
359.000000
  20
361.000000
  0
VERTEX
  8
C7
  10
359.000000
  20
373.000000
  0
VERTEX
  8
C7
  10
369.000000
  20
373.000000
  0
VERTEX
  8
C7
  10
370.000000
  20
372.000000
  0
VERTEX
  8
C7
  10
367.000000
  20
367.000000
  0
VERTEX
  8
C7
  10
370.000000
  20
367.000000
  0
VERTEX
  8
C7
  10
369.000000
  20
363.000000
  0
VERTEX
  8
C7
  10
364.000000
  20
366.000000
  0
VERTEX
  8
C7
  10
364.226500
  20
365.291300
  0
VERTEX
  8
C7
  10
364.457300
  20
364.641200
  0
VERTEX
  8
C7
  10
364.692000
  20
364.048200
  0
VERTEX
  8
C7
  10
364.930200
  20
363.510700
  0
VERTEX
  8
C7
  10
365.171400
  20
363.027300
  0
VERTEX
  8
C7
  10
365.415200
  20
362.596400
  0
VERTEX
  8
C7
  10
365.661200
  20
362.216400
  0
VERTEX
  8
C7
  10
365.908800
  20
361.885800
  0
VERTEX
  8
C7
  10
366.157800
  20
361.603100
  0
VERTEX
  8
C7
  10
366.407600
  20
361.366800
  0
VERTEX
  8
C7
  10
366.657900
  20
361.175300
  0
VERTEX
  8
C7
  10
366.908100
  20
361.027100
  0
VERTEX
  8
C7
  10
367.158000
  20
360.920700
  0
VERTEX
  8
C7
  10
367.406900
  20
360.854500
  0
VERTEX
  8
C7
  10
367.654600
  20
360.826900
  0
VERTEX
  8
C7
  10
367.900500
  20
360.836600
  0
VERTEX
  8
C7
  10
368.144200
  20
360.881900
  0
VERTEX
  8
C7
  10
368.385400
  20
360.961200
  0
VERTEX
  8
C7
  10
368.623500
  20
361.073200
  0
VERTEX
  8
C7
  10
368.858200
  20
361.216100
  0
VERTEX
  8
C7
  10
369.088900
  20
361.388600
  0
VERTEX
  8
C7
  10
369.315400
  20
361.589100
  0
VERTEX
  8
C7
  10
369.537000
  20
361.815900
  0
VERTEX
  8
C7
  10
369.753500
  20
362.067700
  0
VERTEX
  8
C7
  10
369.964400
  20
362.342900
  0
VERTEX
  8
C7
  10
370.169200
  20
362.639900
  0
VERTEX
  8
C7
  10
370.367500
  20
362.957200
  0
VERTEX
  8
C7
  10
370.558900
  20
363.293200
  0
VERTEX
  8
C7
  10
370.743000
  20
363.646600
  0
VERTEX
  8
C7
  10
370.919300
  20
364.015600
  0
VERTEX
  8
C7
  10
371.087300
  20
364.398800
  0
VERTEX
  8
C7
  10
371.246700
  20
364.794600
  0
VERTEX
  8
C7
  10
371.397000
  20
365.201600
  0
VERTEX
  8
C7
  10
371.537800
  20
365.618100
  0
VERTEX
  8
C7
  10
371.668700
  20
366.042700
  0
VERTEX
  8
C7
  10
371.789200
  20
366.473800
  0
VERTEX
  8
C7
  10
371.898800
  20
366.909900
  0
VERTEX
  8
C7
  10
371.997300
  20
367.349400
  0
VERTEX
  8
C7
  10
372.084000
  20
367.790900
  0
VERTEX
  8
C7
  10
372.158600
  20
368.232700
  0
VERTEX
  8
C7
  10
372.220700
  20
368.673400
  0
VERTEX
  8
C7
  10
372.269900
  20
369.111400
  0
VERTEX
  8
C7
  10
372.305600
  20
369.545200
  0
VERTEX
  8
C7
  10
372.327500
  20
369.973200
  0
VERTEX
  8
C7
  10
372.335100
  20
370.394000
  0
VERTEX
  8
C7
  10
372.328000
  20
370.806000
  0
VERTEX
  8
C7
  10
372.305800
  20
371.207600
  0
VERTEX
  8
C7
  10
372.268000
  20
371.597400
  0
VERTEX
  8
C7
  10
372.214200
  20
371.973700
  0
VERTEX
  8
C7
  10
372.144000
  20
372.335100
  0
VERTEX
  8
C7
  10
372.056900
  20
372.680100
  0
VERTEX
  8
C7
  10
371.952600
  20
373.007000
  0
VERTEX
  8
C7
  10
371.830500
  20
373.314400
  0
VERTEX
  8
C7
  10
371.690200
  20
373.600700
  0
VERTEX
  8
C7
  10
371.531400
  20
373.864400
  0
VERTEX
  8
C7
  10
371.353500
  20
374.104000
  0
VERTEX
  8
C7
  10
371.156100
  20
374.318000
  0
VERTEX
  8
C7
  10
370.938900
  20
374.504700
  0
VERTEX
  8
C7
  10
370.701400
  20
374.662700
  0
VERTEX
  8
C7
  10
370.443100
  20
374.790400
  0
VERTEX
  8
C7
  10
370.163600
  20
374.886400
  0
VERTEX
  8
C7
  10
369.862500
  20
374.949000
  0
VERTEX
  8
C7
  10
369.539300
  20
374.976800
  0
VERTEX
  8
C7
  10
369.193700
  20
374.968100
  0
VERTEX
  8
C7
  10
368.825200
  20
374.921600
  0
VERTEX
  8
C7
  10
368.433300
  20
374.835600
  0
VERTEX
  8
C7
  10
368.017600
  20
374.708600
  0
VERTEX
  8
C7
  10
367.577700
  20
374.539000
  0
VERTEX
  8
C7
  10
367.113200
  20
374.325500
  0
VERTEX
  8
C7
  10
366.623600
  20
374.066300
  0
VERTEX
  8
C7
  10
366.108400
  20
373.760000
  0
VERTEX
  8
C7
  10
365.567400
  20
373.405100
  0
VERTEX
  8
C7
  10
365.000000
  20
373.000000
  0
VERTEX
  8
C7
  10
352.000000
  20
375.000000
  0
SEQEND
  8
C7
  0
POLYLINE
  8
C7
  66
1
  10
375.000000
  20
369.000000
  0
VERTEX
  8
C7
  10
375.000000
  20
369.000000
  0
VERTEX
  8
C7
  10
378.000000
  20
370.000000
  0
VERTEX
  8
C7
  10
378.000000
  20
361.000000
  0
VERTEX
  8
C7
  10
381.000000
  20
361.000000
  0
VERTEX
  8
C7
  10
381.000000
  20
375.000000
  0
VERTEX
  8
C7
  10
375.000000
  20
369.000000
  0
SEQEND
  8
C7
  0
POLYLINE
  8
C7
  66
1
  10
384.000000
  20
370.000000
  0
VERTEX
  8
C7
  10
384.000000
  20
370.000000
  0
VERTEX
  8
C7
  10
390.000000
  20
373.000000
  0
VERTEX
  8
C7
  10
384.000000
  20
361.000000
  0
VERTEX
  8
C7
  10
393.000000
  20
361.000000
  0
VERTEX
  8
C7
  10
393.000000
  20
364.000000
  0
VERTEX
  8
C7
  10
389.000000
  20
364.000000
  0
VERTEX
  8
C7
  10
389.646900
  20
364.815400
  0
VERTEX
  8
C7
  10
390.197700
  20
365.612900
  0
VERTEX
  8
C7
  10
390.656900
  20
366.390300
  0
VERTEX
  8
C7
  10
391.028900
  20
367.145300
  0
VERTEX
  8
C7
  10
391.318000
  20
367.875500
  0
VERTEX
  8
C7
  10
391.528700
  20
368.578800
  0
VERTEX
  8
C7
  10
391.665500
  20
369.252900
  0
VERTEX
  8
C7
  10
391.732800
  20
369.895500
  0
VERTEX
  8
C7
  10
391.734900
  20
370.504400
  0
VERTEX
  8
C7
  10
391.676400
  20
371.077300
  0
VERTEX
  8
C7
  10
391.561600
  20
371.612000
  0
VERTEX
  8
C7
  10
391.395100
  20
372.106100
  0
VERTEX
  8
C7
  10
391.181100
  20
372.557500
  0
VERTEX
  8
C7
  10
390.924100
  20
372.963800
  0
VERTEX
  8
C7
  10
390.628700
  20
373.322800
  0
VERTEX
  8
C7
  10
390.299100
  20
373.632300
  0
VERTEX
  8
C7
  10
389.939800
  20
373.890000
  0
VERTEX
  8
C7
  10
389.555300
  20
374.093600
  0
VERTEX
  8
C7
  10
389.149900
  20
374.240800
  0
VERTEX
  8
C7
  10
388.728200
  20
374.329500
  0
VERTEX
  8
C7
  10
388.294500
  20
374.357300
  0
VERTEX
  8
C7
  10
387.853200
  20
374.321900
  0
VERTEX
  8
C7
  10
387.408900
  20
374.221200
  0
VERTEX
  8
C7
  10
386.965800
  20
374.052900
  0
VERTEX
  8
C7
  10
386.528500
  20
373.814700
  0
VERTEX
  8
C7
  10
386.101300
  20
373.504300
  0
VERTEX
  8
C7
  10
385.688800
  20
373.119500
  0
VERTEX
  8
C7
  10
385.295300
  20
372.658000
  0
VERTEX
  8
C7
  10
384.925200
  20
372.117500
  0
VERTEX
  8
C7
  10
384.583000
  20
371.495900
  0
VERTEX
  8
C7
  10
384.273100
  20
370.790800
  0
VERTEX
  8
C7
  10
384.000000
  20
370.000000
  0
SEQEND
  8
C7
  0
POLYLINE
  8
C7
  66
1
  10
394.000000
  20
370.000000
  0
VERTEX
  8
C7
  10
394.000000
  20
370.000000
  0
VERTEX
  8
C7
  10
398.000000
  20
373.000000
  0
VERTEX
  8
C7
  10
400.000000
  20
373.000000
  0
VERTEX
  8
C7
  10
401.000000
  20
372.000000
  0
VERTEX
  8
C7
  10
394.000000
  20
361.000000
  0
VERTEX
  8
C7
  10
404.000000
  20
361.000000
  0
VERTEX
  8
C7
  10
404.000000
  20
364.000000
  0
VERTEX
  8
C7
  10
399.000000
  20
364.000000
  0
VERTEX
  8
C7
  10
399.646900
  20
364.815400
  0
VERTEX
  8
C7
  10
400.197700
  20
365.612900
  0
VERTEX
  8
C7
  10
400.656900
  20
366.390300
  0
VERTEX
  8
C7
  10
401.028900
  20
367.145300
  0
VERTEX
  8
C7
  10
401.318000
  20
367.875500
  0
VERTEX
  8
C7
  10
401.528700
  20
368.578800
  0
VERTEX
  8
C7
  10
401.665500
  20
369.252900
  0
VERTEX
  8
C7
  10
401.732800
  20
369.895500
  0
VERTEX
  8
C7
  10
401.734900
  20
370.504400
  0
VERTEX
  8
C7
  10
401.676400
  20
371.077300
  0
VERTEX
  8
C7
  10
401.561600
  20
371.612000
  0
VERTEX
  8
C7
  10
401.395100
  20
372.106100
  0
VERTEX
  8
C7
  10
401.181100
  20
372.557500
  0
VERTEX
  8
C7
  10
400.924100
  20
372.963800
  0
VERTEX
  8
C7
  10
400.628700
  20
373.322800
  0
VERTEX
  8
C7
  10
400.299100
  20
373.632300
  0
VERTEX
  8
C7
  10
399.939800
  20
373.890000
  0
VERTEX
  8
C7
  10
399.555300
  20
374.093600
  0
VERTEX
  8
C7
  10
399.149900
  20
374.240800
  0
VERTEX
  8
C7
  10
398.728200
  20
374.329500
  0
VERTEX
  8
C7
  10
398.294500
  20
374.357300
  0
VERTEX
  8
C7
  10
397.853200
  20
374.321900
  0
VERTEX
  8
C7
  10
397.408900
  20
374.221200
  0
VERTEX
  8
C7
  10
396.965800
  20
374.052900
  0
VERTEX
  8
C7
  10
396.528500
  20
373.814700
  0
VERTEX
  8
C7
  10
396.101300
  20
373.504300
  0
VERTEX
  8
C7
  10
395.688800
  20
373.119500
  0
VERTEX
  8
C7
  10
395.295300
  20
372.658000
  0
VERTEX
  8
C7
  10
394.925200
  20
372.117500
  0
VERTEX
  8
C7
  10
394.583000
  20
371.495900
  0
VERTEX
  8
C7
  10
394.273100
  20
370.790800
  0
VERTEX
  8
C7
  10
394.000000
  20
370.000000
  0
SEQEND
  8
C7
  0
POLYLINE
  8
C7
  66
1
  10
404.000000
  20
375.000000
  0
VERTEX
  8
C7
  10
404.000000
  20
375.000000
  0
VERTEX
  8
C7
  10
404.000000
  20
372.000000
  0
VERTEX
  8
C7
  10
409.000000
  20
372.000000
  0
VERTEX
  8
C7
  10
406.000000
  20
361.000000
  0
VERTEX
  8
C7
  10
409.000000
  20
361.000000
  0
VERTEX
  8
C7
  10
414.000000
  20
375.000000
  0
VERTEX
  8
C7
  10
404.000000
  20
375.000000
  0
SEQEND
  8
C7
  0
POLYLINE
  8
C7
  66
1
  10
416.000000
  20
369.000000
  0
VERTEX
  8
C7
  10
416.000000
  20
369.000000
  0
VERTEX
  8
C7
  10
419.000000
  20
370.000000
  0
VERTEX
  8
C7
  10
419.000000
  20
361.000000
  0
VERTEX
  8
C7
  10
421.000000
  20
361.000000
  0
VERTEX
  8
C7
  10
421.000000
  20
375.000000
  0
VERTEX
  8
C7
  10
416.000000
  20
369.000000
  0
SEQEND
  8
C7
  0
POLYLINE
  8
C7
  66
1
  10
344.000000
  20
373.000000
  0
VERTEX
  8
C7
  10
344.000000
  20
373.000000
  0
VERTEX
  8
C7
  10
348.000000
  20
370.000000
  0
VERTEX
  8
C7
  10
344.000000
  20
373.000000
  0
SEQEND
  8
C7
  0
POLYLINE
  8
C7
  66
1
  10
237.000000
  20
372.000000
  0
VERTEX
  8
C7
  10
237.000000
  20
372.000000
  0
VERTEX
  8
C7
  10
237.000000
  20
367.000000
  0
VERTEX
  8
C7
  10
238.000000
  20
367.000000
  0
VERTEX
  8
C7
  10
237.000000
  20
372.000000
  0
SEQEND
  8
C7
  0
POLYLINE
  8
C7
  66
1
  10
526.000000
  20
372.000000
  0
VERTEX
  8
C7
  10
526.000000
  20
372.000000
  0
VERTEX
  8
C7
  10
526.000000
  20
367.000000
  0
VERTEX
  8
C7
  10
527.000000
  20
367.000000
  0
VERTEX
  8
C7
  10
526.000000
  20
372.000000
  0
SEQEND
  8
C7
  0
POLYLINE
  8
C7
  66
1
  10
344.000000
  20
367.000000
  0
VERTEX
  8
C7
  10
344.000000
  20
367.000000
  0
VERTEX
  8
C7
  10
344.000000
  20
364.000000
  0
VERTEX
  8
C7
  10
349.000000
  20
364.000000
  0
VERTEX
  8
C7
  10
344.000000
  20
367.000000
  0
SEQEND
  8
C7
  0
POLYLINE
  8
C7
  66
1
  10
237.000000
  20
364.000000
  0
VERTEX
  8
C7
  10
237.000000
  20
364.000000
  0
VERTEX
  8
C7
  10
237.000000
  20
358.000000
  0
VERTEX
  8
C7
  10
238.000000
  20
358.000000
  0
VERTEX
  8
C7
  10
237.000000
  20
364.000000
  0
SEQEND
  8
C7
  0
POLYLINE
  8
C7
  66
1
  10
526.000000
  20
364.000000
  0
VERTEX
  8
C7
  10
526.000000
  20
364.000000
  0
VERTEX
  8
C7
  10
526.000000
  20
358.000000
  0
VERTEX
  8
C7
  10
527.000000
  20
358.000000
  0
VERTEX
  8
C7
  10
526.000000
  20
364.000000
  0
SEQEND
  8
C7
  0
POLYLINE
  8
C7
  66
1
  10
754.000000
  20
360.000000
  0
VERTEX
  8
C7
  10
754.000000
  20
360.000000
  0
VERTEX
  8
C7
  10
752.000000
  20
356.000000
  0
VERTEX
  8
C7
  10
751.213100
  20
356.155000
  0
VERTEX
  8
C7
  10
750.494000
  20
356.256000
  0
VERTEX
  8
C7
  10
749.840500
  20
356.306200
  0
VERTEX
  8
C7
  10
749.250400
  20
356.308900
  0
VERTEX
  8
C7
  10
748.721500
  20
356.267200
  0
VERTEX
  8
C7
  10
748.251400
  20
356.184400
  0
VERTEX
  8
C7
  10
747.837900
  20
356.063600
  0
VERTEX
  8
C7
  10
747.478900
  20
355.908000
  0
VERTEX
  8
C7
  10
747.172000
  20
355.720900
  0
VERTEX
  8
C7
  10
746.915100
  20
355.505400
  0
VERTEX
  8
C7
  10
746.705900
  20
355.264800
  0
VERTEX
  8
C7
  10
746.542100
  20
355.002300
  0
VERTEX
  8
C7
  10
746.421600
  20
354.721000
  0
VERTEX
  8
C7
  10
746.342000
  20
354.424200
  0
VERTEX
  8
C7
  10
746.301200
  20
354.115100
  0
VERTEX
  8
C7
  10
746.296900
  20
353.796800
  0
VERTEX
  8
C7
  10
746.326900
  20
353.472600
  0
VERTEX
  8
C7
  10
746.388900
  20
353.145700
  0
VERTEX
  8
C7
  10
746.480700
  20
352.819300
  0
VERTEX
  8
C7
  10
746.600100
  20
352.496600
  0
VERTEX
  8
C7
  10
746.744900
  20
352.180800
  0
VERTEX
  8
C7
  10
746.912700
  20
351.875100
  0
VERTEX
  8
C7
  10
747.101300
  20
351.582700
  0
VERTEX
  8
C7
  10
747.308600
  20
351.306700
  0
VERTEX
  8
C7
  10
747.532300
  20
351.050500
  0
VERTEX
  8
C7
  10
747.770100
  20
350.817300
  0
VERTEX
  8
C7
  10
748.019800
  20
350.610100
  0
VERTEX
  8
C7
  10
748.279200
  20
350.432300
  0
VERTEX
  8
C7
  10
748.546000
  20
350.286900
  0
VERTEX
  8
C7
  10
748.818000
  20
350.177400
  0
VERTEX
  8
C7
  10
749.092900
  20
350.106700
  0
VERTEX
  8
C7
  10
749.368600
  20
350.078200
  0
VERTEX
  8
C7
  10
749.642800
  20
350.095000
  0
VERTEX
  8
C7
  10
749.913200
  20
350.160400
  0
VERTEX
  8
C7
  10
750.177600
  20
350.277500
  0
VERTEX
  8
C7
  10
750.433800
  20
350.449600
  0
VERTEX
  8
C7
  10
750.679500
  20
350.679900
  0
VERTEX
  8
C7
  10
750.912500
  20
350.971500
  0
VERTEX
  8
C7
  10
751.130600
  20
351.327600
  0
VERTEX
  8
C7
  10
751.331400
  20
351.751600
  0
VERTEX
  8
C7
  10
751.512900
  20
352.246500
  0
VERTEX
  8
C7
  10
751.672800
  20
352.815600
  0
VERTEX
  8
C7
  10
751.808700
  20
353.462100
  0
VERTEX
  8
C7
  10
751.918500
  20
354.189100
  0
VERTEX
  8
C7
  10
752.000000
  20
355.000000
  0
VERTEX
  8
C7
  10
753.000000
  20
355.000000
  0
VERTEX
  8
C7
  10
753.000000
  20
349.000000
  0
VERTEX
  8
C7
  10
755.000000
  20
349.000000
  0
VERTEX
  8
C7
  10
757.000000
  20
359.000000
  0
VERTEX
  8
C7
  10
756.000000
  20
360.000000
  0
VERTEX
  8
C7
  10
754.000000
  20
360.000000
  0
SEQEND
  8
C7
  0
POLYLINE
  8
C7
  66
1
  10
628.000000
  20
359.000000
  0
VERTEX
  8
C7
  10
628.000000
  20
359.000000
  0
VERTEX
  8
C7
  10
628.000000
  20
349.000000
  0
VERTEX
  8
C7
  10
630.000000
  20
349.000000
  0
VERTEX
  8
C7
  10
630.000000
  20
353.000000
  0
VERTEX
  8
C7
  10
630.794400
  20
352.612600
  0
VERTEX
  8
C7
  10
631.618500
  20
352.223100
  0
VERTEX
  8
C7
  10
632.469500
  20
351.836200
  0
VERTEX
  8
C7
  10
633.344600
  20
351.456400
  0
VERTEX
  8
C7
  10
634.240800
  20
351.088100
  0
VERTEX
  8
C7
  10
635.155500
  20
350.736000
  0
VERTEX
  8
C7
  10
636.085900
  20
350.404500
  0
VERTEX
  8
C7
  10
637.029000
  20
350.098200
  0
VERTEX
  8
C7
  10
637.982000
  20
349.821700
  0
VERTEX
  8
C7
  10
638.942300
  20
349.579500
  0
VERTEX
  8
C7
  10
639.906900
  20
349.376200
  0
VERTEX
  8
C7
  10
640.873000
  20
349.216100
  0
VERTEX
  8
C7
  10
641.837900
  20
349.104000
  0
VERTEX
  8
C7
  10
642.798600
  20
349.044400
  0
VERTEX
  8
C7
  10
643.752500
  20
349.041700
  0
VERTEX
  8
C7
  10
644.696700
  20
349.100600
  0
VERTEX
  8
C7
  10
645.628300
  20
349.225500
  0
VERTEX
  8
C7
  10
646.544600
  20
349.421000
  0
VERTEX
  8
C7
  10
647.442700
  20
349.691700
  0
VERTEX
  8
C7
  10
648.319800
  20
350.042000
  0
VERTEX
  8
C7
  10
649.173200
  20
350.476600
  0
VERTEX
  8
C7
  10
650.000000
  20
351.000000
  0
VERTEX
  8
C7
  10
651.000000
  20
351.000000
  0
VERTEX
  8
C7
  10
651.945200
  20
350.377500
  0
VERTEX
  8
C7
  10
652.802400
  20
349.956400
  0
VERTEX
  8
C7
  10
653.587700
  20
349.742600
  0
VERTEX
  8
C7
  10
654.317300
  20
349.742500
  0
VERTEX
  8
C7
  10
655.007200
  20
349.962000
  0
VERTEX
  8
C7
  10
655.673500
  20
350.407300
  0
VERTEX
  8
C7
  10
656.332400
  20
351.084600
  0
VERTEX
  8
C7
  10
657.000000
  20
352.000000
  0
VERTEX
  8
C7
  10
658.000000
  20
352.000000
  0
VERTEX
  8
C7
  10
660.000000
  20
349.000000
  0
VERTEX
  8
C7
  10
660.000000
  20
355.000000
  0
VERTEX
  8
C7
  10
662.000000
  20
355.000000
  0
VERTEX
  8
C7
  10
662.000000
  20
349.000000
  0
VERTEX
  8
C7
  10
664.000000
  20
349.000000
  0
VERTEX
  8
C7
  10
664.000000
  20
355.000000
  0
VERTEX
  8
C7
  10
666.000000
  20
355.000000
  0
VERTEX
  8
C7
  10
666.000000
  20
349.000000
  0
VERTEX
  8
C7
  10
668.000000
  20
349.000000
  0
VERTEX
  8
C7
  10
667.954500
  20
350.030600
  0
VERTEX
  8
C7
  10
667.844400
  20
351.003500
  0
VERTEX
  8
C7
  10
667.671600
  20
351.915600
  0
VERTEX
  8
C7
  10
667.438100
  20
352.763600
  0
VERTEX
  8
C7
  10
667.145700
  20
353.544400
  0
VERTEX
  8
C7
  10
666.796400
  20
354.254600
  0
VERTEX
  8
C7
  10
666.392000
  20
354.891200
  0
VERTEX
  8
C7
  10
665.934600
  20
355.450800
  0
VERTEX
  8
C7
  10
665.425900
  20
355.930300
  0
VERTEX
  8
C7
  10
664.868000
  20
356.326500
  0
VERTEX
  8
C7
  10
664.262700
  20
356.636200
  0
VERTEX
  8
C7
  10
663.612000
  20
356.856100
  0
VERTEX
  8
C7
  10
662.917700
  20
356.983100
  0
VERTEX
  8
C7
  10
662.181800
  20
357.013900
  0
VERTEX
  8
C7
  10
661.406300
  20
356.945400
  0
VERTEX
  8
C7
  10
660.592900
  20
356.774300
  0
VERTEX
  8
C7
  10
659.743700
  20
356.497400
  0
VERTEX
  8
C7
  10
658.860500
  20
356.111500
  0
VERTEX
  8
C7
  10
657.945300
  20
355.613400
  0
VERTEX
  8
C7
  10
657.000000
  20
355.000000
  0
VERTEX
  8
C7
  10
656.183400
  20
355.540100
  0
VERTEX
  8
C7
  10
655.316800
  20
355.993700
  0
VERTEX
  8
C7
  10
654.408400
  20
356.361500
  0
VERTEX
  8
C7
  10
653.466400
  20
356.644400
  0
VERTEX
  8
C7
  10
652.499000
  20
356.843400
  0
VERTEX
  8
C7
  10
651.514400
  20
356.959300
  0
VERTEX
  8
C7
  10
650.520700
  20
356.992900
  0
VERTEX
  8
C7
  10
649.526200
  20
356.945200
  0
VERTEX
  8
C7
  10
648.539000
  20
356.817000
  0
VERTEX
  8
C7
  10
647.567400
  20
356.609200
  0
VERTEX
  8
C7
  10
646.619500
  20
356.322800
  0
VERTEX
  8
C7
  10
645.703500
  20
355.958500
  0
VERTEX
  8
C7
  10
644.827600
  20
355.517300
  0
VERTEX
  8
C7
  10
644.000000
  20
355.000000
  0
VERTEX
  8
C7
  10
643.066800
  20
355.625400
  0
VERTEX
  8
C7
  10
642.200900
  20
356.057300
  0
VERTEX
  8
C7
  10
641.401700
  20
356.306200
  0
VERTEX
  8
C7
  10
640.668900
  20
356.382300
  0
VERTEX
  8
C7
  10
640.002200
  20
356.295900
  0
VERTEX
  8
C7
  10
639.401200
  20
356.057500
  0
VERTEX
  8
C7
  10
638.865400
  20
355.677400
  0
VERTEX
  8
C7
  10
638.394500
  20
355.165900
  0
VERTEX
  8
C7
  10
637.988100
  20
354.533400
  0
VERTEX
  8
C7
  10
637.645800
  20
353.790200
  0
VERTEX
  8
C7
  10
637.367300
  20
352.946600
  0
VERTEX
  8
C7
  10
637.152100
  20
352.013100
  0
VERTEX
  8
C7
  10
637.000000
  20
351.000000
  0
VERTEX
  8
C7
  10
636.000000
  20
351.000000
  0
VERTEX
  8
C7
  10
636.000000
  20
359.000000
  0
VERTEX
  8
C7
  10
628.000000
  20
359.000000
  0
SEQEND
  8
C7
  0
POLYLINE
  8
C7
  66
1
  10
693.000000
  20
355.000000
  0
VERTEX
  8
C7
  10
693.000000
  20
355.000000
  0
VERTEX
  8
C7
  10
692.047300
  20
355.624300
  0
VERTEX
  8
C7
  10
691.127300
  20
356.122300
  0
VERTEX
  8
C7
  10
690.234800
  20
356.467800
  0
VERTEX
  8
C7
  10
689.364500
  20
356.635000
  0
VERTEX
  8
C7
  10
688.511100
  20
356.597700
  0
VERTEX
  8
C7
  10
687.669400
  20
356.330200
  0
VERTEX
  8
C7
  10
686.834100
  20
355.806200
  0
VERTEX
  8
C7
  10
686.000000
  20
355.000000
  0
VERTEX
  8
C7
  10
685.000000
  20
355.000000
  0
VERTEX
  8
C7
  10
684.513900
  20
355.502600
  0
VERTEX
  8
C7
  10
684.045500
  20
355.899400
  0
VERTEX
  8
C7
  10
683.595800
  20
356.196700
  0
VERTEX
  8
C7
  10
683.165800
  20
356.400800
  0
VERTEX
  8
C7
  10
682.756400
  20
356.518100
  0
VERTEX
  8
C7
  10
682.368700
  20
356.554800
  0
VERTEX
  8
C7
  10
682.003600
  20
356.517300
  0
VERTEX
  8
C7
  10
681.662200
  20
356.411900
  0
VERTEX
  8
C7
  10
681.345300
  20
356.244900
  0
VERTEX
  8
C7
  10
681.054100
  20
356.022700
  0
VERTEX
  8
C7
  10
680.789500
  20
355.751500
  0
VERTEX
  8
C7
  10
680.552500
  20
355.437700
  0
VERTEX
  8
C7
  10
680.344100
  20
355.087700
  0
VERTEX
  8
C7
  10
680.165300
  20
354.707600
  0
VERTEX
  8
C7
  10
680.017000
  20
354.304000
  0
VERTEX
  8
C7
  10
679.900300
  20
353.882900
  0
VERTEX
  8
C7
  10
679.816200
  20
353.450900
  0
VERTEX
  8
C7
  10
679.765600
  20
353.014300
  0
VERTEX
  8
C7
  10
679.749600
  20
352.579200
  0
VERTEX
  8
C7
  10
679.769000
  20
352.152100
  0
VERTEX
  8
C7
  10
679.825100
  20
351.739300
  0
VERTEX
  8
C7
  10
679.918600
  20
351.347100
  0
VERTEX
  8
C7
  10
680.050600
  20
350.981800
  0
VERTEX
  8
C7
  10
680.222200
  20
350.649800
  0
VERTEX
  8
C7
  10
680.434200
  20
350.357400
  0
VERTEX
  8
C7
  10
680.687800
  20
350.110800
  0
VERTEX
  8
C7
  10
680.983800
  20
349.916500
  0
VERTEX
  8
C7
  10
681.323200
  20
349.780600
  0
VERTEX
  8
C7
  10
681.707200
  20
349.709700
  0
VERTEX
  8
C7
  10
682.136500
  20
349.709900
  0
VERTEX
  8
C7
  10
682.612400
  20
349.787600
  0
VERTEX
  8
C7
  10
683.135600
  20
349.949200
  0
VERTEX
  8
C7
  10
683.707300
  20
350.200900
  0
VERTEX
  8
C7
  10
684.328400
  20
350.549000
  0
VERTEX
  8
C7
  10
685.000000
  20
351.000000
  0
VERTEX
  8
C7
  10
688.000000
  20
349.000000
  0
VERTEX
  8
C7
  10
689.000000
  20
355.000000
  0
VERTEX
  8
C7
  10
690.000000
  20
355.000000
  0
VERTEX
  8
C7
  10
690.000000
  20
349.000000
  0
VERTEX
  8
C7
  10
701.000000
  20
351.000000
  0
VERTEX
  8
C7
  10
714.000000
  20
349.000000
  0
VERTEX
  8
C7
  10
714.000000
  20
359.000000
  0
VERTEX
  8
C7
  10
707.000000
  20
355.000000
  0
VERTEX
  8
C7
  10
706.045700
  20
355.669100
  0
VERTEX
  8
C7
  10
705.153000
  20
356.162300
  0
VERTEX
  8
C7
  10
704.304300
  20
356.451200
  0
VERTEX
  8
C7
  10
703.482200
  20
356.507700
  0
VERTEX
  8
C7
  10
702.669100
  20
356.303400
  0
VERTEX
  8
C7
  10
701.847500
  20
355.810300
  0
VERTEX
  8
C7
  10
701.000000
  20
355.000000
  0
VERTEX
  8
C7
  10
700.000000
  20
355.000000
  0
VERTEX
  8
C7
  10
700.000000
  20
359.000000
  0
VERTEX
  8
C7
  10
693.000000
  20
355.000000
  0
SEQEND
  8
C7
  0
POLYLINE
  8
C7
  66
1
  10
718.000000
  20
359.000000
  0
VERTEX
  8
C7
  10
718.000000
  20
359.000000
  0
VERTEX
  8
C7
  10
718.000000
  20
349.000000
  0
VERTEX
  8
C7
  10
727.000000
  20
349.000000
  0
VERTEX
  8
C7
  10
727.000000
  20
359.000000
  0
VERTEX
  8
C7
  10
725.000000
  20
359.000000
  0
VERTEX
  8
C7
  10
725.000000
  20
351.000000
  0
VERTEX
  8
C7
  10
720.000000
  20
351.000000
  0
VERTEX
  8
C7
  10
720.000000
  20
359.000000
  0
VERTEX
  8
C7
  10
718.000000
  20
359.000000
  0
SEQEND
  8
C7
  0
POLYLINE
  8
C7
  66
1
  10
630.000000
  20
355.000000
  0
VERTEX
  8
C7
  10
630.000000
  20
355.000000
  0
VERTEX
  8
C7
  10
634.000000
  20
356.000000
  0
VERTEX
  8
C7
  10
630.000000
  20
355.000000
  0
SEQEND
  8
C7
  0
POLYLINE
  8
C7
  66
1
  10
669.000000
  20
357.000000
  0
VERTEX
  8
C7
  10
669.000000
  20
357.000000
  0
VERTEX
  8
C7
  10
669.000000
  20
349.000000
  0
VERTEX
  8
C7
  10
671.000000
  20
349.000000
  0
VERTEX
  8
C7
  10
671.000000
  20
355.000000
  0
VERTEX
  8
C7
  10
672.000000
  20
355.000000
  0
VERTEX
  8
C7
  10
672.000000
  20
349.000000
  0
VERTEX
  8
C7
  10
675.000000
  20
349.000000
  0
VERTEX
  8
C7
  10
675.000000
  20
355.000000
  0
VERTEX
  8
C7
  10
676.000000
  20
355.000000
  0
VERTEX
  8
C7
  10
676.000000
  20
349.000000
  0
VERTEX
  8
C7
  10
678.000000
  20
349.000000
  0
VERTEX
  8
C7
  10
678.000000
  20
357.000000
  0
VERTEX
  8
C7
  10
669.000000
  20
357.000000
  0
SEQEND
  8
C7
  0
POLYLINE
  8
C7
  66
1
  10
728.000000
  20
357.000000
  0
VERTEX
  8
C7
  10
728.000000
  20
357.000000
  0
VERTEX
  8
C7
  10
728.000000
  20
349.000000
  0
VERTEX
  8
C7
  10
730.000000
  20
349.000000
  0
VERTEX
  8
C7
  10
731.000000
  20
355.000000
  0
VERTEX
  8
C7
  10
732.000000
  20
355.000000
  0
VERTEX
  8
C7
  10
732.000000
  20
349.000000
  0
VERTEX
  8
C7
  10
734.000000
  20
349.000000
  0
VERTEX
  8
C7
  10
734.000000
  20
357.000000
  0
VERTEX
  8
C7
  10
728.000000
  20
357.000000
  0
SEQEND
  8
C7
  0
POLYLINE
  8
C7
  66
1
  10
736.588745
  20
355.952942
  0
VERTEX
  8
C7
  10
736.588745
  20
355.952942
  0
VERTEX
  8
C7
  10
736.054900
  20
355.432500
  0
VERTEX
  8
C7
  10
735.669600
  20
354.824800
  0
VERTEX
  8
C7
  10
735.424800
  20
354.155600
  0
VERTEX
  8
C7
  10
735.312300
  20
353.450600
  0
VERTEX
  8
C7
  10
735.324200
  20
352.735400
  0
VERTEX
  8
C7
  10
735.452300
  20
352.035900
  0
VERTEX
  8
C7
  10
735.688700
  20
351.377600
  0
VERTEX
  8
C7
  10
736.025300
  20
350.786400
  0
VERTEX
  8
C7
  10
736.453900
  20
350.287900
  0
VERTEX
  8
C7
  10
736.966700
  20
349.907800
  0
VERTEX
  8
C7
  10
737.555500
  20
349.671900
  0
VERTEX
  8
C7
  10
738.212200
  20
349.605900
  0
VERTEX
  8
C7
  10
738.928900
  20
349.735500
  0
VERTEX
  8
C7
  10
739.697500
  20
350.086400
  0
VERTEX
  8
C7
  10
740.324000
  20
350.551900
  0
VERTEX
  8
C7
  10
740.796600
  20
351.096400
  0
VERTEX
  8
C7
  10
741.124800
  20
351.699900
  0
VERTEX
  8
C7
  10
741.318000
  20
352.342900
  0
VERTEX
  8
C7
  10
741.386000
  20
353.005500
  0
VERTEX
  8
C7
  10
741.338100
  20
353.668100
  0
VERTEX
  8
C7
  10
741.184000
  20
354.310900
  0
VERTEX
  8
C7
  10
740.933100
  20
354.914200
  0
VERTEX
  8
C7
  10
740.595100
  20
355.458300
  0
VERTEX
  8
C7
  10
740.179400
  20
355.923500
  0
VERTEX
  8
C7
  10
739.695600
  20
356.290100
  0
VERTEX
  8
C7
  10
739.153200
  20
356.538300
  0
VERTEX
  8
C7
  10
738.561800
  20
356.648400
  0
VERTEX
  8
C7
  10
737.930800
  20
356.600600
  0
VERTEX
  8
C7
  10
737.270000
  20
356.375400
  0
VERTEX
  8
C7
  10
736.588700
  20
355.952900
  0
SEQEND
  8
C7
  0
POLYLINE
  8
C7
  66
1
  10
237.000000
  20
355.000000
  0
VERTEX
  8
C7
  10
237.000000
  20
355.000000
  0
VERTEX
  8
C7
  10
237.000000
  20
350.000000
  0
VERTEX
  8
C7
  10
238.000000
  20
350.000000
  0
VERTEX
  8
C7
  10
237.000000
  20
355.000000
  0
SEQEND
  8
C7
  0
POLYLINE
  8
C7
  66
1
  10
526.000000
  20
355.000000
  0
VERTEX
  8
C7
  10
526.000000
  20
355.000000
  0
VERTEX
  8
C7
  10
526.000000
  20
350.000000
  0
VERTEX
  8
C7
  10
527.000000
  20
350.000000
  0
VERTEX
  8
C7
  10
526.000000
  20
355.000000
  0
SEQEND
  8
C7
  0
POLYLINE
  8
C7
  66
1
  10
640.000000
  20
355.000000
  0
VERTEX
  8
C7
  10
640.000000
  20
355.000000
  0
VERTEX
  8
C7
  10
641.000000
  20
354.000000
  0
VERTEX
  8
C7
  10
640.000000
  20
355.000000
  0
SEQEND
  8
C7
  0
POLYLINE
  8
C7
  66
1
  10
647.000000
  20
355.000000
  0
VERTEX
  8
C7
  10
647.000000
  20
355.000000
  0
VERTEX
  8
C7
  10
647.000000
  20
351.000000
  0
VERTEX
  8
C7
  10
650.000000
  20
354.000000
  0
VERTEX
  8
C7
  10
647.000000
  20
355.000000
  0
SEQEND
  8
C7
  0
POLYLINE
  8
C7
  66
1
  10
653.000000
  20
355.000000
  0
VERTEX
  8
C7
  10
653.000000
  20
355.000000
  0
VERTEX
  8
C7
  10
653.000000
  20
351.000000
  0
VERTEX
  8
C7
  10
655.000000
  20
351.000000
  0
VERTEX
  8
C7
  10
655.000000
  20
355.000000
  0
VERTEX
  8
C7
  10
653.000000
  20
355.000000
  0
SEQEND
  8
C7
  0
POLYLINE
  8
C7
  66
1
  10
682.000000
  20
355.000000
  0
VERTEX
  8
C7
  10
682.000000
  20
355.000000
  0
VERTEX
  8
C7
  10
683.000000
  20
354.000000
  0
VERTEX
  8
C7
  10
682.000000
  20
355.000000
  0
SEQEND
  8
C7
  0
POLYLINE
  8
C7
  66
1
  10
696.000000
  20
355.000000
  0
VERTEX
  8
C7
  10
696.000000
  20
355.000000
  0
VERTEX
  8
C7
  10
696.000000
  20
351.000000
  0
VERTEX
  8
C7
  10
696.000000
  20
355.000000
  0
SEQEND
  8
C7
  0
POLYLINE
  8
C7
  66
1
  10
703.000000
  20
355.000000
  0
VERTEX
  8
C7
  10
703.000000
  20
355.000000
  0
VERTEX
  8
C7
  10
704.000000
  20
354.000000
  0
VERTEX
  8
C7
  10
703.000000
  20
355.000000
  0
SEQEND
  8
C7
  0
POLYLINE
  8
C7
  66
1
  10
710.000000
  20
355.000000
  0
VERTEX
  8
C7
  10
710.000000
  20
355.000000
  0
VERTEX
  8
C7
  10
710.000000
  20
351.000000
  0
VERTEX
  8
C7
  10
711.000000
  20
351.000000
  0
VERTEX
  8
C7
  10
710.000000
  20
355.000000
  0
SEQEND
  8
C7
  0
POLYLINE
  8
C7
  66
1
  10
737.666687
  20
354.666656
  0
VERTEX
  8
C7
  10
737.666687
  20
354.666656
  0
VERTEX
  8
C7
  10
738.333313
  20
354.333344
  0
VERTEX
  8
C7
  10
737.666687
  20
354.666656
  0
SEQEND
  8
C7
  0
POLYLINE
  8
C7
  66
1
  10
748.000000
  20
355.000000
  0
VERTEX
  8
C7
  10
748.000000
  20
355.000000
  0
VERTEX
  8
C7
  10
748.000000
  20
351.000000
  0
VERTEX
  8
C7
  10
749.000000
  20
351.000000
  0
VERTEX
  8
C7
  10
750.000000
  20
355.000000
  0
VERTEX
  8
C7
  10
748.000000
  20
355.000000
  0
SEQEND
  8
C7
  0
POLYLINE
  8
C7
  66
1
  10
640.000000
  20
352.000000
  0
VERTEX
  8
C7
  10
640.000000
  20
352.000000
  0
VERTEX
  8
C7
  10
641.000000
  20
351.000000
  0
VERTEX
  8
C7
  10
640.000000
  20
352.000000
  0
SEQEND
  8
C7
  0
POLYLINE
  8
C7
  66
1
  10
682.000000
  20
352.000000
  0
VERTEX
  8
C7
  10
682.000000
  20
352.000000
  0
VERTEX
  8
C7
  10
683.000000
  20
351.000000
  0
VERTEX
  8
C7
  10
682.000000
  20
352.000000
  0
SEQEND
  8
C7
  0
POLYLINE
  8
C7
  66
1
  10
703.000000
  20
352.000000
  0
VERTEX
  8
C7
  10
703.000000
  20
352.000000
  0
VERTEX
  8
C7
  10
704.000000
  20
351.000000
  0
VERTEX
  8
C7
  10
703.000000
  20
352.000000
  0
SEQEND
  8
C7
  0
POLYLINE
  8
C7
  66
1
  10
738.000000
  20
352.000000
  0
VERTEX
  8
C7
  10
738.000000
  20
352.000000
  0
VERTEX
  8
C7
  10
739.000000
  20
351.000000
  0
VERTEX
  8
C7
  10
738.000000
  20
352.000000
  0
SEQEND
  8
C7
  0
POLYLINE
  8
C7
  66
1
  10
267.000000
  20
348.000000
  0
VERTEX
  8
C7
  10
267.000000
  20
348.000000
  0
VERTEX
  8
C7
  10
267.000000
  20
342.000000
  0
VERTEX
  8
C7
  10
270.000000
  20
345.000000
  0
VERTEX
  8
C7
  10
271.000000
  20
345.000000
  0
VERTEX
  8
C7
  10
271.000000
  20
342.000000
  0
VERTEX
  8
C7
  10
298.000000
  20
342.000000
  0
VERTEX
  8
C7
  10
298.000000
  20
347.000000
  0
VERTEX
  8
C7
  10
267.000000
  20
348.000000
  0
SEQEND
  8
C7
  0
POLYLINE
  8
C7
  66
1
  10
300.000000
  20
348.000000
  0
VERTEX
  8
C7
  10
300.000000
  20
348.000000
  0
VERTEX
  8
C7
  10
300.000000
  20
342.000000
  0
VERTEX
  8
C7
  10
303.000000
  20
345.000000
  0
VERTEX
  8
C7
  10
304.000000
  20
345.000000
  0
VERTEX
  8
C7
  10
304.000000
  20
342.000000
  0
VERTEX
  8
C7
  10
304.587800
  20
342.008300
  0
VERTEX
  8
C7
  10
305.269500
  20
341.998700
  0
VERTEX
  8
C7
  10
306.036300
  20
341.974200
  0
VERTEX
  8
C7
  10
306.879400
  20
341.937900
  0
VERTEX
  8
C7
  10
307.789800
  20
341.892900
  0
VERTEX
  8
C7
  10
308.758900
  20
341.842400
  0
VERTEX
  8
C7
  10
309.777700
  20
341.789400
  0
VERTEX
  8
C7
  10
310.837400
  20
341.737100
  0
VERTEX
  8
C7
  10
311.929100
  20
341.688600
  0
VERTEX
  8
C7
  10
313.044200
  20
341.646900
  0
VERTEX
  8
C7
  10
314.173600
  20
341.615200
  0
VERTEX
  8
C7
  10
315.308700
  20
341.596600
  0
VERTEX
  8
C7
  10
316.440500
  20
341.594100
  0
VERTEX
  8
C7
  10
317.560200
  20
341.611000
  0
VERTEX
  8
C7
  10
318.659000
  20
341.650200
  0
VERTEX
  8
C7
  10
319.728100
  20
341.715000
  0
VERTEX
  8
C7
  10
320.758600
  20
341.808400
  0
VERTEX
  8
C7
  10
321.741800
  20
341.933500
  0
VERTEX
  8
C7
  10
322.668700
  20
342.093500
  0
VERTEX
  8
C7
  10
323.530500
  20
342.291400
  0
VERTEX
  8
C7
  10
324.318500
  20
342.530300
  0
VERTEX
  8
C7
  10
325.023700
  20
342.813400
  0
VERTEX
  8
C7
  10
325.637400
  20
343.143800
  0
VERTEX
  8
C7
  10
326.150700
  20
343.524500
  0
VERTEX
  8
C7
  10
326.554800
  20
343.958700
  0
VERTEX
  8
C7
  10
326.840800
  20
344.449500
  0
VERTEX
  8
C7
  10
327.000000
  20
345.000000
  0
VERTEX
  8
C7
  10
328.000000
  20
345.000000
  0
VERTEX
  8
C7
  10
328.000000
  20
342.000000
  0
VERTEX
  8
C7
  10
329.188700
  20
342.237800
  0
VERTEX
  8
C7
  10
330.165900
  20
342.535800
  0
VERTEX
  8
C7
  10
330.956800
  20
342.919200
  0
VERTEX
  8
C7
  10
331.586700
  20
343.413200
  0
VERTEX
  8
C7
  10
332.080700
  20
344.043000
  0
VERTEX
  8
C7
  10
332.464100
  20
344.834000
  0
VERTEX
  8
C7
  10
332.762100
  20
345.811200
  0
VERTEX
  8
C7
  10
333.000000
  20
347.000000
  0
VERTEX
  8
C7
  10
322.000000
  20
346.000000
  0
VERTEX
  8
C7
  10
300.000000
  20
348.000000
  0
SEQEND
  8
C7
  0
POLYLINE
  8
C7
  66
1
  10
237.000000
  20
346.000000
  0
VERTEX
  8
C7
  10
237.000000
  20
346.000000
  0
VERTEX
  8
C7
  10
237.000000
  20
341.000000
  0
VERTEX
  8
C7
  10
238.000000
  20
341.000000
  0
VERTEX
  8
C7
  10
237.000000
  20
346.000000
  0
SEQEND
  8
C7
  0
POLYLINE
  8
C7
  66
1
  10
526.000000
  20
346.000000
  0
VERTEX
  8
C7
  10
526.000000
  20
346.000000
  0
VERTEX
  8
C7
  10
526.000000
  20
341.000000
  0
VERTEX
  8
C7
  10
527.000000
  20
341.000000
  0
VERTEX
  8
C7
  10
526.000000
  20
346.000000
  0
SEQEND
  8
C7
  0
POLYLINE
  8
C7
  66
1
  10
292.000000
  20
345.000000
  0
VERTEX
  8
C7
  10
292.000000
  20
345.000000
  0
VERTEX
  8
C7
  10
293.000000
  20
344.000000
  0
VERTEX
  8
C7
  10
292.000000
  20
345.000000
  0
SEQEND
  8
C7
  0
POLYLINE
  8
C7
  66
1
  10
317.000000
  20
345.000000
  0
VERTEX
  8
C7
  10
317.000000
  20
345.000000
  0
VERTEX
  8
C7
  10
318.000000
  20
344.000000
  0
VERTEX
  8
C7
  10
317.000000
  20
345.000000
  0
SEQEND
  8
C7
  0
POLYLINE
  8
C7
  66
1
  10
622.000000
  20
344.000000
  0
VERTEX
  8
C7
  10
622.000000
  20
344.000000
  0
VERTEX
  8
C7
  10
622.000000
  20
334.000000
  0
VERTEX
  8
C7
  10
624.000000
  20
334.000000
  0
VERTEX
  8
C7
  10
624.000000
  20
344.000000
  0
VERTEX
  8
C7
  10
622.000000
  20
344.000000
  0
SEQEND
  8
C7
  0
POLYLINE
  8
C7
  66
1
  10
639.000000
  20
344.000000
  0
VERTEX
  8
C7
  10
639.000000
  20
344.000000
  0
VERTEX
  8
C7
  10
638.000000
  20
341.000000
  0
VERTEX
  8
C7
  10
632.000000
  20
340.000000
  0
VERTEX
  8
C7
  10
631.000000
  20
340.000000
  0
VERTEX
  8
C7
  10
625.000000
  20
342.000000
  0
VERTEX
  8
C7
  10
625.000000
  20
334.000000
  0
VERTEX
  8
C7
  10
627.000000
  20
334.000000
  0
VERTEX
  8
C7
  10
628.000000
  20
340.000000
  0
VERTEX
  8
C7
  10
629.000000
  20
340.000000
  0
VERTEX
  8
C7
  10
629.000000
  20
334.000000
  0
VERTEX
  8
C7
  10
638.000000
  20
334.000000
  0
VERTEX
  8
C7
  10
638.000000
  20
340.000000
  0
VERTEX
  8
C7
  10
639.000000
  20
340.000000
  0
VERTEX
  8
C7
  10
639.000000
  20
334.000000
  0
VERTEX
  8
C7
  10
651.000000
  20
334.000000
  0
VERTEX
  8
C7
  10
651.000000
  20
344.000000
  0
VERTEX
  8
C7
  10
649.000000
  20
344.000000
  0
VERTEX
  8
C7
  10
649.000000
  20
340.000000
  0
VERTEX
  8
C7
  10
642.000000
  20
341.000000
  0
VERTEX
  8
C7
  10
641.000000
  20
344.000000
  0
VERTEX
  8
C7
  10
639.000000
  20
344.000000
  0
SEQEND
  8
C7
  0
POLYLINE
  8
C7
  66
1
  10
652.000000
  20
344.000000
  0
VERTEX
  8
C7
  10
652.000000
  20
344.000000
  0
VERTEX
  8
C7
  10
652.000000
  20
334.000000
  0
VERTEX
  8
C7
  10
654.000000
  20
334.000000
  0
VERTEX
  8
C7
  10
654.000000
  20
344.000000
  0
VERTEX
  8
C7
  10
652.000000
  20
344.000000
  0
SEQEND
  8
C7
  0
POLYLINE
  8
C7
  66
1
  10
663.000000
  20
344.000000
  0
VERTEX
  8
C7
  10
663.000000
  20
344.000000
  0
VERTEX
  8
C7
  10
662.000000
  20
336.000000
  0
VERTEX
  8
C7
  10
661.000000
  20
336.000000
  0
VERTEX
  8
C7
  10
660.868600
  20
337.222000
  0
VERTEX
  8
C7
  10
660.669600
  20
338.269500
  0
VERTEX
  8
C7
  10
660.389400
  20
339.147800
  0
VERTEX
  8
C7
  10
660.014300
  20
339.862000
  0
VERTEX
  8
C7
  10
659.530400
  20
340.417600
  0
VERTEX
  8
C7
  10
658.924100
  20
340.819800
  0
VERTEX
  8
C7
  10
658.181600
  20
341.073800
  0
VERTEX
  8
C7
  10
657.289300
  20
341.185000
  0
VERTEX
  8
C7
  10
656.233300
  20
341.158600
  0
VERTEX
  8
C7
  10
655.000000
  20
341.000000
  0
VERTEX
  8
C7
  10
655.000000
  20
334.000000
  0
VERTEX
  8
C7
  10
655.740600
  20
333.985700
  0
VERTEX
  8
C7
  10
656.571000
  20
333.946900
  0
VERTEX
  8
C7
  10
657.479900
  20
333.889200
  0
VERTEX
  8
C7
  10
658.455700
  20
333.818200
  0
VERTEX
  8
C7
  10
659.487300
  20
333.739700
  0
VERTEX
  8
C7
  10
660.563200
  20
333.659400
  0
VERTEX
  8
C7
  10
661.672000
  20
333.582900
  0
VERTEX
  8
C7
  10
662.802400
  20
333.516000
  0
VERTEX
  8
C7
  10
663.943000
  20
333.464300
  0
VERTEX
  8
C7
  10
665.082400
  20
333.433500
  0
VERTEX
  8
C7
  10
666.209400
  20
333.429400
  0
VERTEX
  8
C7
  10
667.312400
  20
333.457500
  0
VERTEX
  8
C7
  10
668.380200
  20
333.523700
  0
VERTEX
  8
C7
  10
669.401400
  20
333.633600
  0
VERTEX
  8
C7
  10
670.364600
  20
333.792900
  0
VERTEX
  8
C7
  10
671.258500
  20
334.007200
  0
VERTEX
  8
C7
  10
672.071600
  20
334.282400
  0
VERTEX
  8
C7
  10
672.792700
  20
334.624000
  0
VERTEX
  8
C7
  10
673.410400
  20
335.037800
  0
VERTEX
  8
C7
  10
674.154100
  20
335.716600
  0
VERTEX
  8
C7
  10
674.679100
  20
336.369500
  0
VERTEX
  8
C7
  10
675.002500
  20
336.992000
  0
VERTEX
  8
C7
  10
675.141500
  20
337.579700
  0
VERTEX
  8
C7
  10
675.113400
  20
338.128000
  0
VERTEX
  8
C7
  10
674.935200
  20
338.632400
  0
VERTEX
  8
C7
  10
674.624300
  20
339.088500
  0
VERTEX
  8
C7
  10
674.197900
  20
339.491700
  0
VERTEX
  8
C7
  10
673.673100
  20
339.837500
  0
VERTEX
  8
C7
  10
673.067200
  20
340.121500
  0
VERTEX
  8
C7
  10
672.397400
  20
340.339200
  0
VERTEX
  8
C7
  10
671.680900
  20
340.486000
  0
VERTEX
  8
C7
  10
670.934800
  20
340.557400
  0
VERTEX
  8
C7
  10
670.176500
  20
340.549000
  0
VERTEX
  8
C7
  10
669.423100
  20
340.456300
  0
VERTEX
  8
C7
  10
668.691900
  20
340.274800
  0
VERTEX
  8
C7
  10
668.000000
  20
340.000000
  0
VERTEX
  8
C7
  10
668.000000
  20
344.000000
  0
VERTEX
  8
C7
  10
663.000000
  20
344.000000
  0
SEQEND
  8
C7
  0
POLYLINE
  8
C7
  66
1
  10
687.000000
  20
331.000000
  0
VERTEX
  8
C7
  10
687.000000
  20
331.000000
  0
VERTEX
  8
C7
  10
686.000000
  20
343.000000
  0
VERTEX
  8
C7
  10
687.000000
  20
343.000000
  0
VERTEX
  8
C7
  10
687.000000
  20
334.000000
  0
VERTEX
  8
C7
  10
695.000000
  20
336.000000
  0
VERTEX
  8
C7
  10
696.000000
  20
336.000000
  0
VERTEX
  8
C7
  10
696.535300
  20
335.426200
  0
VERTEX
  8
C7
  10
697.139000
  20
334.874100
  0
VERTEX
  8
C7
  10
697.801700
  20
334.350000
  0
VERTEX
  8
C7
  10
698.514100
  20
333.860500
  0
VERTEX
  8
C7
  10
699.266700
  20
333.411900
  0
VERTEX
  8
C7
  10
700.050100
  20
333.010800
  0
VERTEX
  8
C7
  10
700.855000
  20
332.663700
  0
VERTEX
  8
C7
  10
701.672000
  20
332.376900
  0
VERTEX
  8
C7
  10
702.491600
  20
332.157000
  0
VERTEX
  8
C7
  10
703.304600
  20
332.010400
  0
VERTEX
  8
C7
  10
704.101400
  20
331.943600
  0
VERTEX
  8
C7
  10
704.872800
  20
331.963100
  0
VERTEX
  8
C7
  10
705.609300
  20
332.075300
  0
VERTEX
  8
C7
  10
706.301600
  20
332.286700
  0
VERTEX
  8
C7
  10
706.940200
  20
332.603700
  0
VERTEX
  8
C7
  10
707.515800
  20
333.032800
  0
VERTEX
  8
C7
  10
708.018900
  20
333.580600
  0
VERTEX
  8
C7
  10
708.440300
  20
334.253400
  0
VERTEX
  8
C7
  10
708.770400
  20
335.057700
  0
VERTEX
  8
C7
  10
709.000000
  20
336.000000
  0
VERTEX
  8
C7
  10
710.000000
  20
336.000000
  0
VERTEX
  8
C7
  10
710.494300
  20
335.476000
  0
VERTEX
  8
C7
  10
710.961400
  20
335.046800
  0
VERTEX
  8
C7
  10
711.401400
  20
334.707400
  0
VERTEX
  8
C7
  10
711.814400
  20
334.452700
  0
VERTEX
  8
C7
  10
712.200700
  20
334.277800
  0
VERTEX
  8
C7
  10
712.560500
  20
334.177600
  0
VERTEX
  8
C7
  10
712.894000
  20
334.147300
  0
VERTEX
  8
C7
  10
713.201400
  20
334.181700
  0
VERTEX
  8
C7
  10
713.482800
  20
334.275900
  0
VERTEX
  8
C7
  10
713.738500
  20
334.425000
  0
VERTEX
  8
C7
  10
713.968700
  20
334.623800
  0
VERTEX
  8
C7
  10
714.173600
  20
334.867500
  0
VERTEX
  8
C7
  10
714.353300
  20
335.151000
  0
VERTEX
  8
C7
  10
714.508200
  20
335.469400
  0
VERTEX
  8
C7
  10
714.638300
  20
335.817600
  0
VERTEX
  8
C7
  10
714.743900
  20
336.190700
  0
VERTEX
  8
C7
  10
714.825100
  20
336.583700
  0
VERTEX
  8
C7
  10
714.882300
  20
336.991500
  0
VERTEX
  8
C7
  10
714.915500
  20
337.409200
  0
VERTEX
  8
C7
  10
714.925000
  20
337.831900
  0
VERTEX
  8
C7
  10
714.911000
  20
338.254400
  0
VERTEX
  8
C7
  10
714.873700
  20
338.671900
  0
VERTEX
  8
C7
  10
714.813300
  20
339.079300
  0
VERTEX
  8
C7
  10
714.729900
  20
339.471600
  0
VERTEX
  8
C7
  10
714.623800
  20
339.843900
  0
VERTEX
  8
C7
  10
714.495200
  20
340.191100
  0
VERTEX
  8
C7
  10
714.344300
  20
340.508300
  0
VERTEX
  8
C7
  10
714.171300
  20
340.790400
  0
VERTEX
  8
C7
  10
713.976300
  20
341.032600
  0
VERTEX
  8
C7
  10
713.759600
  20
341.229700
  0
VERTEX
  8
C7
  10
713.521400
  20
341.376800
  0
VERTEX
  8
C7
  10
713.261900
  20
341.468900
  0
VERTEX
  8
C7
  10
712.981300
  20
341.501100
  0
VERTEX
  8
C7
  10
712.679700
  20
341.468300
  0
VERTEX
  8
C7
  10
712.357500
  20
341.365500
  0
VERTEX
  8
C7
  10
712.014700
  20
341.187700
  0
VERTEX
  8
C7
  10
711.651600
  20
340.930000
  0
VERTEX
  8
C7
  10
711.268300
  20
340.587400
  0
VERTEX
  8
C7
  10
710.865200
  20
340.154800
  0
VERTEX
  8
C7
  10
710.442300
  20
339.627300
  0
VERTEX
  8
C7
  10
710.000000
  20
339.000000
  0
VERTEX
  8
C7
  10
709.000000
  20
339.000000
  0
VERTEX
  8
C7
  10
709.000000
  20
342.000000
  0
VERTEX
  8
C7
  10
702.000000
  20
340.000000
  0
VERTEX
  8
C7
  10
702.000000
  20
344.000000
  0
VERTEX
  8
C7
  10
700.946200
  20
343.528000
  0
VERTEX
  8
C7
  10
699.978100
  20
343.037200
  0
VERTEX
  8
C7
  10
699.094900
  20
342.516700
  0
VERTEX
  8
C7
  10
698.296000
  20
341.955800
  0
VERTEX
  8
C7
  10
697.580500
  20
341.343900
  0
VERTEX
  8
C7
  10
696.947800
  20
340.670200
  0
VERTEX
  8
C7
  10
696.397100
  20
339.924000
  0
VERTEX
  8
C7
  10
695.927700
  20
339.094600
  0
VERTEX
  8
C7
  10
695.538900
  20
338.171200
  0
VERTEX
  8
C7
  10
695.229900
  20
337.143300
  0
VERTEX
  8
C7
  10
695.000000
  20
336.000000
  0
VERTEX
  8
C7
  10
689.000000
  20
336.000000
  0
VERTEX
  8
C7
  10
689.000000
  20
338.000000
  0
VERTEX
  8
C7
  10
694.000000
  20
338.000000
  0
VERTEX
  8
C7
  10
694.000000
  20
340.000000
  0
VERTEX
  8
C7
  10
689.000000
  20
340.000000
  0
VERTEX
  8
C7
  10
689.000000
  20
342.000000
  0
VERTEX
  8
C7
  10
695.000000
  20
342.000000
  0
VERTEX
  8
C7
  10
695.000000
  20
344.000000
  0
VERTEX
  8
C7
  10
694.326700
  20
343.983700
  0
VERTEX
  8
C7
  10
693.634800
  20
343.935600
  0
VERTEX
  8
C7
  10
692.928400
  20
343.856500
  0
VERTEX
  8
C7
  10
692.211800
  20
343.747300
  0
VERTEX
  8
C7
  10
691.489200
  20
343.609000
  0
VERTEX
  8
C7
  10
690.764800
  20
343.442500
  0
VERTEX
  8
C7
  10
690.042900
  20
343.248600
  0
VERTEX
  8
C7
  10
689.327800
  20
343.028300
  0
VERTEX
  8
C7
  10
688.623600
  20
342.782400
  0
VERTEX
  8
C7
  10
687.934700
  20
342.512000
  0
VERTEX
  8
C7
  10
687.265200
  20
342.217800
  0
VERTEX
  8
C7
  10
686.619500
  20
341.900900
  0
VERTEX
  8
C7
  10
686.001700
  20
341.562100
  0
VERTEX
  8
C7
  10
685.416100
  20
341.202200
  0
VERTEX
  8
C7
  10
684.866900
  20
340.822400
  0
VERTEX
  8
C7
  10
684.358400
  20
340.423300
  0
VERTEX
  8
C7
  10
683.894900
  20
340.006000
  0
VERTEX
  8
C7
  10
683.480500
  20
339.571400
  0
VERTEX
  8
C7
  10
683.119500
  20
339.120300
  0
VERTEX
  8
C7
  10
682.816200
  20
338.653700
  0
VERTEX
  8
C7
  10
682.574800
  20
338.172500
  0
VERTEX
  8
C7
  10
682.399500
  20
337.677600
  0
VERTEX
  8
C7
  10
682.294600
  20
337.169900
  0
VERTEX
  8
C7
  10
682.264400
  20
336.650300
  0
VERTEX
  8
C7
  10
682.313000
  20
336.119700
  0
VERTEX
  8
C7
  10
682.444700
  20
335.579000
  0
VERTEX
  8
C7
  10
682.663800
  20
335.029200
  0
VERTEX
  8
C7
  10
682.974500
  20
334.471100
  0
VERTEX
  8
C7
  10
683.381100
  20
333.905600
  0
VERTEX
  8
C7
  10
683.887700
  20
333.333700
  0
VERTEX
  8
C7
  10
684.498600
  20
332.756300
  0
VERTEX
  8
C7
  10
685.218200
  20
332.174300
  0
VERTEX
  8
C7
  10
686.050500
  20
331.588500
  0
VERTEX
  8
C7
  10
687.000000
  20
331.000000
  0
SEQEND
  8
C7
  0
POLYLINE
  8
C7
  66
1
  10
727.000000
  20
340.000000
  0
VERTEX
  8
C7
  10
727.000000
  20
340.000000
  0
VERTEX
  8
C7
  10
726.305800
  20
340.275200
  0
VERTEX
  8
C7
  10
725.572600
  20
340.455900
  0
VERTEX
  8
C7
  10
724.817500
  20
340.546800
  0
VERTEX
  8
C7
  10
724.057800
  20
340.552600
  0
VERTEX
  8
C7
  10
723.310600
  20
340.478000
  0
VERTEX
  8
C7
  10
722.593400
  20
340.327800
  0
VERTEX
  8
C7
  10
721.923100
  20
340.106600
  0
VERTEX
  8
C7
  10
721.317200
  20
339.819300
  0
VERTEX
  8
C7
  10
720.792800
  20
339.470600
  0
VERTEX
  8
C7
  10
720.367100
  20
339.065200
  0
VERTEX
  8
C7
  10
720.057500
  20
338.607900
  0
VERTEX
  8
C7
  10
719.881000
  20
338.103300
  0
VERTEX
  8
C7
  10
719.855000
  20
337.556200
  0
VERTEX
  8
C7
  10
719.996700
  20
336.971400
  0
VERTEX
  8
C7
  10
720.323300
  20
336.353600
  0
VERTEX
  8
C7
  10
720.852100
  20
335.707400
  0
VERTEX
  8
C7
  10
721.600300
  20
335.037800
  0
VERTEX
  8
C7
  10
722.335100
  20
334.592100
  0
VERTEX
  8
C7
  10
723.187800
  20
334.287400
  0
VERTEX
  8
C7
  10
724.129200
  20
334.098700
  0
VERTEX
  8
C7
  10
725.129900
  20
334.000800
  0
VERTEX
  8
C7
  10
726.160700
  20
333.968900
  0
VERTEX
  8
C7
  10
727.192400
  20
333.977800
  0
VERTEX
  8
C7
  10
728.195700
  20
334.002700
  0
VERTEX
  8
C7
  10
729.141300
  20
334.018400
  0
VERTEX
  8
C7
  10
730.000000
  20
334.000000
  0
VERTEX
  8
C7
  10
731.000000
  20
344.000000
  0
VERTEX
  8
C7
  10
727.000000
  20
340.000000
  0
SEQEND
  8
C7
  0
POLYLINE
  8
C7
  66
1
  10
734.000000
  20
344.000000
  0
VERTEX
  8
C7
  10
734.000000
  20
344.000000
  0
VERTEX
  8
C7
  10
734.000000
  20
334.000000
  0
VERTEX
  8
C7
  10
736.000000
  20
334.000000
  0
VERTEX
  8
C7
  10
736.000000
  20
344.000000
  0
VERTEX
  8
C7
  10
734.000000
  20
344.000000
  0
SEQEND
  8
C7
  0
POLYLINE
  8
C7
  66
1
  10
676.000000
  20
342.000000
  0
VERTEX
  8
C7
  10
676.000000
  20
342.000000
  0
VERTEX
  8
C7
  10
676.000000
  20
334.000000
  0
VERTEX
  8
C7
  10
678.000000
  20
334.000000
  0
VERTEX
  8
C7
  10
678.000000
  20
339.000000
  0
VERTEX
  8
C7
  10
680.000000
  20
339.000000
  0
VERTEX
  8
C7
  10
680.000000
  20
334.000000
  0
VERTEX
  8
C7
  10
682.000000
  20
334.000000
  0
VERTEX
  8
C7
  10
681.975900
  20
335.114200
  0
VERTEX
  8
C7
  10
681.923000
  20
336.142200
  0
VERTEX
  8
C7
  10
681.829400
  20
337.084700
  0
VERTEX
  8
C7
  10
681.682900
  20
337.942600
  0
VERTEX
  8
C7
  10
681.471600
  20
338.716900
  0
VERTEX
  8
C7
  10
681.183400
  20
339.408200
  0
VERTEX
  8
C7
  10
680.806100
  20
340.017600
  0
VERTEX
  8
C7
  10
680.327900
  20
340.545800
  0
VERTEX
  8
C7
  10
679.736600
  20
340.993800
  0
VERTEX
  8
C7
  10
679.020200
  20
341.362300
  0
VERTEX
  8
C7
  10
678.166700
  20
341.652300
  0
VERTEX
  8
C7
  10
677.163900
  20
341.864500
  0
VERTEX
  8
C7
  10
676.000000
  20
342.000000
  0
SEQEND
  8
C7
  0
POLYLINE
  8
C7
  66
1
  10
737.000000
  20
342.000000
  0
VERTEX
  8
C7
  10
737.000000
  20
342.000000
  0
VERTEX
  8
C7
  10
737.000000
  20
334.000000
  0
VERTEX
  8
C7
  10
739.000000
  20
334.000000
  0
VERTEX
  8
C7
  10
740.000000
  20
340.000000
  0
VERTEX
  8
C7
  10
741.000000
  20
340.000000
  0
VERTEX
  8
C7
  10
741.000000
  20
334.000000
  0
VERTEX
  8
C7
  10
743.000000
  20
334.000000
  0
VERTEX
  8
C7
  10
742.975900
  20
335.114200
  0
VERTEX
  8
C7
  10
742.923000
  20
336.142200
  0
VERTEX
  8
C7
  10
742.829400
  20
337.084700
  0
VERTEX
  8
C7
  10
742.683000
  20
337.942600
  0
VERTEX
  8
C7
  10
742.471600
  20
338.716900
  0
VERTEX
  8
C7
  10
742.183400
  20
339.408200
  0
VERTEX
  8
C7
  10
741.806200
  20
340.017600
  0
VERTEX
  8
C7
  10
741.327900
  20
340.545800
  0
VERTEX
  8
C7
  10
740.736600
  20
340.993800
  0
VERTEX
  8
C7
  10
740.020200
  20
341.362300
  0
VERTEX
  8
C7
  10
739.166700
  20
341.652300
  0
VERTEX
  8
C7
  10
738.163900
  20
341.864500
  0
VERTEX
  8
C7
  10
737.000000
  20
342.000000
  0
SEQEND
  8
C7
  0
POLYLINE
  8
C7
  66
1
  10
744.000000
  20
342.000000
  0
VERTEX
  8
C7
  10
744.000000
  20
342.000000
  0
VERTEX
  8
C7
  10
744.000000
  20
334.000000
  0
VERTEX
  8
C7
  10
746.000000
  20
334.000000
  0
VERTEX
  8
C7
  10
747.000000
  20
340.000000
  0
VERTEX
  8
C7
  10
748.000000
  20
340.000000
  0
VERTEX
  8
C7
  10
748.000000
  20
334.000000
  0
VERTEX
  8
C7
  10
750.000000
  20
334.000000
  0
VERTEX
  8
C7
  10
749.975900
  20
335.114200
  0
VERTEX
  8
C7
  10
749.923000
  20
336.142200
  0
VERTEX
  8
C7
  10
749.829400
  20
337.084700
  0
VERTEX
  8
C7
  10
749.683000
  20
337.942600
  0
VERTEX
  8
C7
  10
749.471600
  20
338.716900
  0
VERTEX
  8
C7
  10
749.183400
  20
339.408200
  0
VERTEX
  8
C7
  10
748.806200
  20
340.017600
  0
VERTEX
  8
C7
  10
748.327900
  20
340.545800
  0
VERTEX
  8
C7
  10
747.736600
  20
340.993800
  0
VERTEX
  8
C7
  10
747.020200
  20
341.362300
  0
VERTEX
  8
C7
  10
746.166700
  20
341.652300
  0
VERTEX
  8
C7
  10
745.163900
  20
341.864500
  0
VERTEX
  8
C7
  10
744.000000
  20
342.000000
  0
SEQEND
  8
C7
  0
POLYLINE
  8
C7
  66
1
  10
760.000000
  20
334.000000
  0
VERTEX
  8
C7
  10
760.000000
  20
334.000000
  0
VERTEX
  8
C7
  10
763.000000
  20
340.000000
  0
VERTEX
  8
C7
  10
763.000000
  20
341.000000
  0
VERTEX
  8
C7
  10
757.000000
  20
340.000000
  0
VERTEX
  8
C7
  10
756.276200
  20
340.381300
  0
VERTEX
  8
C7
  10
755.519100
  20
340.606900
  0
VERTEX
  8
C7
  10
754.753200
  20
340.686600
  0
VERTEX
  8
C7
  10
754.003300
  20
340.630200
  0
VERTEX
  8
C7
  10
753.294100
  20
340.447400
  0
VERTEX
  8
C7
  10
752.650200
  20
340.147900
  0
VERTEX
  8
C7
  10
752.096300
  20
339.741600
  0
VERTEX
  8
C7
  10
751.657200
  20
339.238100
  0
VERTEX
  8
C7
  10
751.357500
  20
338.647300
  0
VERTEX
  8
C7
  10
751.221800
  20
337.978900
  0
VERTEX
  8
C7
  10
751.274900
  20
337.242600
  0
VERTEX
  8
C7
  10
751.541500
  20
336.448300
  0
VERTEX
  8
C7
  10
752.046300
  20
335.605700
  0
VERTEX
  8
C7
  10
752.655200
  20
334.992500
  0
VERTEX
  8
C7
  10
753.414200
  20
334.559500
  0
VERTEX
  8
C7
  10
754.288600
  20
334.276100
  0
VERTEX
  8
C7
  10
755.243200
  20
334.111600
  0
VERTEX
  8
C7
  10
756.243300
  20
334.035300
  0
VERTEX
  8
C7
  10
757.254000
  20
334.016700
  0
VERTEX
  8
C7
  10
758.240200
  20
334.025000
  0
VERTEX
  8
C7
  10
759.167200
  20
334.029600
  0
VERTEX
  8
C7
  10
760.000000
  20
334.000000
  0
SEQEND
  8
C7
  0
POLYLINE
  8
C7
  66
1
  10
267.000000
  20
340.000000
  0
VERTEX
  8
C7
  10
267.000000
  20
340.000000
  0
VERTEX
  8
C7
  10
268.000000
  20
335.000000
  0
VERTEX
  8
C7
  10
283.000000
  20
335.000000
  0
VERTEX
  8
C7
  10
283.000000
  20
339.000000
  0
VERTEX
  8
C7
  10
280.000000
  20
340.000000
  0
VERTEX
  8
C7
  10
279.000000
  20
336.000000
  0
VERTEX
  8
C7
  10
278.000000
  20
336.000000
  0
VERTEX
  8
C7
  10
277.566500
  20
337.114600
  0
VERTEX
  8
C7
  10
277.078300
  20
337.989200
  0
VERTEX
  8
C7
  10
276.517600
  20
338.655800
  0
VERTEX
  8
C7
  10
275.866500
  20
339.146900
  0
VERTEX
  8
C7
  10
275.107000
  20
339.494600
  0
VERTEX
  8
C7
  10
274.221400
  20
339.731200
  0
VERTEX
  8
C7
  10
273.191600
  20
339.888900
  0
VERTEX
  8
C7
  10
272.000000
  20
340.000000
  0
VERTEX
  8
C7
  10
272.000000
  20
336.000000
  0
VERTEX
  8
C7
  10
270.000000
  20
336.000000
  0
VERTEX
  8
C7
  10
270.000000
  20
340.000000
  0
VERTEX
  8
C7
  10
267.000000
  20
340.000000
  0
SEQEND
  8
C7
  0
POLYLINE
  8
C7
  66
1
  10
284.000000
  20
340.000000
  0
VERTEX
  8
C7
  10
284.000000
  20
340.000000
  0
VERTEX
  8
C7
  10
284.000000
  20
335.000000
  0
VERTEX
  8
C7
  10
287.000000
  20
337.000000
  0
VERTEX
  8
C7
  10
288.000000
  20
337.000000
  0
VERTEX
  8
C7
  10
293.000000
  20
335.000000
  0
VERTEX
  8
C7
  10
293.000000
  20
339.000000
  0
VERTEX
  8
C7
  10
284.000000
  20
340.000000
  0
SEQEND
  8
C7
  0
POLYLINE
  8
C7
  66
1
  10
295.000000
  20
340.000000
  0
VERTEX
  8
C7
  10
295.000000
  20
340.000000
  0
VERTEX
  8
C7
  10
294.000000
  20
339.000000
  0
VERTEX
  8
C7
  10
295.000000
  20
335.000000
  0
VERTEX
  8
C7
  10
306.000000
  20
333.000000
  0
VERTEX
  8
C7
  10
307.000000
  20
333.000000
  0
VERTEX
  8
C7
  10
320.000000
  20
335.000000
  0
VERTEX
  8
C7
  10
320.000000
  20
339.000000
  0
VERTEX
  8
C7
  10
295.000000
  20
340.000000
  0
SEQEND
  8
C7
  0
POLYLINE
  8
C7
  66
1
  10
330.000000
  20
339.000000
  0
VERTEX
  8
C7
  10
330.000000
  20
339.000000
  0
VERTEX
  8
C7
  10
331.000000
  20
335.000000
  0
VERTEX
  8
C7
  10
340.000000
  20
335.000000
  0
VERTEX
  8
C7
  10
339.604700
  20
335.982000
  0
VERTEX
  8
C7
  10
339.121800
  20
336.822300
  0
VERTEX
  8
C7
  10
338.558300
  20
337.528900
  0
VERTEX
  8
C7
  10
337.920900
  20
338.109700
  0
VERTEX
  8
C7
  10
337.216700
  20
338.572900
  0
VERTEX
  8
C7
  10
336.452400
  20
338.926300
  0
VERTEX
  8
C7
  10
335.634900
  20
339.178000
  0
VERTEX
  8
C7
  10
334.771300
  20
339.336000
  0
VERTEX
  8
C7
  10
333.868200
  20
339.408300
  0
VERTEX
  8
C7
  10
332.932600
  20
339.402800
  0
VERTEX
  8
C7
  10
331.971500
  20
339.327600
  0
VERTEX
  8
C7
  10
330.991600
  20
339.190600
  0
VERTEX
  8
C7
  10
330.000000
  20
339.000000
  0
SEQEND
  8
C7
  0
POLYLINE
  8
C7
  66
1
  10
341.000000
  20
335.000000
  0
VERTEX
  8
C7
  10
341.000000
  20
335.000000
  0
VERTEX
  8
C7
  10
359.000000
  20
335.000000
  0
VERTEX
  8
C7
  10
359.000000
  20
340.000000
  0
VERTEX
  8
C7
  10
358.290200
  20
339.873700
  0
VERTEX
  8
C7
  10
357.535500
  20
339.789200
  0
VERTEX
  8
C7
  10
356.741800
  20
339.740200
  0
VERTEX
  8
C7
  10
355.914700
  20
339.720300
  0
VERTEX
  8
C7
  10
355.060000
  20
339.723500
  0
VERTEX
  8
C7
  10
354.183400
  20
339.743400
  0
VERTEX
  8
C7
  10
353.290700
  20
339.773700
  0
VERTEX
  8
C7
  10
352.387500
  20
339.808300
  0
VERTEX
  8
C7
  10
351.479700
  20
339.841000
  0
VERTEX
  8
C7
  10
350.572900
  20
339.865400
  0
VERTEX
  8
C7
  10
349.673000
  20
339.875300
  0
VERTEX
  8
C7
  10
348.785500
  20
339.864500
  0
VERTEX
  8
C7
  10
347.916400
  20
339.826800
  0
VERTEX
  8
C7
  10
347.071200
  20
339.755800
  0
VERTEX
  8
C7
  10
346.255800
  20
339.645500
  0
VERTEX
  8
C7
  10
345.475900
  20
339.489400
  0
VERTEX
  8
C7
  10
344.737200
  20
339.281500
  0
VERTEX
  8
C7
  10
344.045400
  20
339.015400
  0
VERTEX
  8
C7
  10
343.406400
  20
338.684900
  0
VERTEX
  8
C7
  10
342.825800
  20
338.283700
  0
VERTEX
  8
C7
  10
342.309300
  20
337.805700
  0
VERTEX
  8
C7
  10
341.862800
  20
337.244500
  0
VERTEX
  8
C7
  10
341.491900
  20
336.594000
  0
VERTEX
  8
C7
  10
341.202400
  20
335.847900
  0
VERTEX
  8
C7
  10
341.000000
  20
335.000000
  0
SEQEND
  8
C7
  0
POLYLINE
  8
C7
  66
1
  10
361.000000
  20
340.000000
  0
VERTEX
  8
C7
  10
361.000000
  20
340.000000
  0
VERTEX
  8
C7
  10
361.000000
  20
335.000000
  0
VERTEX
  8
C7
  10
365.000000
  20
337.000000
  0
VERTEX
  8
C7
  10
366.000000
  20
337.000000
  0
VERTEX
  8
C7
  10
371.000000
  20
335.000000
  0
VERTEX
  8
C7
  10
371.000000
  20
339.000000
  0
VERTEX
  8
C7
  10
361.000000
  20
340.000000
  0
SEQEND
  8
C7
  0
POLYLINE
  8
C7
  66
1
  10
635.000000
  20
340.000000
  0
VERTEX
  8
C7
  10
635.000000
  20
340.000000
  0
VERTEX
  8
C7
  10
636.000000
  20
339.000000
  0
VERTEX
  8
C7
  10
635.000000
  20
340.000000
  0
SEQEND
  8
C7
  0
POLYLINE
  8
C7
  66
1
  10
641.000000
  20
340.000000
  0
VERTEX
  8
C7
  10
641.000000
  20
340.000000
  0
VERTEX
  8
C7
  10
641.000000
  20
336.000000
  0
VERTEX
  8
C7
  10
642.000000
  20
336.000000
  0
VERTEX
  8
C7
  10
641.000000
  20
340.000000
  0
SEQEND
  8
C7
  0
POLYLINE
  8
C7
  66
1
  10
645.000000
  20
340.000000
  0
VERTEX
  8
C7
  10
645.000000
  20
340.000000
  0
VERTEX
  8
C7
  10
646.000000
  20
339.000000
  0
VERTEX
  8
C7
  10
645.000000
  20
340.000000
  0
SEQEND
  8
C7
  0
POLYLINE
  8
C7
  66
1
  10
658.000000
  20
340.000000
  0
VERTEX
  8
C7
  10
658.000000
  20
340.000000
  0
VERTEX
  8
C7
  10
659.000000
  20
339.000000
  0
VERTEX
  8
C7
  10
658.000000
  20
340.000000
  0
SEQEND
  8
C7
  0
POLYLINE
  8
C7
  66
1
  10
664.000000
  20
340.000000
  0
VERTEX
  8
C7
  10
664.000000
  20
340.000000
  0
VERTEX
  8
C7
  10
664.000000
  20
336.000000
  0
VERTEX
  8
C7
  10
666.000000
  20
336.000000
  0
VERTEX
  8
C7
  10
666.000000
  20
340.000000
  0
VERTEX
  8
C7
  10
664.000000
  20
340.000000
  0
SEQEND
  8
C7
  0
POLYLINE
  8
C7
  66
1
  10
671.000000
  20
340.000000
  0
VERTEX
  8
C7
  10
671.000000
  20
340.000000
  0
VERTEX
  8
C7
  10
673.000000
  20
336.000000
  0
VERTEX
  8
C7
  10
671.000000
  20
340.000000
  0
SEQEND
  8
C7
  0
POLYLINE
  8
C7
  66
1
  10
698.000000
  20
340.000000
  0
VERTEX
  8
C7
  10
698.000000
  20
340.000000
  0
VERTEX
  8
C7
  10
698.000000
  20
336.000000
  0
VERTEX
  8
C7
  10
699.000000
  20
336.000000
  0
VERTEX
  8
C7
  10
698.000000
  20
340.000000
  0
SEQEND
  8
C7
  0
POLYLINE
  8
C7
  66
1
  10
705.000000
  20
340.000000
  0
VERTEX
  8
C7
  10
705.000000
  20
340.000000
  0
VERTEX
  8
C7
  10
705.000000
  20
336.000000
  0
VERTEX
  8
C7
  10
706.000000
  20
336.000000
  0
VERTEX
  8
C7
  10
705.000000
  20
340.000000
  0
SEQEND
  8
C7
  0
POLYLINE
  8
C7
  66
1
  10
723.000000
  20
340.000000
  0
VERTEX
  8
C7
  10
723.000000
  20
340.000000
  0
VERTEX
  8
C7
  10
722.000000
  20
336.000000
  0
VERTEX
  8
C7
  10
723.000000
  20
340.000000
  0
SEQEND
  8
C7
  0
POLYLINE
  8
C7
  66
1
  10
754.000000
  20
340.000000
  0
VERTEX
  8
C7
  10
754.000000
  20
340.000000
  0
VERTEX
  8
C7
  10
755.000000
  20
339.000000
  0
VERTEX
  8
C7
  10
754.000000
  20
340.000000
  0
SEQEND
  8
C7
  0
POLYLINE
  8
C7
  66
1
  10
274.000000
  20
339.000000
  0
VERTEX
  8
C7
  10
274.000000
  20
339.000000
  0
VERTEX
  8
C7
  10
274.000000
  20
336.000000
  0
VERTEX
  8
C7
  10
277.000000
  20
337.000000
  0
VERTEX
  8
C7
  10
277.000000
  20
338.000000
  0
VERTEX
  8
C7
  10
274.000000
  20
339.000000
  0
SEQEND
  8
C7
  0
POLYLINE
  8
C7
  66
1
  10
321.000000
  20
339.000000
  0
VERTEX
  8
C7
  10
321.000000
  20
339.000000
  0
VERTEX
  8
C7
  10
321.000000
  20
335.000000
  0
VERTEX
  8
C7
  10
329.000000
  20
335.000000
  0
VERTEX
  8
C7
  10
329.000000
  20
339.000000
  0
VERTEX
  8
C7
  10
321.000000
  20
339.000000
  0
SEQEND
  8
C7
  0
POLYLINE
  8
C7
  66
1
  10
237.000000
  20
338.000000
  0
VERTEX
  8
C7
  10
237.000000
  20
338.000000
  0
VERTEX
  8
C7
  10
237.000000
  20
332.000000
  0
VERTEX
  8
C7
  10
238.000000
  20
332.000000
  0
VERTEX
  8
C7
  10
237.000000
  20
338.000000
  0
SEQEND
  8
C7
  0
POLYLINE
  8
C7
  66
1
  10
307.333344
  20
337.333344
  0
VERTEX
  8
C7
  10
307.333344
  20
337.333344
  0
VERTEX
  8
C7
  10
307.666656
  20
336.666656
  0
VERTEX
  8
C7
  10
307.333344
  20
337.333344
  0
SEQEND
  8
C7
  0
POLYLINE
  8
C7
  66
1
  10
526.000000
  20
338.000000
  0
VERTEX
  8
C7
  10
526.000000
  20
338.000000
  0
VERTEX
  8
C7
  10
526.000000
  20
332.000000
  0
VERTEX
  8
C7
  10
527.000000
  20
332.000000
  0
VERTEX
  8
C7
  10
526.000000
  20
338.000000
  0
SEQEND
  8
C7
  0
POLYLINE
  8
C7
  66
1
  10
632.000000
  20
338.000000
  0
VERTEX
  8
C7
  10
632.000000
  20
338.000000
  0
VERTEX
  8
C7
  10
633.000000
  20
337.000000
  0
VERTEX
  8
C7
  10
632.000000
  20
338.000000
  0
SEQEND
  8
C7
  0
POLYLINE
  8
C7
  66
1
  10
346.000000
  20
337.000000
  0
VERTEX
  8
C7
  10
346.000000
  20
337.000000
  0
VERTEX
  8
C7
  10
347.000000
  20
336.000000
  0
VERTEX
  8
C7
  10
346.000000
  20
337.000000
  0
SEQEND
  8
C7
  0
POLYLINE
  8
C7
  66
1
  10
357.000000
  20
337.000000
  0
VERTEX
  8
C7
  10
357.000000
  20
337.000000
  0
VERTEX
  8
C7
  10
358.000000
  20
336.000000
  0
VERTEX
  8
C7
  10
357.000000
  20
337.000000
  0
SEQEND
  8
C7
  0
POLYLINE
  8
C7
  66
1
  10
634.666687
  20
336.666656
  0
VERTEX
  8
C7
  10
634.666687
  20
336.666656
  0
VERTEX
  8
C7
  10
635.333313
  20
336.333344
  0
VERTEX
  8
C7
  10
634.666687
  20
336.666656
  0
SEQEND
  8
C7
  0
POLYLINE
  8
C7
  66
1
  10
644.666687
  20
336.666656
  0
VERTEX
  8
C7
  10
644.666687
  20
336.666656
  0
VERTEX
  8
C7
  10
645.333313
  20
336.333344
  0
VERTEX
  8
C7
  10
644.666687
  20
336.666656
  0
SEQEND
  8
C7
  0
POLYLINE
  8
C7
  66
1
  10
657.666687
  20
336.666656
  0
VERTEX
  8
C7
  10
657.666687
  20
336.666656
  0
VERTEX
  8
C7
  10
658.333313
  20
336.333344
  0
VERTEX
  8
C7
  10
657.666687
  20
336.666656
  0
SEQEND
  8
C7
  0
POLYLINE
  8
C7
  66
1
  10
712.666687
  20
336.666656
  0
VERTEX
  8
C7
  10
712.666687
  20
336.666656
  0
VERTEX
  8
C7
  10
713.333313
  20
336.333344
  0
VERTEX
  8
C7
  10
712.666687
  20
336.666656
  0
SEQEND
  8
C7
  0
POLYLINE
  8
C7
  66
1
  10
753.666687
  20
336.666656
  0
VERTEX
  8
C7
  10
753.666687
  20
336.666656
  0
VERTEX
  8
C7
  10
754.333313
  20
336.333344
  0
VERTEX
  8
C7
  10
753.666687
  20
336.666656
  0
SEQEND
  8
C7
  0
POLYLINE
  8
C7
  66
1
  10
530.000000
  20
286.000000
  0
VERTEX
  8
C7
  10
530.000000
  20
286.000000
  0
VERTEX
  8
C7
  10
555.000000
  20
301.343353
  0
VERTEX
  8
C7
  10
608.000000
  20
335.000000
  0
VERTEX
  8
C7
  10
588.000000
  20
324.003082
  0
VERTEX
  8
C7
  10
547.000000
  20
297.946777
  0
VERTEX
  8
C7
  10
530.000000
  20
286.000000
  0
SEQEND
  8
C7
  0
POLYLINE
  8
C7
  66
1
  10
702.333313
  20
335.333344
  0
VERTEX
  8
C7
  10
702.333313
  20
335.333344
  0
VERTEX
  8
C7
  10
702.666687
  20
334.666656
  0
VERTEX
  8
C7
  10
702.333313
  20
335.333344
  0
SEQEND
  8
C7
  0
POLYLINE
  8
C7
  66
1
  10
56.000000
  20
334.000000
  0
VERTEX
  8
C7
  10
56.000000
  20
334.000000
  0
VERTEX
  8
C7
  10
56.016900
  20
333.497000
  0
VERTEX
  8
C7
  10
56.047400
  20
332.925400
  0
VERTEX
  8
C7
  10
56.092700
  20
332.297500
  0
VERTEX
  8
C7
  10
56.154000
  20
331.625800
  0
VERTEX
  8
C7
  10
56.232500
  20
330.922600
  0
VERTEX
  8
C7
  10
56.329500
  20
330.200300
  0
VERTEX
  8
C7
  10
56.446200
  20
329.471300
  0
VERTEX
  8
C7
  10
56.583800
  20
328.748000
  0
VERTEX
  8
C7
  10
56.743600
  20
328.042700
  0
VERTEX
  8
C7
  10
56.926800
  20
327.367900
  0
VERTEX
  8
C7
  10
57.134600
  20
326.735900
  0
VERTEX
  8
C7
  10
57.368300
  20
326.159100
  0
VERTEX
  8
C7
  10
57.629200
  20
325.649800
  0
VERTEX
  8
C7
  10
57.918300
  20
325.220600
  0
VERTEX
  8
C7
  10
58.237100
  20
324.883700
  0
VERTEX
  8
C7
  10
58.586700
  20
324.651600
  0
VERTEX
  8
C7
  10
58.968300
  20
324.536600
  0
VERTEX
  8
C7
  10
59.383100
  20
324.551200
  0
VERTEX
  8
C7
  10
59.832500
  20
324.707600
  0
VERTEX
  8
C7
  10
60.317700
  20
325.018300
  0
VERTEX
  8
C7
  10
60.839800
  20
325.495700
  0
VERTEX
  8
C7
  10
61.400200
  20
326.152100
  0
VERTEX
  8
C7
  10
62.000000
  20
327.000000
  0
VERTEX
  8
C7
  10
63.000000
  20
327.000000
  0
VERTEX
  8
C7
  10
63.657000
  20
326.112700
  0
VERTEX
  8
C7
  10
64.321200
  20
325.447300
  0
VERTEX
  8
C7
  10
64.990600
  20
325.003700
  0
VERTEX
  8
C7
  10
65.663100
  20
324.781900
  0
VERTEX
  8
C7
  10
66.336700
  20
324.781900
  0
VERTEX
  8
C7
  10
67.009200
  20
325.003700
  0
VERTEX
  8
C7
  10
67.678600
  20
325.447300
  0
VERTEX
  8
C7
  10
68.342900
  20
326.112700
  0
VERTEX
  8
C7
  10
69.000000
  20
327.000000
  0
VERTEX
  8
C7
  10
70.000000
  20
327.000000
  0
VERTEX
  8
C7
  10
70.569900
  20
326.252400
  0
VERTEX
  8
C7
  10
71.172200
  20
325.682300
  0
VERTEX
  8
C7
  10
71.795100
  20
325.279900
  0
VERTEX
  8
C7
  10
72.427200
  20
325.035500
  0
VERTEX
  8
C7
  10
73.056900
  20
324.939200
  0
VERTEX
  8
C7
  10
73.672700
  20
324.981200
  0
VERTEX
  8
C7
  10
74.263000
  20
325.151700
  0
VERTEX
  8
C7
  10
74.816200
  20
325.440900
  0
VERTEX
  8
C7
  10
75.320800
  20
325.839100
  0
VERTEX
  8
C7
  10
75.765300
  20
326.336300
  0
VERTEX
  8
C7
  10
76.138100
  20
326.922900
  0
VERTEX
  8
C7
  10
76.427600
  20
327.589000
  0
VERTEX
  8
C7
  10
76.622400
  20
328.324800
  0
VERTEX
  8
C7
  10
76.710700
  20
329.120500
  0
VERTEX
  8
C7
  10
76.681200
  20
329.966400
  0
VERTEX
  8
C7
  10
76.522300
  20
330.852600
  0
VERTEX
  8
C7
  10
76.206900
  20
331.822600
  0
VERTEX
  8
C7
  10
75.819100
  20
332.562000
  0
VERTEX
  8
C7
  10
75.371700
  20
333.088000
  0
VERTEX
  8
C7
  10
74.877400
  20
333.417700
  0
VERTEX
  8
C7
  10
74.349100
  20
333.568300
  0
VERTEX
  8
C7
  10
73.799400
  20
333.557000
  0
VERTEX
  8
C7
  10
73.241200
  20
333.400900
  0
VERTEX
  8
C7
  10
72.687100
  20
333.117200
  0
VERTEX
  8
C7
  10
72.150100
  20
332.723100
  0
VERTEX
  8
C7
  10
71.642900
  20
332.235700
  0
VERTEX
  8
C7
  10
71.178100
  20
331.672100
  0
VERTEX
  8
C7
  10
70.768700
  20
331.049600
  0
VERTEX
  8
C7
  10
70.427300
  20
330.385300
  0
VERTEX
  8
C7
  10
70.166800
  20
329.696400
  0
VERTEX
  8
C7
  10
70.000000
  20
329.000000
  0
VERTEX
  8
C7
  10
69.000000
  20
329.000000
  0
VERTEX
  8
C7
  10
69.000000
  20
334.000000
  0
VERTEX
  8
C7
  10
67.797900
  20
333.878200
  0
VERTEX
  8
C7
  10
66.759400
  20
333.698500
  0
VERTEX
  8
C7
  10
65.871700
  20
333.439300
  0
VERTEX
  8
C7
  10
65.122200
  20
333.078900
  0
VERTEX
  8
C7
  10
64.498000
  20
332.595500
  0
VERTEX
  8
C7
  10
63.986400
  20
331.967700
  0
VERTEX
  8
C7
  10
63.574700
  20
331.173600
  0
VERTEX
  8
C7
  10
63.250100
  20
330.191500
  0
VERTEX
  8
C7
  10
63.000000
  20
329.000000
  0
VERTEX
  8
C7
  10
62.000000
  20
329.000000
  0
VERTEX
  8
C7
  10
58.000000
  20
331.000000
  0
VERTEX
  8
C7
  10
58.000000
  20
332.000000
  0
VERTEX
  8
C7
  10
62.000000
  20
332.000000
  0
VERTEX
  8
C7
  10
62.000000
  20
334.000000
  0
VERTEX
  8
C7
  10
56.000000
  20
334.000000
  0
SEQEND
  8
C7
  0
POLYLINE
  8
C7
  66
1
  10
705.000000
  20
334.000000
  0
VERTEX
  8
C7
  10
705.000000
  20
334.000000
  0
VERTEX
  8
C7
  10
706.000000
  20
333.000000
  0
VERTEX
  8
C7
  10
705.000000
  20
334.000000
  0
SEQEND
  8
C7
  0
POLYLINE
  8
C7
  66
1
  10
268.000000
  20
333.000000
  0
VERTEX
  8
C7
  10
268.000000
  20
333.000000
  0
VERTEX
  8
C7
  10
267.000000
  20
332.000000
  0
VERTEX
  8
C7
  10
267.000000
  20
327.000000
  0
VERTEX
  8
C7
  10
289.000000
  20
327.000000
  0
VERTEX
  8
C7
  10
289.000000
  20
331.000000
  0
VERTEX
  8
C7
  10
279.000000
  20
333.000000
  0
VERTEX
  8
C7
  10
273.000000
  20
333.000000
  0
VERTEX
  8
C7
  10
273.000000
  20
329.000000
  0
VERTEX
  8
C7
  10
270.000000
  20
333.000000
  0
VERTEX
  8
C7
  10
268.000000
  20
333.000000
  0
SEQEND
  8
C7
  0
POLYLINE
  8
C7
  66
1
  10
291.000000
  20
327.000000
  0
VERTEX
  8
C7
  10
291.000000
  20
327.000000
  0
VERTEX
  8
C7
  10
294.000000
  20
327.000000
  0
VERTEX
  8
C7
  10
294.000000
  20
330.000000
  0
VERTEX
  8
C7
  10
295.000000
  20
330.000000
  0
VERTEX
  8
C7
  10
295.000000
  20
327.000000
  0
VERTEX
  8
C7
  10
300.000000
  20
327.000000
  0
VERTEX
  8
C7
  10
300.000000
  20
331.000000
  0
VERTEX
  8
C7
  10
294.000000
  20
333.000000
  0
VERTEX
  8
C7
  10
291.000000
  20
327.000000
  0
SEQEND
  8
C7
  0
POLYLINE
  8
C7
  66
1
  10
312.000000
  20
331.000000
  0
VERTEX
  8
C7
  10
312.000000
  20
331.000000
  0
VERTEX
  8
C7
  10
312.000000
  20
326.000000
  0
VERTEX
  8
C7
  10
312.909600
  20
326.144600
  0
VERTEX
  8
C7
  10
313.845400
  20
326.255400
  0
VERTEX
  8
C7
  10
314.790700
  20
326.352700
  0
VERTEX
  8
C7
  10
315.729000
  20
326.457000
  0
VERTEX
  8
C7
  10
316.643800
  20
326.588800
  0
VERTEX
  8
C7
  10
317.518600
  20
326.768600
  0
VERTEX
  8
C7
  10
318.336700
  20
327.016700
  0
VERTEX
  8
C7
  10
319.081800
  20
327.353700
  0
VERTEX
  8
C7
  10
319.737200
  20
327.800100
  0
VERTEX
  8
C7
  10
320.286300
  20
328.376300
  0
VERTEX
  8
C7
  10
320.712800
  20
329.102700
  0
VERTEX
  8
C7
  10
321.000000
  20
330.000000
  0
VERTEX
  8
C7
  10
322.000000
  20
330.000000
  0
VERTEX
  8
C7
  10
322.000000
  20
327.000000
  0
VERTEX
  8
C7
  10
322.958300
  20
326.980000
  0
VERTEX
  8
C7
  10
323.909700
  20
326.937900
  0
VERTEX
  8
C7
  10
324.841000
  20
326.900600
  0
VERTEX
  8
C7
  10
325.739300
  20
326.895000
  0
VERTEX
  8
C7
  10
326.591400
  20
326.948000
  0
VERTEX
  8
C7
  10
327.384100
  20
327.086300
  0
VERTEX
  8
C7
  10
328.104500
  20
327.337000
  0
VERTEX
  8
C7
  10
328.739300
  20
327.726800
  0
VERTEX
  8
C7
  10
329.275600
  20
328.282600
  0
VERTEX
  8
C7
  10
329.700200
  20
329.031400
  0
VERTEX
  8
C7
  10
330.000000
  20
330.000000
  0
VERTEX
  8
C7
  10
331.000000
  20
330.000000
  0
VERTEX
  8
C7
  10
331.000000
  20
327.000000
  0
VERTEX
  8
C7
  10
332.000000
  20
327.000000
  0
VERTEX
  8
C7
  10
332.000000
  20
331.000000
  0
VERTEX
  8
C7
  10
325.000000
  20
333.000000
  0
VERTEX
  8
C7
  10
312.000000
  20
331.000000
  0
SEQEND
  8
C7
  0
POLYLINE
  8
C7
  66
1
  10
334.000000
  20
333.000000
  0
VERTEX
  8
C7
  10
334.000000
  20
333.000000
  0
VERTEX
  8
C7
  10
334.000000
  20
327.000000
  0
VERTEX
  8
C7
  10
339.000000
  20
327.000000
  0
VERTEX
  8
C7
  10
339.000000
  20
331.000000
  0
VERTEX
  8
C7
  10
334.000000
  20
333.000000
  0
SEQEND
  8
C7
  0
POLYLINE
  8
C7
  66
1
  10
341.000000
  20
327.000000
  0
VERTEX
  8
C7
  10
341.000000
  20
327.000000
  0
VERTEX
  8
C7
  10
344.000000
  20
327.000000
  0
VERTEX
  8
C7
  10
344.000000
  20
330.000000
  0
VERTEX
  8
C7
  10
345.000000
  20
330.000000
  0
VERTEX
  8
C7
  10
345.000000
  20
327.000000
  0
VERTEX
  8
C7
  10
350.000000
  20
327.000000
  0
VERTEX
  8
C7
  10
350.000000
  20
331.000000
  0
VERTEX
  8
C7
  10
344.000000
  20
333.000000
  0
VERTEX
  8
C7
  10
341.000000
  20
327.000000
  0
SEQEND
  8
C7
  0
POLYLINE
  8
C7
  66
1
  10
369.000000
  20
333.000000
  0
VERTEX
  8
C7
  10
369.000000
  20
333.000000
  0
VERTEX
  8
C7
  10
369.000000
  20
327.000000
  0
VERTEX
  8
C7
  10
369.644900
  20
326.988000
  0
VERTEX
  8
C7
  10
370.376800
  20
326.955300
  0
VERTEX
  8
C7
  10
371.185900
  20
326.906200
  0
VERTEX
  8
C7
  10
372.062700
  20
326.845100
  0
VERTEX
  8
C7
  10
372.997500
  20
326.776700
  0
VERTEX
  8
C7
  10
373.980700
  20
326.705200
  0
VERTEX
  8
C7
  10
375.002800
  20
326.635300
  0
VERTEX
  8
C7
  10
376.054000
  20
326.571200
  0
VERTEX
  8
C7
  10
377.124800
  20
326.517600
  0
VERTEX
  8
C7
  10
378.205600
  20
326.478900
  0
VERTEX
  8
C7
  10
379.286800
  20
326.459600
  0
VERTEX
  8
C7
  10
380.358700
  20
326.464000
  0
VERTEX
  8
C7
  10
381.411700
  20
326.496700
  0
VERTEX
  8
C7
  10
382.436200
  20
326.562200
  0
VERTEX
  8
C7
  10
383.422700
  20
326.664900
  0
VERTEX
  8
C7
  10
384.361400
  20
326.809200
  0
VERTEX
  8
C7
  10
385.242800
  20
326.999700
  0
VERTEX
  8
C7
  10
386.057300
  20
327.240800
  0
VERTEX
  8
C7
  10
386.795200
  20
327.536900
  0
VERTEX
  8
C7
  10
387.446900
  20
327.892600
  0
VERTEX
  8
C7
  10
388.002900
  20
328.312300
  0
VERTEX
  8
C7
  10
388.453400
  20
328.800400
  0
VERTEX
  8
C7
  10
388.789000
  20
329.361500
  0
VERTEX
  8
C7
  10
389.000000
  20
330.000000
  0
VERTEX
  8
C7
  10
390.000000
  20
330.000000
  0
VERTEX
  8
C7
  10
390.000000
  20
327.000000
  0
VERTEX
  8
C7
  10
391.000000
  20
327.000000
  0
VERTEX
  8
C7
  10
391.000000
  20
331.000000
  0
VERTEX
  8
C7
  10
384.000000
  20
333.000000
  0
VERTEX
  8
C7
  10
383.000800
  20
332.691300
  0
VERTEX
  8
C7
  10
382.021500
  20
332.399300
  0
VERTEX
  8
C7
  10
381.059500
  20
332.129000
  0
VERTEX
  8
C7
  10
380.112300
  20
331.885900
  0
VERTEX
  8
C7
  10
379.177500
  20
331.675100
  0
VERTEX
  8
C7
  10
378.252600
  20
331.501900
  0
VERTEX
  8
C7
  10
377.335100
  20
331.371600
  0
VERTEX
  8
C7
  10
376.422500
  20
331.289500
  0
VERTEX
  8
C7
  10
375.512300
  20
331.260900
  0
VERTEX
  8
C7
  10
374.602000
  20
331.290900
  0
VERTEX
  8
C7
  10
373.689200
  20
331.385000
  0
VERTEX
  8
C7
  10
372.771400
  20
331.548400
  0
VERTEX
  8
C7
  10
371.846000
  20
331.786300
  0
VERTEX
  8
C7
  10
370.910700
  20
332.104000
  0
VERTEX
  8
C7
  10
369.962800
  20
332.506800
  0
VERTEX
  8
C7
  10
369.000000
  20
333.000000
  0
SEQEND
  8
C7
  0
POLYLINE
  8
C7
  66
1
  10
395.000000
  20
333.000000
  0
VERTEX
  8
C7
  10
395.000000
  20
333.000000
  0
VERTEX
  8
C7
  10
393.000000
  20
327.000000
  0
VERTEX
  8
C7
  10
396.000000
  20
330.000000
  0
VERTEX
  8
C7
  10
397.000000
  20
330.000000
  0
VERTEX
  8
C7
  10
397.000000
  20
327.000000
  0
VERTEX
  8
C7
  10
404.000000
  20
327.000000
  0
VERTEX
  8
C7
  10
404.000000
  20
332.000000
  0
VERTEX
  8
C7
  10
395.000000
  20
333.000000
  0
SEQEND
  8
C7
  0
POLYLINE
  8
C7
  66
1
  10
406.000000
  20
327.000000
  0
VERTEX
  8
C7
  10
406.000000
  20
327.000000
  0
VERTEX
  8
C7
  10
415.000000
  20
327.000000
  0
VERTEX
  8
C7
  10
415.000000
  20
331.000000
  0
VERTEX
  8
C7
  10
409.000000
  20
333.000000
  0
VERTEX
  8
C7
  10
406.000000
  20
327.000000
  0
SEQEND
  8
C7
  0
POLYLINE
  8
C7
  66
1
  10
420.000000
  20
333.000000
  0
VERTEX
  8
C7
  10
420.000000
  20
333.000000
  0
VERTEX
  8
C7
  10
416.000000
  20
331.000000
  0
VERTEX
  8
C7
  10
416.000000
  20
327.000000
  0
VERTEX
  8
C7
  10
428.000000
  20
327.000000
  0
VERTEX
  8
C7
  10
428.000000
  20
331.000000
  0
VERTEX
  8
C7
  10
426.000000
  20
333.000000
  0
VERTEX
  8
C7
  10
425.000000
  20
333.000000
  0
VERTEX
  8
C7
  10
420.000000
  20
333.000000
  0
SEQEND
  8
C7
  0
POLYLINE
  8
C7
  66
1
  10
430.000000
  20
333.000000
  0
VERTEX
  8
C7
  10
430.000000
  20
333.000000
  0
VERTEX
  8
C7
  10
430.000000
  20
327.000000
  0
VERTEX
  8
C7
  10
435.000000
  20
328.000000
  0
VERTEX
  8
C7
  10
430.000000
  20
333.000000
  0
SEQEND
  8
C7
  0
POLYLINE
  8
C7
  66
1
  10
443.000000
  20
333.000000
  0
VERTEX
  8
C7
  10
443.000000
  20
333.000000
  0
VERTEX
  8
C7
  10
443.000000
  20
327.000000
  0
VERTEX
  8
C7
  10
451.000000
  20
327.000000
  0
VERTEX
  8
C7
  10
451.000000
  20
331.000000
  0
VERTEX
  8
C7
  10
443.000000
  20
333.000000
  0
SEQEND
  8
C7
  0
POLYLINE
  8
C7
  66
1
  10
452.000000
  20
333.000000
  0
VERTEX
  8
C7
  10
452.000000
  20
333.000000
  0
VERTEX
  8
C7
  10
452.000000
  20
327.000000
  0
VERTEX
  8
C7
  10
455.000000
  20
329.000000
  0
VERTEX
  8
C7
  10
456.000000
  20
329.000000
  0
VERTEX
  8
C7
  10
456.529000
  20
328.482300
  0
VERTEX
  8
C7
  10
457.143500
  20
328.034000
  0
VERTEX
  8
C7
  10
457.836200
  20
327.650700
  0
VERTEX
  8
C7
  10
458.600000
  20
327.328000
  0
VERTEX
  8
C7
  10
459.427700
  20
327.061800
  0
VERTEX
  8
C7
  10
460.311900
  20
326.847600
  0
VERTEX
  8
C7
  10
461.245500
  20
326.681200
  0
VERTEX
  8
C7
  10
462.221200
  20
326.558300
  0
VERTEX
  8
C7
  10
463.231800
  20
326.474500
  0
VERTEX
  8
C7
  10
464.270100
  20
326.425500
  0
VERTEX
  8
C7
  10
465.328900
  20
326.407100
  0
VERTEX
  8
C7
  10
466.400900
  20
326.414900
  0
VERTEX
  8
C7
  10
467.479000
  20
326.444700
  0
VERTEX
  8
C7
  10
468.555800
  20
326.492000
  0
VERTEX
  8
C7
  10
469.624100
  20
326.552700
  0
VERTEX
  8
C7
  10
470.676800
  20
326.622300
  0
VERTEX
  8
C7
  10
471.706600
  20
326.696700
  0
VERTEX
  8
C7
  10
472.706300
  20
326.771400
  0
VERTEX
  8
C7
  10
473.668600
  20
326.842200
  0
VERTEX
  8
C7
  10
474.586400
  20
326.904700
  0
VERTEX
  8
C7
  10
475.452300
  20
326.954800
  0
VERTEX
  8
C7
  10
476.259300
  20
326.987900
  0
VERTEX
  8
C7
  10
477.000000
  20
327.000000
  0
VERTEX
  8
C7
  10
476.000000
  20
333.000000
  0
VERTEX
  8
C7
  10
475.159300
  20
332.708600
  0
VERTEX
  8
C7
  10
474.277200
  20
332.441800
  0
VERTEX
  8
C7
  10
473.357400
  20
332.199600
  0
VERTEX
  8
C7
  10
472.403700
  20
331.982300
  0
VERTEX
  8
C7
  10
471.419800
  20
331.789800
  0
VERTEX
  8
C7
  10
470.409600
  20
331.622300
  0
VERTEX
  8
C7
  10
469.376700
  20
331.480000
  0
VERTEX
  8
C7
  10
468.325000
  20
331.362800
  0
VERTEX
  8
C7
  10
467.258100
  20
331.270900
  0
VERTEX
  8
C7
  10
466.180000
  20
331.204500
  0
VERTEX
  8
C7
  10
465.094200
  20
331.163500
  0
VERTEX
  8
C7
  10
464.004600
  20
331.148200
  0
VERTEX
  8
C7
  10
462.914900
  20
331.158500
  0
VERTEX
  8
C7
  10
461.828900
  20
331.194700
  0
VERTEX
  8
C7
  10
460.750400
  20
331.256900
  0
VERTEX
  8
C7
  10
459.683100
  20
331.345000
  0
VERTEX
  8
C7
  10
458.630800
  20
331.459300
  0
VERTEX
  8
C7
  10
457.597200
  20
331.599900
  0
VERTEX
  8
C7
  10
456.586100
  20
331.766800
  0
VERTEX
  8
C7
  10
455.601300
  20
331.960100
  0
VERTEX
  8
C7
  10
454.646500
  20
332.180000
  0
VERTEX
  8
C7
  10
453.725500
  20
332.426500
  0
VERTEX
  8
C7
  10
452.842100
  20
332.699800
  0
VERTEX
  8
C7
  10
452.000000
  20
333.000000
  0
SEQEND
  8
C7
  0
POLYLINE
  8
C7
  66
1
  10
65.666664
  20
331.666656
  0
VERTEX
  8
C7
  10
65.666664
  20
331.666656
  0
VERTEX
  8
C7
  10
66.333336
  20
331.333344
  0
VERTEX
  8
C7
  10
65.666664
  20
331.666656
  0
SEQEND
  8
C7
  0
POLYLINE
  8
C7
  66
1
  10
72.000000
  20
332.000000
  0
VERTEX
  8
C7
  10
72.000000
  20
332.000000
  0
VERTEX
  8
C7
  10
73.000000
  20
326.000000
  0
VERTEX
  8
C7
  10
74.000000
  20
326.000000
  0
VERTEX
  8
C7
  10
74.000000
  20
332.000000
  0
VERTEX
  8
C7
  10
72.000000
  20
332.000000
  0
SEQEND
  8
C7
  0
POLYLINE
  8
C7
  66
1
  10
301.000000
  20
331.000000
  0
VERTEX
  8
C7
  10
301.000000
  20
331.000000
  0
VERTEX
  8
C7
  10
301.403900
  20
330.008500
  0
VERTEX
  8
C7
  10
301.891500
  20
329.192200
  0
VERTEX
  8
C7
  10
302.456700
  20
328.534300
  0
VERTEX
  8
C7
  10
303.093200
  20
328.018200
  0
VERTEX
  8
C7
  10
303.794700
  20
327.627200
  0
VERTEX
  8
C7
  10
304.555000
  20
327.344600
  0
VERTEX
  8
C7
  10
305.367900
  20
327.153700
  0
VERTEX
  8
C7
  10
306.227100
  20
327.037800
  0
VERTEX
  8
C7
  10
307.126400
  20
326.980300
  0
VERTEX
  8
C7
  10
308.059600
  20
326.964400
  0
VERTEX
  8
C7
  10
309.020400
  20
326.973600
  0
VERTEX
  8
C7
  10
310.002600
  20
326.991000
  0
VERTEX
  8
C7
  10
311.000000
  20
327.000000
  0
VERTEX
  8
C7
  10
310.000000
  20
332.000000
  0
VERTEX
  8
C7
  10
301.000000
  20
331.000000
  0
SEQEND
  8
C7
  0
POLYLINE
  8
C7
  66
1
  10
351.000000
  20
330.000000
  0
VERTEX
  8
C7
  10
351.000000
  20
330.000000
  0
VERTEX
  8
C7
  10
351.000000
  20
328.000000
  0
VERTEX
  8
C7
  10
367.000000
  20
327.000000
  0
VERTEX
  8
C7
  10
367.000000
  20
332.000000
  0
VERTEX
  8
C7
  10
351.000000
  20
330.000000
  0
SEQEND
  8
C7
  0
POLYLINE
  8
C7
  66
1
  10
436.000000
  20
332.000000
  0
VERTEX
  8
C7
  10
436.000000
  20
332.000000
  0
VERTEX
  8
C7
  10
436.000000
  20
327.000000
  0
VERTEX
  8
C7
  10
442.000000
  20
327.000000
  0
VERTEX
  8
C7
  10
442.000000
  20
331.000000
  0
VERTEX
  8
C7
  10
436.000000
  20
332.000000
  0
SEQEND
  8
C7
  0
POLYLINE
  8
C7
  66
1
  10
274.000000
  20
331.000000
  0
VERTEX
  8
C7
  10
274.000000
  20
331.000000
  0
VERTEX
  8
C7
  10
275.000000
  20
330.000000
  0
VERTEX
  8
C7
  10
274.000000
  20
331.000000
  0
SEQEND
  8
C7
  0
POLYLINE
  8
C7
  66
1
  10
303.000000
  20
330.000000
  0
VERTEX
  8
C7
  10
303.000000
  20
330.000000
  0
VERTEX
  8
C7
  10
304.000000
  20
329.000000
  0
VERTEX
  8
C7
  10
303.000000
  20
330.000000
  0
SEQEND
  8
C7
  0
POLYLINE
  8
C7
  66
1
  10
317.000000
  20
330.000000
  0
VERTEX
  8
C7
  10
317.000000
  20
330.000000
  0
VERTEX
  8
C7
  10
318.000000
  20
329.000000
  0
VERTEX
  8
C7
  10
317.000000
  20
330.000000
  0
SEQEND
  8
C7
  0
POLYLINE
  8
C7
  66
1
  10
326.000000
  20
330.000000
  0
VERTEX
  8
C7
  10
326.000000
  20
330.000000
  0
VERTEX
  8
C7
  10
327.000000
  20
329.000000
  0
VERTEX
  8
C7
  10
326.000000
  20
330.000000
  0
SEQEND
  8
C7
  0
POLYLINE
  8
C7
  66
1
  10
363.000000
  20
330.000000
  0
VERTEX
  8
C7
  10
363.000000
  20
330.000000
  0
VERTEX
  8
C7
  10
364.000000
  20
329.000000
  0
VERTEX
  8
C7
  10
363.000000
  20
330.000000
  0
SEQEND
  8
C7
  0
POLYLINE
  8
C7
  66
1
  10
375.000000
  20
330.000000
  0
VERTEX
  8
C7
  10
375.000000
  20
330.000000
  0
VERTEX
  8
C7
  10
376.000000
  20
329.000000
  0
VERTEX
  8
C7
  10
375.000000
  20
330.000000
  0
SEQEND
  8
C7
  0
POLYLINE
  8
C7
  66
1
  10
385.000000
  20
330.000000
  0
VERTEX
  8
C7
  10
385.000000
  20
330.000000
  0
VERTEX
  8
C7
  10
386.000000
  20
329.000000
  0
VERTEX
  8
C7
  10
385.000000
  20
330.000000
  0
SEQEND
  8
C7
  0
POLYLINE
  8
C7
  66
1
  10
439.000000
  20
330.000000
  0
VERTEX
  8
C7
  10
439.000000
  20
330.000000
  0
VERTEX
  8
C7
  10
440.000000
  20
329.000000
  0
VERTEX
  8
C7
  10
439.000000
  20
330.000000
  0
SEQEND
  8
C7
  0
POLYLINE
  8
C7
  66
1
  10
58.000000
  20
329.000000
  0
VERTEX
  8
C7
  10
58.000000
  20
329.000000
  0
VERTEX
  8
C7
  10
58.000000
  20
326.000000
  0
VERTEX
  8
C7
  10
60.000000
  20
326.000000
  0
VERTEX
  8
C7
  10
60.000000
  20
329.000000
  0
VERTEX
  8
C7
  10
58.000000
  20
329.000000
  0
SEQEND
  8
C7
  0
POLYLINE
  8
C7
  66
1
  10
65.000000
  20
329.000000
  0
VERTEX
  8
C7
  10
65.000000
  20
329.000000
  0
VERTEX
  8
C7
  10
67.000000
  20
326.000000
  0
VERTEX
  8
C7
  10
67.000000
  20
329.000000
  0
VERTEX
  8
C7
  10
65.000000
  20
329.000000
  0
SEQEND
  8
C7
  0
POLYLINE
  8
C7
  66
1
  10
237.000000
  20
329.000000
  0
VERTEX
  8
C7
  10
237.000000
  20
329.000000
  0
VERTEX
  8
C7
  10
237.000000
  20
324.000000
  0
VERTEX
  8
C7
  10
238.000000
  20
324.000000
  0
VERTEX
  8
C7
  10
237.000000
  20
329.000000
  0
SEQEND
  8
C7
  0
POLYLINE
  8
C7
  66
1
  10
526.000000
  20
329.000000
  0
VERTEX
  8
C7
  10
526.000000
  20
329.000000
  0
VERTEX
  8
C7
  10
526.000000
  20
324.000000
  0
VERTEX
  8
C7
  10
527.000000
  20
324.000000
  0
VERTEX
  8
C7
  10
526.000000
  20
329.000000
  0
SEQEND
  8
C7
  0
POLYLINE
  8
C7
  66
1
  10
640.000000
  20
318.000000
  0
VERTEX
  8
C7
  10
640.000000
  20
318.000000
  0
VERTEX
  8
C7
  10
641.000000
  20
324.000000
  0
VERTEX
  8
C7
  10
638.000000
  20
324.000000
  0
VERTEX
  8
C7
  10
638.067300
  20
324.570900
  0
VERTEX
  8
C7
  10
638.084100
  20
325.067000
  0
VERTEX
  8
C7
  10
638.054300
  20
325.491400
  0
VERTEX
  8
C7
  10
637.981700
  20
325.847000
  0
VERTEX
  8
C7
  10
637.870300
  20
326.136800
  0
VERTEX
  8
C7
  10
637.724100
  20
326.363700
  0
VERTEX
  8
C7
  10
637.546900
  20
326.530800
  0
VERTEX
  8
C7
  10
637.342600
  20
326.641100
  0
VERTEX
  8
C7
  10
637.115200
  20
326.697500
  0
VERTEX
  8
C7
  10
636.868700
  20
326.703000
  0
VERTEX
  8
C7
  10
636.606900
  20
326.660600
  0
VERTEX
  8
C7
  10
636.333700
  20
326.573200
  0
VERTEX
  8
C7
  10
636.053100
  20
326.444000
  0
VERTEX
  8
C7
  10
635.769000
  20
326.275700
  0
VERTEX
  8
C7
  10
635.485300
  20
326.071500
  0
VERTEX
  8
C7
  10
635.205900
  20
325.834300
  0
VERTEX
  8
C7
  10
634.934800
  20
325.567100
  0
VERTEX
  8
C7
  10
634.675900
  20
325.272900
  0
VERTEX
  8
C7
  10
634.433100
  20
324.954600
  0
VERTEX
  8
C7
  10
634.210300
  20
324.615300
  0
VERTEX
  8
C7
  10
634.011500
  20
324.257800
  0
VERTEX
  8
C7
  10
633.840500
  20
323.885300
  0
VERTEX
  8
C7
  10
633.701300
  20
323.500700
  0
VERTEX
  8
C7
  10
633.597900
  20
323.107000
  0
VERTEX
  8
C7
  10
633.534000
  20
322.707100
  0
VERTEX
  8
C7
  10
633.513800
  20
322.304000
  0
VERTEX
  8
C7
  10
633.541000
  20
321.900800
  0
VERTEX
  8
C7
  10
633.619600
  20
321.500400
  0
VERTEX
  8
C7
  10
633.753600
  20
321.105700
  0
VERTEX
  8
C7
  10
633.946700
  20
320.719900
  0
VERTEX
  8
C7
  10
634.203100
  20
320.345800
  0
VERTEX
  8
C7
  10
634.526500
  20
319.986400
  0
VERTEX
  8
C7
  10
634.921000
  20
319.644700
  0
VERTEX
  8
C7
  10
635.390400
  20
319.323800
  0
VERTEX
  8
C7
  10
635.938600
  20
319.026500
  0
VERTEX
  8
C7
  10
636.569700
  20
318.755900
  0
VERTEX
  8
C7
  10
637.287400
  20
318.515000
  0
VERTEX
  8
C7
  10
638.095700
  20
318.306700
  0
VERTEX
  8
C7
  10
638.998600
  20
318.134000
  0
VERTEX
  8
C7
  10
640.000000
  20
318.000000
  0
SEQEND
  8
C7
  0
POLYLINE
  8
C7
  66
1
  10
645.000000
  20
329.000000
  0
VERTEX
  8
C7
  10
645.000000
  20
329.000000
  0
VERTEX
  8
C7
  10
645.000000
  20
319.000000
  0
VERTEX
  8
C7
  10
658.000000
  20
321.000000
  0
VERTEX
  8
C7
  10
659.000000
  20
321.000000
  0
VERTEX
  8
C7
  10
660.000000
  20
321.000000
  0
VERTEX
  8
C7
  10
660.636400
  20
320.037100
  0
VERTEX
  8
C7
  10
661.218200
  20
319.555600
  0
VERTEX
  8
C7
  10
661.781700
  20
319.555600
  0
VERTEX
  8
C7
  10
662.363500
  20
320.037100
  0
VERTEX
  8
C7
  10
663.000000
  20
321.000000
  0
VERTEX
  8
C7
  10
664.000000
  20
321.000000
  0
VERTEX
  8
C7
  10
667.000000
  20
319.000000
  0
VERTEX
  8
C7
  10
667.000000
  20
323.000000
  0
VERTEX
  8
C7
  10
668.000000
  20
323.000000
  0
VERTEX
  8
C7
  10
668.410500
  20
321.987400
  0
VERTEX
  8
C7
  10
668.896900
  20
321.171500
  0
VERTEX
  8
C7
  10
669.454800
  20
320.530400
  0
VERTEX
  8
C7
  10
670.080100
  20
320.042200
  0
VERTEX
  8
C7
  10
670.768500
  20
319.684700
  0
VERTEX
  8
C7
  10
671.515800
  20
319.436100
  0
VERTEX
  8
C7
  10
672.317800
  20
319.274400
  0
VERTEX
  8
C7
  10
673.170300
  20
319.177600
  0
VERTEX
  8
C7
  10
674.068900
  20
319.123700
  0
VERTEX
  8
C7
  10
675.009600
  20
319.090800
  0
VERTEX
  8
C7
  10
675.988000
  20
319.056900
  0
VERTEX
  8
C7
  10
677.000000
  20
319.000000
  0
VERTEX
  8
C7
  10
680.000000
  20
326.000000
  0
VERTEX
  8
C7
  10
666.000000
  20
324.000000
  0
VERTEX
  8
C7
  10
665.000000
  20
324.000000
  0
VERTEX
  8
C7
  10
664.363500
  20
324.962800
  0
VERTEX
  8
C7
  10
663.781700
  20
325.444200
  0
VERTEX
  8
C7
  10
663.218200
  20
325.444200
  0
VERTEX
  8
C7
  10
662.636400
  20
324.962700
  0
VERTEX
  8
C7
  10
662.000000
  20
324.000000
  0
VERTEX
  8
C7
  10
661.000000
  20
324.000000
  0
VERTEX
  8
C7
  10
652.000000
  20
326.000000
  0
VERTEX
  8
C7
  10
652.000000
  20
321.000000
  0
VERTEX
  8
C7
  10
647.000000
  20
321.000000
  0
VERTEX
  8
C7
  10
647.000000
  20
329.000000
  0
VERTEX
  8
C7
  10
645.000000
  20
329.000000
  0
SEQEND
  8
C7
  0
POLYLINE
  8
C7
  66
1
  10
683.000000
  20
329.000000
  0
VERTEX
  8
C7
  10
683.000000
  20
329.000000
  0
VERTEX
  8
C7
  10
683.000000
  20
319.000000
  0
VERTEX
  8
C7
  10
685.000000
  20
322.000000
  0
VERTEX
  8
C7
  10
692.000000
  20
323.000000
  0
VERTEX
  8
C7
  10
691.000000
  20
320.000000
  0
VERTEX
  8
C7
  10
698.000000
  20
319.000000
  0
VERTEX
  8
C7
  10
698.000000
  20
326.000000
  0
VERTEX
  8
C7
  10
692.000000
  20
324.000000
  0
VERTEX
  8
C7
  10
691.414000
  20
325.109700
  0
VERTEX
  8
C7
  10
690.818800
  20
326.042400
  0
VERTEX
  8
C7
  10
690.202200
  20
326.813200
  0
VERTEX
  8
C7
  10
689.551500
  20
327.437700
  0
VERTEX
  8
C7
  10
688.854300
  20
327.931100
  0
VERTEX
  8
C7
  10
688.098300
  20
328.308900
  0
VERTEX
  8
C7
  10
687.271000
  20
328.586300
  0
VERTEX
  8
C7
  10
686.360000
  20
328.778700
  0
VERTEX
  8
C7
  10
685.352700
  20
328.901600
  0
VERTEX
  8
C7
  10
684.236900
  20
328.970200
  0
VERTEX
  8
C7
  10
683.000000
  20
329.000000
  0
SEQEND
  8
C7
  0
POLYLINE
  8
C7
  66
1
  10
704.000000
  20
329.000000
  0
VERTEX
  8
C7
  10
704.000000
  20
329.000000
  0
VERTEX
  8
C7
  10
699.000000
  20
326.000000
  0
VERTEX
  8
C7
  10
699.000000
  20
319.000000
  0
VERTEX
  8
C7
  10
701.000000
  20
319.000000
  0
VERTEX
  8
C7
  10
701.000000
  20
324.000000
  0
VERTEX
  8
C7
  10
703.000000
  20
324.000000
  0
VERTEX
  8
C7
  10
703.000000
  20
319.000000
  0
VERTEX
  8
C7
  10
707.000000
  20
319.000000
  0
VERTEX
  8
C7
  10
704.000000
  20
329.000000
  0
SEQEND
  8
C7
  0
POLYLINE
  8
C7
  66
1
  10
710.000000
  20
319.000000
  0
VERTEX
  8
C7
  10
710.000000
  20
319.000000
  0
VERTEX
  8
C7
  10
720.000000
  20
319.000000
  0
VERTEX
  8
C7
  10
721.000000
  20
329.000000
  0
VERTEX
  8
C7
  10
719.966100
  20
328.715000
  0
VERTEX
  8
C7
  10
718.958800
  20
328.420200
  0
VERTEX
  8
C7
  10
717.982400
  20
328.109700
  0
VERTEX
  8
C7
  10
717.041200
  20
327.778200
  0
VERTEX
  8
C7
  10
716.139600
  20
327.419900
  0
VERTEX
  8
C7
  10
715.282100
  20
327.029300
  0
VERTEX
  8
C7
  10
714.472800
  20
326.600800
  0
VERTEX
  8
C7
  10
713.716300
  20
326.128800
  0
VERTEX
  8
C7
  10
713.016900
  20
325.607600
  0
VERTEX
  8
C7
  10
712.378900
  20
325.031800
  0
VERTEX
  8
C7
  10
711.806700
  20
324.395700
  0
VERTEX
  8
C7
  10
711.304700
  20
323.693700
  0
VERTEX
  8
C7
  10
710.877200
  20
322.920300
  0
VERTEX
  8
C7
  10
710.528600
  20
322.069800
  0
VERTEX
  8
C7
  10
710.263300
  20
321.136600
  0
VERTEX
  8
C7
  10
710.085600
  20
320.115200
  0
VERTEX
  8
C7
  10
710.000000
  20
319.000000
  0
SEQEND
  8
C7
  0
POLYLINE
  8
C7
  66
1
  10
730.000000
  20
324.000000
  0
VERTEX
  8
C7
  10
730.000000
  20
324.000000
  0
VERTEX
  8
C7
  10
730.309300
  20
324.628700
  0
VERTEX
  8
C7
  10
730.552900
  20
325.196600
  0
VERTEX
  8
C7
  10
730.734200
  20
325.705400
  0
VERTEX
  8
C7
  10
730.856400
  20
326.157300
  0
VERTEX
  8
C7
  10
730.922900
  20
326.554000
  0
VERTEX
  8
C7
  10
730.937000
  20
326.897500
  0
VERTEX
  8
C7
  10
730.901900
  20
327.189800
  0
VERTEX
  8
C7
  10
730.821000
  20
327.432800
  0
VERTEX
  8
C7
  10
730.697500
  20
327.628400
  0
VERTEX
  8
C7
  10
730.534800
  20
327.778600
  0
VERTEX
  8
C7
  10
730.336200
  20
327.885300
  0
VERTEX
  8
C7
  10
730.105000
  20
327.950500
  0
VERTEX
  8
C7
  10
729.844500
  20
327.976000
  0
VERTEX
  8
C7
  10
729.557900
  20
327.963800
  0
VERTEX
  8
C7
  10
729.248600
  20
327.915800
  0
VERTEX
  8
C7
  10
728.920000
  20
327.834100
  0
VERTEX
  8
C7
  10
728.575200
  20
327.720400
  0
VERTEX
  8
C7
  10
728.217600
  20
327.576800
  0
VERTEX
  8
C7
  10
727.850600
  20
327.405200
  0
VERTEX
  8
C7
  10
727.477300
  20
327.207500
  0
VERTEX
  8
C7
  10
727.101200
  20
326.985600
  0
VERTEX
  8
C7
  10
726.725400
  20
326.741600
  0
VERTEX
  8
C7
  10
726.353400
  20
326.477300
  0
VERTEX
  8
C7
  10
725.988500
  20
326.194600
  0
VERTEX
  8
C7
  10
725.633800
  20
325.895500
  0
VERTEX
  8
C7
  10
725.292800
  20
325.582000
  0
VERTEX
  8
C7
  10
724.968700
  20
325.255900
  0
VERTEX
  8
C7
  10
724.664900
  20
324.919200
  0
VERTEX
  8
C7
  10
724.384600
  20
324.573900
  0
VERTEX
  8
C7
  10
724.131200
  20
324.221800
  0
VERTEX
  8
C7
  10
723.907900
  20
323.864900
  0
VERTEX
  8
C7
  10
723.718000
  20
323.505200
  0
VERTEX
  8
C7
  10
723.565000
  20
323.144600
  0
VERTEX
  8
C7
  10
723.452000
  20
322.784900
  0
VERTEX
  8
C7
  10
723.382300
  20
322.428300
  0
VERTEX
  8
C7
  10
723.359300
  20
322.076500
  0
VERTEX
  8
C7
  10
723.386300
  20
321.731500
  0
VERTEX
  8
C7
  10
723.466600
  20
321.395300
  0
VERTEX
  8
C7
  10
723.603500
  20
321.069700
  0
VERTEX
  8
C7
  10
723.800200
  20
320.756800
  0
VERTEX
  8
C7
  10
724.060200
  20
320.458400
  0
VERTEX
  8
C7
  10
724.386600
  20
320.176600
  0
VERTEX
  8
C7
  10
724.782900
  20
319.913200
  0
VERTEX
  8
C7
  10
725.252200
  20
319.670100
  0
VERTEX
  8
C7
  10
725.797900
  20
319.449300
  0
VERTEX
  8
C7
  10
726.423400
  20
319.252800
  0
VERTEX
  8
C7
  10
727.131900
  20
319.082500
  0
VERTEX
  8
C7
  10
728.142900
  20
318.980000
  0
VERTEX
  8
C7
  10
729.030900
  20
319.096500
  0
VERTEX
  8
C7
  10
729.781600
  20
319.399200
  0
VERTEX
  8
C7
  10
730.380700
  20
319.855700
  0
VERTEX
  8
C7
  10
730.814200
  20
320.433300
  0
VERTEX
  8
C7
  10
731.067800
  20
321.099600
  0
VERTEX
  8
C7
  10
731.127300
  20
321.822000
  0
VERTEX
  8
C7
  10
730.978700
  20
322.567900
  0
VERTEX
  8
C7
  10
730.607600
  20
323.304700
  0
VERTEX
  8
C7
  10
730.000000
  20
324.000000
  0
SEQEND
  8
C7
  0
POLYLINE
  8
C7
  66
1
  10
733.000000
  20
329.000000
  0
VERTEX
  8
C7
  10
733.000000
  20
329.000000
  0
VERTEX
  8
C7
  10
733.000000
  20
327.000000
  0
VERTEX
  8
C7
  10
735.000000
  20
327.000000
  0
VERTEX
  8
C7
  10
735.000000
  20
329.000000
  0
VERTEX
  8
C7
  10
733.000000
  20
329.000000
  0
SEQEND
  8
C7
  0
POLYLINE
  8
C7
  66
1
  10
742.000000
  20
329.000000
  0
VERTEX
  8
C7
  10
742.000000
  20
329.000000
  0
VERTEX
  8
C7
  10
742.000000
  20
325.000000
  0
VERTEX
  8
C7
  10
733.000000
  20
326.000000
  0
VERTEX
  8
C7
  10
733.000000
  20
319.000000
  0
VERTEX
  8
C7
  10
738.000000
  20
319.000000
  0
VERTEX
  8
C7
  10
738.000000
  20
324.000000
  0
VERTEX
  8
C7
  10
740.000000
  20
324.000000
  0
VERTEX
  8
C7
  10
740.000000
  20
319.000000
  0
VERTEX
  8
C7
  10
749.000000
  20
319.000000
  0
VERTEX
  8
C7
  10
748.000000
  20
316.000000
  0
VERTEX
  8
C7
  10
748.786900
  20
316.343200
  0
VERTEX
  8
C7
  10
749.491100
  20
316.783400
  0
VERTEX
  8
C7
  10
750.112400
  20
317.309600
  0
VERTEX
  8
C7
  10
750.650800
  20
317.911200
  0
VERTEX
  8
C7
  10
751.106500
  20
318.577300
  0
VERTEX
  8
C7
  10
751.479200
  20
319.297300
  0
VERTEX
  8
C7
  10
751.769200
  20
320.060300
  0
VERTEX
  8
C7
  10
751.976300
  20
320.855600
  0
VERTEX
  8
C7
  10
752.100500
  20
321.672400
  0
VERTEX
  8
C7
  10
752.141900
  20
322.499900
  0
VERTEX
  8
C7
  10
752.100500
  20
323.327500
  0
VERTEX
  8
C7
  10
751.976300
  20
324.144300
  0
VERTEX
  8
C7
  10
751.769100
  20
324.939600
  0
VERTEX
  8
C7
  10
751.479200
  20
325.702500
  0
VERTEX
  8
C7
  10
751.106400
  20
326.422500
  0
VERTEX
  8
C7
  10
750.650800
  20
327.088600
  0
VERTEX
  8
C7
  10
750.112400
  20
327.690200
  0
VERTEX
  8
C7
  10
749.491100
  20
328.216500
  0
VERTEX
  8
C7
  10
748.786900
  20
328.656600
  0
VERTEX
  8
C7
  10
748.000000
  20
329.000000
  0
VERTEX
  8
C7
  10
749.000000
  20
326.000000
  0
VERTEX
  8
C7
  10
745.000000
  20
329.000000
  0
VERTEX
  8
C7
  10
742.000000
  20
329.000000
  0
SEQEND
  8
C7
  0
POLYLINE
  8
C7
  66
1
  10
636.000000
  20
327.000000
  0
VERTEX
  8
C7
  10
636.000000
  20
327.000000
  0
VERTEX
  8
C7
  10
637.000000
  20
326.000000
  0
VERTEX
  8
C7
  10
636.000000
  20
327.000000
  0
SEQEND
  8
C7
  0
POLYLINE
  8
C7
  66
1
  10
685.000000
  20
327.000000
  0
VERTEX
  8
C7
  10
685.000000
  20
327.000000
  0
VERTEX
  8
C7
  10
685.000000
  20
324.000000
  0
VERTEX
  8
C7
  10
689.000000
  20
325.000000
  0
VERTEX
  8
C7
  10
685.000000
  20
327.000000
  0
SEQEND
  8
C7
  0
POLYLINE
  8
C7
  66
1
  10
727.000000
  20
327.000000
  0
VERTEX
  8
C7
  10
727.000000
  20
327.000000
  0
VERTEX
  8
C7
  10
730.000000
  20
325.000000
  0
VERTEX
  8
C7
  10
727.000000
  20
327.000000
  0
SEQEND
  8
C7
  0
POLYLINE
  8
C7
  66
1
  10
749.000000
  20
326.000000
  0
VERTEX
  8
C7
  10
749.000000
  20
326.000000
  0
VERTEX
  8
C7
  10
749.000000
  20
319.000000
  0
VERTEX
  8
C7
  10
750.000000
  20
319.000000
  0
VERTEX
  8
C7
  10
749.000000
  20
326.000000
  0
SEQEND
  8
C7
  0
POLYLINE
  8
C7
  66
1
  10
273.000000
  20
319.000000
  0
VERTEX
  8
C7
  10
273.000000
  20
319.000000
  0
VERTEX
  8
C7
  10
290.000000
  20
319.000000
  0
VERTEX
  8
C7
  10
290.000000
  20
324.000000
  0
VERTEX
  8
C7
  10
289.215900
  20
324.113800
  0
VERTEX
  8
C7
  10
288.391000
  20
324.227400
  0
VERTEX
  8
C7
  10
287.531700
  20
324.336300
  0
VERTEX
  8
C7
  10
286.644300
  20
324.436400
  0
VERTEX
  8
C7
  10
285.735300
  20
324.523400
  0
VERTEX
  8
C7
  10
284.811200
  20
324.593000
  0
VERTEX
  8
C7
  10
283.878300
  20
324.641100
  0
VERTEX
  8
C7
  10
282.943100
  20
324.663300
  0
VERTEX
  8
C7
  10
282.011900
  20
324.655300
  0
VERTEX
  8
C7
  10
281.091300
  20
324.613000
  0
VERTEX
  8
C7
  10
280.187500
  20
324.532100
  0
VERTEX
  8
C7
  10
279.307100
  20
324.408300
  0
VERTEX
  8
C7
  10
278.456500
  20
324.237400
  0
VERTEX
  8
C7
  10
277.642100
  20
324.015100
  0
VERTEX
  8
C7
  10
276.870300
  20
323.737100
  0
VERTEX
  8
C7
  10
276.147500
  20
323.399300
  0
VERTEX
  8
C7
  10
275.480100
  20
322.997300
  0
VERTEX
  8
C7
  10
274.874600
  20
322.526900
  0
VERTEX
  8
C7
  10
274.337400
  20
321.983800
  0
VERTEX
  8
C7
  10
273.874900
  20
321.363800
  0
VERTEX
  8
C7
  10
273.493600
  20
320.662700
  0
VERTEX
  8
C7
  10
273.199800
  20
319.876200
  0
VERTEX
  8
C7
  10
273.000000
  20
319.000000
  0
SEQEND
  8
C7
  0
POLYLINE
  8
C7
  66
1
  10
292.000000
  20
325.000000
  0
VERTEX
  8
C7
  10
292.000000
  20
325.000000
  0
VERTEX
  8
C7
  10
291.000000
  20
324.000000
  0
VERTEX
  8
C7
  10
292.000000
  20
319.000000
  0
VERTEX
  8
C7
  10
293.211900
  20
319.110400
  0
VERTEX
  8
C7
  10
294.300600
  20
319.252100
  0
VERTEX
  8
C7
  10
295.277900
  20
319.445700
  0
VERTEX
  8
C7
  10
296.155700
  20
319.712000
  0
VERTEX
  8
C7
  10
296.946000
  20
320.071800
  0
VERTEX
  8
C7
  10
297.660500
  20
320.545900
  0
VERTEX
  8
C7
  10
298.311300
  20
321.155000
  0
VERTEX
  8
C7
  10
298.910200
  20
321.919800
  0
VERTEX
  8
C7
  10
299.469100
  20
322.861200
  0
VERTEX
  8
C7
  10
300.000000
  20
324.000000
  0
VERTEX
  8
C7
  10
292.000000
  20
325.000000
  0
SEQEND
  8
C7
  0
POLYLINE
  8
C7
  66
1
  10
301.000000
  20
319.000000
  0
VERTEX
  8
C7
  10
301.000000
  20
319.000000
  0
VERTEX
  8
C7
  10
301.760600
  20
318.982500
  0
VERTEX
  8
C7
  10
302.586400
  20
318.936900
  0
VERTEX
  8
C7
  10
303.464300
  20
318.873900
  0
VERTEX
  8
C7
  10
304.381500
  20
318.803700
  0
VERTEX
  8
C7
  10
305.325000
  20
318.736900
  0
VERTEX
  8
C7
  10
306.281900
  20
318.683800
  0
VERTEX
  8
C7
  10
307.239300
  20
318.655000
  0
VERTEX
  8
C7
  10
308.184300
  20
318.660900
  0
VERTEX
  8
C7
  10
309.104000
  20
318.711900
  0
VERTEX
  8
C7
  10
309.985500
  20
318.818600
  0
VERTEX
  8
C7
  10
310.815800
  20
318.991300
  0
VERTEX
  8
C7
  10
311.582000
  20
319.240500
  0
VERTEX
  8
C7
  10
312.271200
  20
319.576600
  0
VERTEX
  8
C7
  10
312.870500
  20
320.010200
  0
VERTEX
  8
C7
  10
313.367000
  20
320.551700
  0
VERTEX
  8
C7
  10
313.747800
  20
321.211400
  0
VERTEX
  8
C7
  10
314.000000
  20
322.000000
  0
VERTEX
  8
C7
  10
315.000000
  20
322.000000
  0
VERTEX
  8
C7
  10
315.000000
  20
319.000000
  0
VERTEX
  8
C7
  10
316.185100
  20
319.026100
  0
VERTEX
  8
C7
  10
317.185800
  20
319.088600
  0
VERTEX
  8
C7
  10
318.018500
  20
319.246100
  0
VERTEX
  8
C7
  10
318.699800
  20
319.557300
  0
VERTEX
  8
C7
  10
319.246100
  20
320.080900
  0
VERTEX
  8
C7
  10
319.674000
  20
320.875500
  0
VERTEX
  8
C7
  10
320.000000
  20
322.000000
  0
VERTEX
  8
C7
  10
321.000000
  20
322.000000
  0
VERTEX
  8
C7
  10
321.000000
  20
319.000000
  0
VERTEX
  8
C7
  10
329.000000
  20
319.000000
  0
VERTEX
  8
C7
  10
328.000000
  20
324.000000
  0
VERTEX
  8
C7
  10
327.328800
  20
323.958900
  0
VERTEX
  8
C7
  10
326.604800
  20
323.940300
  0
VERTEX
  8
C7
  10
325.832100
  20
323.941600
  0
VERTEX
  8
C7
  10
325.015200
  20
323.960000
  0
VERTEX
  8
C7
  10
324.158100
  20
323.992800
  0
VERTEX
  8
C7
  10
323.265200
  20
324.037200
  0
VERTEX
  8
C7
  10
322.340800
  20
324.090600
  0
VERTEX
  8
C7
  10
321.389000
  20
324.150300
  0
VERTEX
  8
C7
  10
320.414200
  20
324.213500
  0
VERTEX
  8
C7
  10
319.420500
  20
324.277500
  0
VERTEX
  8
C7
  10
318.412400
  20
324.339600
  0
VERTEX
  8
C7
  10
317.393900
  20
324.397100
  0
VERTEX
  8
C7
  10
316.369400
  20
324.447300
  0
VERTEX
  8
C7
  10
315.343100
  20
324.487500
  0
VERTEX
  8
C7
  10
314.319300
  20
324.514800
  0
VERTEX
  8
C7
  10
313.302300
  20
324.526700
  0
VERTEX
  8
C7
  10
312.296200
  20
324.520500
  0
VERTEX
  8
C7
  10
311.305400
  20
324.493300
  0
VERTEX
  8
C7
  10
310.334100
  20
324.442500
  0
VERTEX
  8
C7
  10
309.386600
  20
324.365300
  0
VERTEX
  8
C7
  10
308.467100
  20
324.259100
  0
VERTEX
  8
C7
  10
307.579800
  20
324.121200
  0
VERTEX
  8
C7
  10
306.729100
  20
323.948800
  0
VERTEX
  8
C7
  10
305.919200
  20
323.739100
  0
VERTEX
  8
C7
  10
305.154300
  20
323.489600
  0
VERTEX
  8
C7
  10
304.438700
  20
323.197500
  0
VERTEX
  8
C7
  10
303.776700
  20
322.860000
  0
VERTEX
  8
C7
  10
303.172600
  20
322.474400
  0
VERTEX
  8
C7
  10
302.630400
  20
322.038100
  0
VERTEX
  8
C7
  10
302.154700
  20
321.548300
  0
VERTEX
  8
C7
  10
301.749500
  20
321.002300
  0
VERTEX
  8
C7
  10
301.419100
  20
320.397400
  0
VERTEX
  8
C7
  10
301.167800
  20
319.730800
  0
VERTEX
  8
C7
  10
301.000000
  20
319.000000
  0
SEQEND
  8
C7
  0
POLYLINE
  8
C7
  66
1
  10
331.000000
  20
325.000000
  0
VERTEX
  8
C7
  10
331.000000
  20
325.000000
  0
VERTEX
  8
C7
  10
331.000000
  20
319.000000
  0
VERTEX
  8
C7
  10
331.623300
  20
319.020100
  0
VERTEX
  8
C7
  10
332.334000
  20
319.016900
  0
VERTEX
  8
C7
  10
333.123400
  20
318.994200
  0
VERTEX
  8
C7
  10
333.982700
  20
318.955800
  0
VERTEX
  8
C7
  10
334.903400
  20
318.905700
  0
VERTEX
  8
C7
  10
335.876700
  20
318.847600
  0
VERTEX
  8
C7
  10
336.894000
  20
318.785600
  0
VERTEX
  8
C7
  10
337.946400
  20
318.723400
  0
VERTEX
  8
C7
  10
339.025400
  20
318.665000
  0
VERTEX
  8
C7
  10
340.122100
  20
318.614200
  0
VERTEX
  8
C7
  10
341.228100
  20
318.574900
  0
VERTEX
  8
C7
  10
342.334400
  20
318.550900
  0
VERTEX
  8
C7
  10
343.432500
  20
318.546200
  0
VERTEX
  8
C7
  10
344.513700
  20
318.564700
  0
VERTEX
  8
C7
  10
345.569200
  20
318.610100
  0
VERTEX
  8
C7
  10
346.590300
  20
318.686400
  0
VERTEX
  8
C7
  10
347.568400
  20
318.797400
  0
VERTEX
  8
C7
  10
348.494800
  20
318.947100
  0
VERTEX
  8
C7
  10
349.360800
  20
319.139200
  0
VERTEX
  8
C7
  10
350.157600
  20
319.377800
  0
VERTEX
  8
C7
  10
350.876600
  20
319.666500
  0
VERTEX
  8
C7
  10
351.509100
  20
320.009500
  0
VERTEX
  8
C7
  10
352.046300
  20
320.410400
  0
VERTEX
  8
C7
  10
352.479700
  20
320.873200
  0
VERTEX
  8
C7
  10
352.800500
  20
321.401800
  0
VERTEX
  8
C7
  10
353.000000
  20
322.000000
  0
VERTEX
  8
C7
  10
354.000000
  20
322.000000
  0
VERTEX
  8
C7
  10
354.000000
  20
319.000000
  0
VERTEX
  8
C7
  10
355.000000
  20
319.000000
  0
VERTEX
  8
C7
  10
355.000000
  20
324.000000
  0
VERTEX
  8
C7
  10
338.000000
  20
323.000000
  0
VERTEX
  8
C7
  10
331.000000
  20
325.000000
  0
SEQEND
  8
C7
  0
POLYLINE
  8
C7
  66
1
  10
357.000000
  20
325.000000
  0
VERTEX
  8
C7
  10
357.000000
  20
325.000000
  0
VERTEX
  8
C7
  10
357.000000
  20
319.000000
  0
VERTEX
  8
C7
  10
360.000000
  20
322.000000
  0
VERTEX
  8
C7
  10
361.000000
  20
322.000000
  0
VERTEX
  8
C7
  10
361.000000
  20
319.000000
  0
VERTEX
  8
C7
  10
366.000000
  20
319.000000
  0
VERTEX
  8
C7
  10
365.000000
  20
324.000000
  0
VERTEX
  8
C7
  10
357.000000
  20
325.000000
  0
SEQEND
  8
C7
  0
POLYLINE
  8
C7
  66
1
  10
368.000000
  20
325.000000
  0
VERTEX
  8
C7
  10
368.000000
  20
325.000000
  0
VERTEX
  8
C7
  10
368.000000
  20
319.000000
  0
VERTEX
  8
C7
  10
389.000000
  20
318.000000
  0
VERTEX
  8
C7
  10
390.000000
  20
321.000000
  0
VERTEX
  8
C7
  10
391.000000
  20
321.000000
  0
VERTEX
  8
C7
  10
391.000000
  20
318.000000
  0
VERTEX
  8
C7
  10
391.924700
  20
318.236100
  0
VERTEX
  8
C7
  10
392.860200
  20
318.450900
  0
VERTEX
  8
C7
  10
393.806000
  20
318.645100
  0
VERTEX
  8
C7
  10
394.761500
  20
318.819400
  0
VERTEX
  8
C7
  10
395.726100
  20
318.974600
  0
VERTEX
  8
C7
  10
396.699300
  20
319.111700
  0
VERTEX
  8
C7
  10
397.680600
  20
319.231300
  0
VERTEX
  8
C7
  10
398.669200
  20
319.334200
  0
VERTEX
  8
C7
  10
399.664800
  20
319.421200
  0
VERTEX
  8
C7
  10
400.666600
  20
319.493200
  0
VERTEX
  8
C7
  10
401.674200
  20
319.550900
  0
VERTEX
  8
C7
  10
402.687100
  20
319.595200
  0
VERTEX
  8
C7
  10
403.704500
  20
319.626700
  0
VERTEX
  8
C7
  10
404.726000
  20
319.646400
  0
VERTEX
  8
C7
  10
405.751000
  20
319.654900
  0
VERTEX
  8
C7
  10
406.779000
  20
319.653100
  0
VERTEX
  8
C7
  10
407.809300
  20
319.641800
  0
VERTEX
  8
C7
  10
408.841500
  20
319.621800
  0
VERTEX
  8
C7
  10
409.874900
  20
319.593900
  0
VERTEX
  8
C7
  10
410.909000
  20
319.558800
  0
VERTEX
  8
C7
  10
411.943300
  20
319.517300
  0
VERTEX
  8
C7
  10
412.977100
  20
319.470400
  0
VERTEX
  8
C7
  10
414.009900
  20
319.418600
  0
VERTEX
  8
C7
  10
415.041200
  20
319.362900
  0
VERTEX
  8
C7
  10
416.070300
  20
319.304000
  0
VERTEX
  8
C7
  10
417.096700
  20
319.242800
  0
VERTEX
  8
C7
  10
418.119900
  20
319.179900
  0
VERTEX
  8
C7
  10
419.139300
  20
319.116300
  0
VERTEX
  8
C7
  10
420.154400
  20
319.052700
  0
VERTEX
  8
C7
  10
421.164400
  20
318.989900
  0
VERTEX
  8
C7
  10
422.169000
  20
318.928600
  0
VERTEX
  8
C7
  10
423.167600
  20
318.869800
  0
VERTEX
  8
C7
  10
424.159500
  20
318.814100
  0
VERTEX
  8
C7
  10
425.144200
  20
318.762400
  0
VERTEX
  8
C7
  10
426.121200
  20
318.715400
  0
VERTEX
  8
C7
  10
427.089800
  20
318.674000
  0
VERTEX
  8
C7
  10
428.049600
  20
318.639000
  0
VERTEX
  8
C7
  10
429.000000
  20
318.611100
  0
VERTEX
  8
C7
  10
429.791300
  20
318.583600
  0
VERTEX
  8
C7
  10
430.662000
  20
318.545300
  0
VERTEX
  8
C7
  10
431.595700
  20
318.505300
  0
VERTEX
  8
C7
  10
432.576000
  20
318.472800
  0
VERTEX
  8
C7
  10
433.586500
  20
318.456900
  0
VERTEX
  8
C7
  10
434.610800
  20
318.466900
  0
VERTEX
  8
C7
  10
435.632500
  20
318.511800
  0
VERTEX
  8
C7
  10
436.635000
  20
318.600800
  0
VERTEX
  8
C7
  10
437.602100
  20
318.743100
  0
VERTEX
  8
C7
  10
438.517400
  20
318.947800
  0
VERTEX
  8
C7
  10
439.364300
  20
319.224100
  0
VERTEX
  8
C7
  10
440.126500
  20
319.581100
  0
VERTEX
  8
C7
  10
440.787600
  20
320.028100
  0
VERTEX
  8
C7
  10
441.331100
  20
320.574100
  0
VERTEX
  8
C7
  10
441.740700
  20
321.228300
  0
VERTEX
  8
C7
  10
442.000000
  20
322.000000
  0
VERTEX
  8
C7
  10
443.000000
  20
322.000000
  0
VERTEX
  8
C7
  10
443.000000
  20
319.000000
  0
VERTEX
  8
C7
  10
444.000000
  20
319.000000
  0
VERTEX
  8
C7
  10
441.000000
  20
325.000000
  0
VERTEX
  8
C7
  10
441.000000
  20
323.000000
  0
VERTEX
  8
C7
  10
412.000000
  20
325.000000
  0
VERTEX
  8
C7
  10
412.000000
  20
321.000000
  0
VERTEX
  8
C7
  10
410.000000
  20
321.000000
  0
VERTEX
  8
C7
  10
410.000000
  20
325.000000
  0
VERTEX
  8
C7
  10
400.000000
  20
321.000000
  0
VERTEX
  8
C7
  10
399.000000
  20
321.000000
  0
VERTEX
  8
C7
  10
399.000000
  20
324.000000
  0
VERTEX
  8
C7
  10
393.000000
  20
325.000000
  0
VERTEX
  8
C7
  10
392.000000
  20
321.000000
  0
VERTEX
  8
C7
  10
391.000000
  20
321.000000
  0
VERTEX
  8
C7
  10
391.000000
  20
324.000000
  0
VERTEX
  8
C7
  10
368.000000
  20
325.000000
  0
SEQEND
  8
C7
  0
POLYLINE
  8
C7
  66
1
  10
447.000000
  20
324.000000
  0
VERTEX
  8
C7
  10
447.000000
  20
324.000000
  0
VERTEX
  8
C7
  10
446.000000
  20
319.000000
  0
VERTEX
  8
C7
  10
447.185100
  20
319.026100
  0
VERTEX
  8
C7
  10
448.185800
  20
319.088600
  0
VERTEX
  8
C7
  10
449.018500
  20
319.246100
  0
VERTEX
  8
C7
  10
449.699800
  20
319.557300
  0
VERTEX
  8
C7
  10
450.246100
  20
320.080900
  0
VERTEX
  8
C7
  10
450.674000
  20
320.875500
  0
VERTEX
  8
C7
  10
451.000000
  20
322.000000
  0
VERTEX
  8
C7
  10
452.000000
  20
322.000000
  0
VERTEX
  8
C7
  10
452.000000
  20
319.000000
  0
VERTEX
  8
C7
  10
457.000000
  20
319.000000
  0
VERTEX
  8
C7
  10
457.000000
  20
325.000000
  0
VERTEX
  8
C7
  10
447.000000
  20
324.000000
  0
SEQEND
  8
C7
  0
POLYLINE
  8
C7
  66
1
  10
459.000000
  20
324.000000
  0
VERTEX
  8
C7
  10
459.000000
  20
324.000000
  0
VERTEX
  8
C7
  10
458.937200
  20
323.238900
  0
VERTEX
  8
C7
  10
458.988300
  20
322.547700
  0
VERTEX
  8
C7
  10
459.146600
  20
321.923300
  0
VERTEX
  8
C7
  10
459.405500
  20
321.362500
  0
VERTEX
  8
C7
  10
459.758600
  20
320.862300
  0
VERTEX
  8
C7
  10
460.199200
  20
320.419500
  0
VERTEX
  8
C7
  10
460.720800
  20
320.031200
  0
VERTEX
  8
C7
  10
461.316900
  20
319.694100
  0
VERTEX
  8
C7
  10
461.980900
  20
319.405300
  0
VERTEX
  8
C7
  10
462.706200
  20
319.161500
  0
VERTEX
  8
C7
  10
463.486300
  20
318.959800
  0
VERTEX
  8
C7
  10
464.314600
  20
318.797000
  0
VERTEX
  8
C7
  10
465.184700
  20
318.670000
  0
VERTEX
  8
C7
  10
466.089800
  20
318.575800
  0
VERTEX
  8
C7
  10
467.023500
  20
318.511300
  0
VERTEX
  8
C7
  10
467.979200
  20
318.473300
  0
VERTEX
  8
C7
  10
468.950400
  20
318.458800
  0
VERTEX
  8
C7
  10
469.930400
  20
318.464600
  0
VERTEX
  8
C7
  10
470.912900
  20
318.487800
  0
VERTEX
  8
C7
  10
471.891100
  20
318.525200
  0
VERTEX
  8
C7
  10
472.858500
  20
318.573700
  0
VERTEX
  8
C7
  10
473.808700
  20
318.630200
  0
VERTEX
  8
C7
  10
474.735000
  20
318.691600
  0
VERTEX
  8
C7
  10
475.630800
  20
318.754800
  0
VERTEX
  8
C7
  10
476.489700
  20
318.816900
  0
VERTEX
  8
C7
  10
477.305000
  20
318.874500
  0
VERTEX
  8
C7
  10
478.070300
  20
318.924800
  0
VERTEX
  8
C7
  10
478.778900
  20
318.964500
  0
VERTEX
  8
C7
  10
479.424300
  20
318.990600
  0
VERTEX
  8
C7
  10
480.000000
  20
319.000000
  0
VERTEX
  8
C7
  10
479.000000
  20
325.000000
  0
VERTEX
  8
C7
  10
469.000000
  20
323.000000
  0
VERTEX
  8
C7
  10
459.000000
  20
324.000000
  0
SEQEND
  8
C7
  0
POLYLINE
  8
C7
  66
1
  10
654.000000
  20
324.000000
  0
VERTEX
  8
C7
  10
654.000000
  20
324.000000
  0
VERTEX
  8
C7
  10
654.000000
  20
321.000000
  0
VERTEX
  8
C7
  10
656.000000
  20
321.000000
  0
VERTEX
  8
C7
  10
656.000000
  20
324.000000
  0
VERTEX
  8
C7
  10
654.000000
  20
324.000000
  0
SEQEND
  8
C7
  0
POLYLINE
  8
C7
  66
1
  10
712.000000
  20
324.000000
  0
VERTEX
  8
C7
  10
712.000000
  20
324.000000
  0
VERTEX
  8
C7
  10
712.000000
  20
321.000000
  0
VERTEX
  8
C7
  10
715.000000
  20
322.000000
  0
VERTEX
  8
C7
  10
715.000000
  20
323.000000
  0
VERTEX
  8
C7
  10
712.000000
  20
324.000000
  0
SEQEND
  8
C7
  0
POLYLINE
  8
C7
  66
1
  10
106.000000
  20
319.000000
  0
VERTEX
  8
C7
  10
106.000000
  20
319.000000
  0
VERTEX
  8
C7
  10
111.000000
  20
315.000000
  0
VERTEX
  8
C7
  10
106.000000
  20
316.000000
  0
VERTEX
  8
C7
  10
106.448000
  20
315.178500
  0
VERTEX
  8
C7
  10
106.996300
  20
314.478600
  0
VERTEX
  8
C7
  10
107.622200
  20
313.908400
  0
VERTEX
  8
C7
  10
108.302900
  20
313.476600
  0
VERTEX
  8
C7
  10
109.015900
  20
313.191200
  0
VERTEX
  8
C7
  10
109.738300
  20
313.060800
  0
VERTEX
  8
C7
  10
110.447400
  20
313.093700
  0
VERTEX
  8
C7
  10
111.120600
  20
313.298200
  0
VERTEX
  8
C7
  10
111.735200
  20
313.682700
  0
VERTEX
  8
C7
  10
112.268400
  20
314.255600
  0
VERTEX
  8
C7
  10
112.697600
  20
315.025300
  0
VERTEX
  8
C7
  10
113.000000
  20
316.000000
  0
VERTEX
  8
C7
  10
114.000000
  20
316.000000
  0
VERTEX
  8
C7
  10
114.000000
  20
313.000000
  0
VERTEX
  8
C7
  10
120.000000
  20
313.000000
  0
VERTEX
  8
C7
  10
120.000000
  20
322.000000
  0
VERTEX
  8
C7
  10
118.803900
  20
322.236400
  0
VERTEX
  8
C7
  10
117.775100
  20
322.343100
  0
VERTEX
  8
C7
  10
116.893600
  20
322.297500
  0
VERTEX
  8
C7
  10
116.139600
  20
322.077200
  0
VERTEX
  8
C7
  10
115.493000
  20
321.659700
  0
VERTEX
  8
C7
  10
114.934200
  20
321.022600
  0
VERTEX
  8
C7
  10
114.443100
  20
320.143500
  0
VERTEX
  8
C7
  10
114.000000
  20
319.000000
  0
VERTEX
  8
C7
  10
113.319500
  20
319.866500
  0
VERTEX
  8
C7
  10
112.633400
  20
320.595200
  0
VERTEX
  8
C7
  10
111.944200
  20
321.180000
  0
VERTEX
  8
C7
  10
111.254200
  20
321.615200
  0
VERTEX
  8
C7
  10
110.566000
  20
321.894700
  0
VERTEX
  8
C7
  10
109.881800
  20
322.012700
  0
VERTEX
  8
C7
  10
109.204300
  20
321.963400
  0
VERTEX
  8
C7
  10
108.535700
  20
321.740800
  0
VERTEX
  8
C7
  10
107.878500
  20
321.339000
  0
VERTEX
  8
C7
  10
107.235300
  20
320.752200
  0
VERTEX
  8
C7
  10
106.608200
  20
319.974500
  0
VERTEX
  8
C7
  10
106.000000
  20
319.000000
  0
SEQEND
  8
C7
  0
POLYLINE
  8
C7
  66
1
  10
121.000000
  20
313.000000
  0
VERTEX
  8
C7
  10
121.000000
  20
313.000000
  0
VERTEX
  8
C7
  10
121.823400
  20
313.089400
  0
VERTEX
  8
C7
  10
122.571700
  20
313.221500
  0
VERTEX
  8
C7
  10
123.247400
  20
313.393000
  0
VERTEX
  8
C7
  10
123.853200
  20
313.600900
  0
VERTEX
  8
C7
  10
124.391700
  20
313.842100
  0
VERTEX
  8
C7
  10
124.865600
  20
314.113400
  0
VERTEX
  8
C7
  10
125.277400
  20
314.411800
  0
VERTEX
  8
C7
  10
125.629900
  20
314.734200
  0
VERTEX
  8
C7
  10
125.925600
  20
315.077500
  0
VERTEX
  8
C7
  10
126.167200
  20
315.438600
  0
VERTEX
  8
C7
  10
126.357300
  20
315.814300
  0
VERTEX
  8
C7
  10
126.498600
  20
316.201600
  0
VERTEX
  8
C7
  10
126.593600
  20
316.597400
  0
VERTEX
  8
C7
  10
126.645100
  20
316.998600
  0
VERTEX
  8
C7
  10
126.655600
  20
317.402000
  0
VERTEX
  8
C7
  10
126.627900
  20
317.804600
  0
VERTEX
  8
C7
  10
126.564400
  20
318.203300
  0
VERTEX
  8
C7
  10
126.467900
  20
318.595000
  0
VERTEX
  8
C7
  10
126.341000
  20
318.976600
  0
VERTEX
  8
C7
  10
126.186300
  20
319.345000
  0
VERTEX
  8
C7
  10
126.006400
  20
319.697000
  0
VERTEX
  8
C7
  10
125.804100
  20
320.029600
  0
VERTEX
  8
C7
  10
125.581900
  20
320.339700
  0
VERTEX
  8
C7
  10
125.342400
  20
320.624200
  0
VERTEX
  8
C7
  10
125.088300
  20
320.880000
  0
VERTEX
  8
C7
  10
124.822300
  20
321.104000
  0
VERTEX
  8
C7
  10
124.546900
  20
321.293000
  0
VERTEX
  8
C7
  10
124.264800
  20
321.444000
  0
VERTEX
  8
C7
  10
123.978600
  20
321.553900
  0
VERTEX
  8
C7
  10
123.691000
  20
321.619600
  0
VERTEX
  8
C7
  10
123.404500
  20
321.638000
  0
VERTEX
  8
C7
  10
123.121900
  20
321.606000
  0
VERTEX
  8
C7
  10
122.845800
  20
321.520500
  0
VERTEX
  8
C7
  10
122.578700
  20
321.378300
  0
VERTEX
  8
C7
  10
122.323400
  20
321.176500
  0
VERTEX
  8
C7
  10
122.082500
  20
320.911800
  0
VERTEX
  8
C7
  10
121.858500
  20
320.581200
  0
VERTEX
  8
C7
  10
121.654200
  20
320.181600
  0
VERTEX
  8
C7
  10
121.472100
  20
319.709900
  0
VERTEX
  8
C7
  10
121.314900
  20
319.163000
  0
VERTEX
  8
C7
  10
121.185300
  20
318.537800
  0
VERTEX
  8
C7
  10
121.085800
  20
317.831200
  0
VERTEX
  8
C7
  10
121.019200
  20
317.040100
  0
VERTEX
  8
C7
  10
120.983000
  20
316.033600
  0
VERTEX
  8
C7
  10
120.980300
  20
315.020200
  0
VERTEX
  8
C7
  10
120.992300
  20
314.006600
  0
VERTEX
  8
C7
  10
121.000000
  20
313.000000
  0
SEQEND
  8
C7
  0
POLYLINE
  8
C7
  66
1
  10
635.000000
  20
323.000000
  0
VERTEX
  8
C7
  10
635.000000
  20
323.000000
  0
VERTEX
  8
C7
  10
635.000000
  20
321.000000
  0
VERTEX
  8
C7
  10
637.000000
  20
321.000000
  0
VERTEX
  8
C7
  10
635.000000
  20
323.000000
  0
SEQEND
  8
C7
  0
POLYLINE
  8
C7
  66
1
  10
726.000000
  20
323.000000
  0
VERTEX
  8
C7
  10
726.000000
  20
323.000000
  0
VERTEX
  8
C7
  10
726.000000
  20
322.000000
  0
VERTEX
  8
C7
  10
730.000000
  20
321.000000
  0
VERTEX
  8
C7
  10
730.000000
  20
322.000000
  0
VERTEX
  8
C7
  10
726.000000
  20
323.000000
  0
SEQEND
  8
C7
  0
POLYLINE
  8
C7
  66
1
  10
274.000000
  20
322.000000
  0
VERTEX
  8
C7
  10
274.000000
  20
322.000000
  0
VERTEX
  8
C7
  10
275.000000
  20
321.000000
  0
VERTEX
  8
C7
  10
274.000000
  20
322.000000
  0
SEQEND
  8
C7
  0
POLYLINE
  8
C7
  66
1
  10
295.000000
  20
322.000000
  0
VERTEX
  8
C7
  10
295.000000
  20
322.000000
  0
VERTEX
  8
C7
  10
296.000000
  20
321.000000
  0
VERTEX
  8
C7
  10
295.000000
  20
322.000000
  0
SEQEND
  8
C7
  0
POLYLINE
  8
C7
  66
1
  10
302.000000
  20
322.000000
  0
VERTEX
  8
C7
  10
302.000000
  20
322.000000
  0
VERTEX
  8
C7
  10
303.000000
  20
321.000000
  0
VERTEX
  8
C7
  10
302.000000
  20
322.000000
  0
SEQEND
  8
C7
  0
POLYLINE
  8
C7
  66
1
  10
332.000000
  20
322.000000
  0
VERTEX
  8
C7
  10
332.000000
  20
322.000000
  0
VERTEX
  8
C7
  10
333.000000
  20
321.000000
  0
VERTEX
  8
C7
  10
332.000000
  20
322.000000
  0
SEQEND
  8
C7
  0
POLYLINE
  8
C7
  66
1
  10
383.000000
  20
322.000000
  0
VERTEX
  8
C7
  10
383.000000
  20
322.000000
  0
VERTEX
  8
C7
  10
384.000000
  20
321.000000
  0
VERTEX
  8
C7
  10
383.000000
  20
322.000000
  0
SEQEND
  8
C7
  0
POLYLINE
  8
C7
  66
1
  10
413.000000
  20
322.000000
  0
VERTEX
  8
C7
  10
413.000000
  20
322.000000
  0
VERTEX
  8
C7
  10
414.000000
  20
321.000000
  0
VERTEX
  8
C7
  10
413.000000
  20
322.000000
  0
SEQEND
  8
C7
  0
POLYLINE
  8
C7
  66
1
  10
420.000000
  20
322.000000
  0
VERTEX
  8
C7
  10
420.000000
  20
322.000000
  0
VERTEX
  8
C7
  10
421.000000
  20
321.000000
  0
VERTEX
  8
C7
  10
420.000000
  20
322.000000
  0
SEQEND
  8
C7
  0
POLYLINE
  8
C7
  66
1
  10
430.000000
  20
322.000000
  0
VERTEX
  8
C7
  10
430.000000
  20
322.000000
  0
VERTEX
  8
C7
  10
431.000000
  20
321.000000
  0
VERTEX
  8
C7
  10
430.000000
  20
322.000000
  0
SEQEND
  8
C7
  0
POLYLINE
  8
C7
  66
1
  10
460.000000
  20
322.000000
  0
VERTEX
  8
C7
  10
460.000000
  20
322.000000
  0
VERTEX
  8
C7
  10
461.000000
  20
321.000000
  0
VERTEX
  8
C7
  10
460.000000
  20
322.000000
  0
SEQEND
  8
C7
  0
POLYLINE
  8
C7
  66
1
  10
670.000000
  20
322.000000
  0
VERTEX
  8
C7
  10
670.000000
  20
322.000000
  0
VERTEX
  8
C7
  10
671.000000
  20
320.000000
  0
VERTEX
  8
C7
  10
672.000000
  20
320.000000
  0
VERTEX
  8
C7
  10
673.000000
  20
322.000000
  0
VERTEX
  8
C7
  10
670.000000
  20
322.000000
  0
SEQEND
  8
C7
  0
POLYLINE
  8
C7
  66
1
  10
695.000000
  20
322.000000
  0
VERTEX
  8
C7
  10
695.000000
  20
322.000000
  0
VERTEX
  8
C7
  10
694.000000
  20
320.000000
  0
VERTEX
  8
C7
  10
695.000000
  20
322.000000
  0
SEQEND
  8
C7
  0
POLYLINE
  8
C7
  66
1
  10
109.333336
  20
320.333344
  0
VERTEX
  8
C7
  10
109.333336
  20
320.333344
  0
VERTEX
  8
C7
  10
109.666664
  20
319.666656
  0
VERTEX
  8
C7
  10
109.333336
  20
320.333344
  0
SEQEND
  8
C7
  0
POLYLINE
  8
C7
  66
1
  10
116.666664
  20
320.666656
  0
VERTEX
  8
C7
  10
116.666664
  20
320.666656
  0
VERTEX
  8
C7
  10
117.333336
  20
320.333344
  0
VERTEX
  8
C7
  10
116.666664
  20
320.666656
  0
SEQEND
  8
C7
  0
POLYLINE
  8
C7
  66
1
  10
123.000000
  20
321.000000
  0
VERTEX
  8
C7
  10
123.000000
  20
321.000000
  0
VERTEX
  8
C7
  10
123.000000
  20
315.000000
  0
VERTEX
  8
C7
  10
125.000000
  20
315.000000
  0
VERTEX
  8
C7
  10
123.000000
  20
321.000000
  0
SEQEND
  8
C7
  0
POLYLINE
  8
C7
  66
1
  10
387.333344
  20
320.333344
  0
VERTEX
  8
C7
  10
387.333344
  20
320.333344
  0
VERTEX
  8
C7
  10
387.666656
  20
319.666656
  0
VERTEX
  8
C7
  10
387.333344
  20
320.333344
  0
SEQEND
  8
C7
  0
POLYLINE
  8
C7
  66
1
  10
237.000000
  20
320.000000
  0
VERTEX
  8
C7
  10
237.000000
  20
320.000000
  0
VERTEX
  8
C7
  10
237.000000
  20
315.000000
  0
VERTEX
  8
C7
  10
238.000000
  20
315.000000
  0
VERTEX
  8
C7
  10
237.000000
  20
320.000000
  0
SEQEND
  8
C7
  0
POLYLINE
  8
C7
  66
1
  10
526.000000
  20
320.000000
  0
VERTEX
  8
C7
  10
526.000000
  20
320.000000
  0
VERTEX
  8
C7
  10
526.000000
  20
315.000000
  0
VERTEX
  8
C7
  10
527.000000
  20
315.000000
  0
VERTEX
  8
C7
  10
526.000000
  20
320.000000
  0
SEQEND
  8
C7
  0
POLYLINE
  8
C7
  66
1
  10
112.000000
  20
319.000000
  0
VERTEX
  8
C7
  10
112.000000
  20
319.000000
  0
VERTEX
  8
C7
  10
113.000000
  20
318.000000
  0
VERTEX
  8
C7
  10
112.000000
  20
319.000000
  0
SEQEND
  8
C7
  0
POLYLINE
  8
C7
  66
1
  10
116.000000
  20
317.000000
  0
VERTEX
  8
C7
  10
116.000000
  20
317.000000
  0
VERTEX
  8
C7
  10
116.000000
  20
315.000000
  0
VERTEX
  8
C7
  10
118.000000
  20
315.000000
  0
VERTEX
  8
C7
  10
118.000000
  20
317.000000
  0
VERTEX
  8
C7
  10
116.000000
  20
317.000000
  0
SEQEND
  8
C7
  0
POLYLINE
  8
C7
  66
1
  10
274.000000
  20
317.000000
  0
VERTEX
  8
C7
  10
274.000000
  20
317.000000
  0
VERTEX
  8
C7
  10
272.000000
  20
311.000000
  0
VERTEX
  8
C7
  10
274.000000
  20
313.000000
  0
VERTEX
  8
C7
  10
275.000000
  20
313.000000
  0
VERTEX
  8
C7
  10
276.000000
  20
313.000000
  0
VERTEX
  8
C7
  10
276.674300
  20
312.248200
  0
VERTEX
  8
C7
  10
277.378800
  20
311.635800
  0
VERTEX
  8
C7
  10
278.109300
  20
311.182500
  0
VERTEX
  8
C7
  10
278.861400
  20
310.908400
  0
VERTEX
  8
C7
  10
279.630800
  20
310.833200
  0
VERTEX
  8
C7
  10
280.413200
  20
310.976800
  0
VERTEX
  8
C7
  10
281.204400
  20
311.359100
  0
VERTEX
  8
C7
  10
282.000000
  20
312.000000
  0
VERTEX
  8
C7
  10
291.000000
  20
311.000000
  0
VERTEX
  8
C7
  10
291.000000
  20
317.000000
  0
VERTEX
  8
C7
  10
276.000000
  20
317.000000
  0
VERTEX
  8
C7
  10
274.000000
  20
317.000000
  0
SEQEND
  8
C7
  0
POLYLINE
  8
C7
  66
1
  10
293.000000
  20
317.000000
  0
VERTEX
  8
C7
  10
293.000000
  20
317.000000
  0
VERTEX
  8
C7
  10
293.000000
  20
311.000000
  0
VERTEX
  8
C7
  10
296.000000
  20
311.000000
  0
VERTEX
  8
C7
  10
297.000000
  20
317.000000
  0
VERTEX
  8
C7
  10
293.000000
  20
317.000000
  0
SEQEND
  8
C7
  0
POLYLINE
  8
C7
  66
1
  10
298.000000
  20
316.000000
  0
VERTEX
  8
C7
  10
298.000000
  20
316.000000
  0
VERTEX
  8
C7
  10
298.000000
  20
311.000000
  0
VERTEX
  8
C7
  10
299.000000
  20
311.000000
  0
VERTEX
  8
C7
  10
299.000000
  20
314.000000
  0
VERTEX
  8
C7
  10
300.000000
  20
314.000000
  0
VERTEX
  8
C7
  10
300.000000
  20
311.000000
  0
VERTEX
  8
C7
  10
300.618400
  20
311.042000
  0
VERTEX
  8
C7
  10
301.323300
  20
311.057800
  0
VERTEX
  8
C7
  10
302.106300
  20
311.051200
  0
VERTEX
  8
C7
  10
302.959200
  20
311.026000
  0
VERTEX
  8
C7
  10
303.873800
  20
310.986000
  0
VERTEX
  8
C7
  10
304.841900
  20
310.934800
  0
VERTEX
  8
C7
  10
305.855400
  20
310.876400
  0
VERTEX
  8
C7
  10
306.905900
  20
310.814500
  0
VERTEX
  8
C7
  10
307.985300
  20
310.752900
  0
VERTEX
  8
C7
  10
309.085500
  20
310.695300
  0
VERTEX
  8
C7
  10
310.198100
  20
310.645600
  0
VERTEX
  8
C7
  10
311.314900
  20
310.607500
  0
VERTEX
  8
C7
  10
312.427900
  20
310.584700
  0
VERTEX
  8
C7
  10
313.528700
  20
310.581200
  0
VERTEX
  8
C7
  10
314.609100
  20
310.600600
  0
VERTEX
  8
C7
  10
315.661000
  20
310.646700
  0
VERTEX
  8
C7
  10
316.676100
  20
310.723400
  0
VERTEX
  8
C7
  10
317.646300
  20
310.834300
  0
VERTEX
  8
C7
  10
318.563300
  20
310.983400
  0
VERTEX
  8
C7
  10
319.418900
  20
311.174200
  0
VERTEX
  8
C7
  10
320.204900
  20
311.410800
  0
VERTEX
  8
C7
  10
320.913100
  20
311.696700
  0
VERTEX
  8
C7
  10
321.535300
  20
312.035800
  0
VERTEX
  8
C7
  10
322.063300
  20
312.431900
  0
VERTEX
  8
C7
  10
322.488900
  20
312.888800
  0
VERTEX
  8
C7
  10
322.803800
  20
313.410200
  0
VERTEX
  8
C7
  10
323.000000
  20
314.000000
  0
VERTEX
  8
C7
  10
324.000000
  20
314.000000
  0
VERTEX
  8
C7
  10
324.000000
  20
310.000000
  0
VERTEX
  8
C7
  10
326.000000
  20
312.000000
  0
VERTEX
  8
C7
  10
329.000000
  20
311.000000
  0
VERTEX
  8
C7
  10
327.000000
  20
313.000000
  0
VERTEX
  8
C7
  10
328.000000
  20
316.000000
  0
VERTEX
  8
C7
  10
298.000000
  20
316.000000
  0
SEQEND
  8
C7
  0
POLYLINE
  8
C7
  66
1
  10
306.000000
  20
314.000000
  0
VERTEX
  8
C7
  10
306.000000
  20
314.000000
  0
VERTEX
  8
C7
  10
307.000000
  20
313.000000
  0
VERTEX
  8
C7
  10
306.000000
  20
314.000000
  0
SEQEND
  8
C7
  0
POLYLINE
  8
C7
  66
1
  10
237.000000
  20
312.000000
  0
VERTEX
  8
C7
  10
237.000000
  20
312.000000
  0
VERTEX
  8
C7
  10
237.000000
  20
306.000000
  0
VERTEX
  8
C7
  10
238.000000
  20
306.000000
  0
VERTEX
  8
C7
  10
237.000000
  20
312.000000
  0
SEQEND
  8
C7
  0
POLYLINE
  8
C7
  66
1
  10
526.000000
  20
312.000000
  0
VERTEX
  8
C7
  10
526.000000
  20
312.000000
  0
VERTEX
  8
C7
  10
526.000000
  20
306.000000
  0
VERTEX
  8
C7
  10
527.000000
  20
306.000000
  0
VERTEX
  8
C7
  10
526.000000
  20
312.000000
  0
SEQEND
  8
C7
  0
POLYLINE
  8
C7
  66
1
  10
267.000000
  20
309.000000
  0
VERTEX
  8
C7
  10
267.000000
  20
309.000000
  0
VERTEX
  8
C7
  10
267.000000
  20
304.000000
  0
VERTEX
  8
C7
  10
272.000000
  20
304.000000
  0
VERTEX
  8
C7
  10
271.000000
  20
309.000000
  0
VERTEX
  8
C7
  10
267.000000
  20
309.000000
  0
SEQEND
  8
C7
  0
POLYLINE
  8
C7
  66
1
  10
272.000000
  20
309.000000
  0
VERTEX
  8
C7
  10
272.000000
  20
309.000000
  0
VERTEX
  8
C7
  10
272.000000
  20
308.000000
  0
VERTEX
  8
C7
  10
274.000000
  20
304.000000
  0
VERTEX
  8
C7
  10
275.000000
  20
304.000000
  0
VERTEX
  8
C7
  10
275.000000
  20
308.000000
  0
VERTEX
  8
C7
  10
276.000000
  20
308.000000
  0
VERTEX
  8
C7
  10
276.000000
  20
304.000000
  0
VERTEX
  8
C7
  10
289.000000
  20
304.000000
  0
VERTEX
  8
C7
  10
289.000000
  20
308.000000
  0
VERTEX
  8
C7
  10
272.000000
  20
309.000000
  0
SEQEND
  8
C7
  0
POLYLINE
  8
C7
  66
1
  10
291.000000
  20
309.000000
  0
VERTEX
  8
C7
  10
291.000000
  20
309.000000
  0
VERTEX
  8
C7
  10
291.000000
  20
304.000000
  0
VERTEX
  8
C7
  10
294.000000
  20
306.000000
  0
VERTEX
  8
C7
  10
295.000000
  20
306.000000
  0
VERTEX
  8
C7
  10
300.000000
  20
304.000000
  0
VERTEX
  8
C7
  10
300.000000
  20
308.000000
  0
VERTEX
  8
C7
  10
291.000000
  20
309.000000
  0
SEQEND
  8
C7
  0
POLYLINE
  8
C7
  66
1
  10
302.000000
  20
309.000000
  0
VERTEX
  8
C7
  10
302.000000
  20
309.000000
  0
VERTEX
  8
C7
  10
301.000000
  20
308.000000
  0
VERTEX
  8
C7
  10
302.000000
  20
304.000000
  0
VERTEX
  8
C7
  10
312.000000
  20
302.000000
  0
VERTEX
  8
C7
  10
313.000000
  20
302.000000
  0
VERTEX
  8
C7
  10
314.000000
  20
302.000000
  0
VERTEX
  8
C7
  10
327.000000
  20
304.000000
  0
VERTEX
  8
C7
  10
326.705200
  20
304.748300
  0
VERTEX
  8
C7
  10
326.335000
  20
305.419700
  0
VERTEX
  8
C7
  10
325.893400
  20
306.018200
  0
VERTEX
  8
C7
  10
325.384900
  20
306.547600
  0
VERTEX
  8
C7
  10
324.813800
  20
307.011900
  0
VERTEX
  8
C7
  10
324.184200
  20
307.414900
  0
VERTEX
  8
C7
  10
323.500500
  20
307.760600
  0
VERTEX
  8
C7
  10
322.767000
  20
308.052800
  0
VERTEX
  8
C7
  10
321.987900
  20
308.295400
  0
VERTEX
  8
C7
  10
321.167600
  20
308.492500
  0
VERTEX
  8
C7
  10
320.310300
  20
308.647700
  0
VERTEX
  8
C7
  10
319.420300
  20
308.765200
  0
VERTEX
  8
C7
  10
318.501900
  20
308.848700
  0
VERTEX
  8
C7
  10
317.559400
  20
308.902200
  0
VERTEX
  8
C7
  10
316.597100
  20
308.929600
  0
VERTEX
  8
C7
  10
315.619200
  20
308.934700
  0
VERTEX
  8
C7
  10
314.630000
  20
308.921500
  0
VERTEX
  8
C7
  10
313.633900
  20
308.894000
  0
VERTEX
  8
C7
  10
312.635100
  20
308.855900
  0
VERTEX
  8
C7
  10
311.637900
  20
308.811200
  0
VERTEX
  8
C7
  10
310.646600
  20
308.763800
  0
VERTEX
  8
C7
  10
309.665500
  20
308.717600
  0
VERTEX
  8
C7
  10
308.698800
  20
308.676500
  0
VERTEX
  8
C7
  10
307.750800
  20
308.644400
  0
VERTEX
  8
C7
  10
306.825900
  20
308.625200
  0
VERTEX
  8
C7
  10
305.928300
  20
308.622900
  0
VERTEX
  8
C7
  10
305.062300
  20
308.641200
  0
VERTEX
  8
C7
  10
304.232200
  20
308.684200
  0
VERTEX
  8
C7
  10
303.442200
  20
308.755700
  0
VERTEX
  8
C7
  10
302.696700
  20
308.859700
  0
VERTEX
  8
C7
  10
302.000000
  20
309.000000
  0
SEQEND
  8
C7
  0
POLYLINE
  8
C7
  66
1
  10
337.000000
  20
309.000000
  0
VERTEX
  8
C7
  10
337.000000
  20
309.000000
  0
VERTEX
  8
C7
  10
337.000000
  20
304.000000
  0
VERTEX
  8
C7
  10
347.000000
  20
304.000000
  0
VERTEX
  8
C7
  10
346.607700
  20
304.969700
  0
VERTEX
  8
C7
  10
346.127700
  20
305.795500
  0
VERTEX
  8
C7
  10
345.566600
  20
306.490100
  0
VERTEX
  8
C7
  10
344.931200
  20
307.066000
  0
VERTEX
  8
C7
  10
344.228500
  20
307.536000
  0
VERTEX
  8
C7
  10
343.465300
  20
307.912700
  0
VERTEX
  8
C7
  10
342.648300
  20
308.208700
  0
VERTEX
  8
C7
  10
341.784400
  20
308.436800
  0
VERTEX
  8
C7
  10
340.880400
  20
308.609500
  0
VERTEX
  8
C7
  10
339.943100
  20
308.739500
  0
VERTEX
  8
C7
  10
338.979400
  20
308.839500
  0
VERTEX
  8
C7
  10
337.996100
  20
308.922100
  0
VERTEX
  8
C7
  10
337.000000
  20
309.000000
  0
SEQEND
  8
C7
  0
POLYLINE
  8
C7
  66
1
  10
348.000000
  20
308.000000
  0
VERTEX
  8
C7
  10
348.000000
  20
308.000000
  0
VERTEX
  8
C7
  10
348.000000
  20
304.000000
  0
VERTEX
  8
C7
  10
360.000000
  20
306.000000
  0
VERTEX
  8
C7
  10
361.000000
  20
306.000000
  0
VERTEX
  8
C7
  10
361.706000
  20
305.310300
  0
VERTEX
  8
C7
  10
362.474700
  20
304.773900
  0
VERTEX
  8
C7
  10
363.290300
  20
304.390800
  0
VERTEX
  8
C7
  10
364.137300
  20
304.160900
  0
VERTEX
  8
C7
  10
364.999900
  20
304.084300
  0
VERTEX
  8
C7
  10
365.862500
  20
304.160900
  0
VERTEX
  8
C7
  10
366.709500
  20
304.390800
  0
VERTEX
  8
C7
  10
367.525200
  20
304.773900
  0
VERTEX
  8
C7
  10
368.293900
  20
305.310300
  0
VERTEX
  8
C7
  10
369.000000
  20
306.000000
  0
VERTEX
  8
C7
  10
370.000000
  20
306.000000
  0
VERTEX
  8
C7
  10
375.000000
  20
302.000000
  0
VERTEX
  8
C7
  10
376.000000
  20
302.000000
  0
VERTEX
  8
C7
  10
377.000000
  20
302.000000
  0
VERTEX
  8
C7
  10
380.000000
  20
304.000000
  0
VERTEX
  8
C7
  10
379.000000
  20
308.000000
  0
VERTEX
  8
C7
  10
348.000000
  20
308.000000
  0
SEQEND
  8
C7
  0
POLYLINE
  8
C7
  66
1
  10
328.000000
  20
308.000000
  0
VERTEX
  8
C7
  10
328.000000
  20
308.000000
  0
VERTEX
  8
C7
  10
328.000000
  20
304.000000
  0
VERTEX
  8
C7
  10
333.000000
  20
306.000000
  0
VERTEX
  8
C7
  10
334.000000
  20
306.000000
  0
VERTEX
  8
C7
  10
336.000000
  20
304.000000
  0
VERTEX
  8
C7
  10
336.000000
  20
308.000000
  0
VERTEX
  8
C7
  10
328.000000
  20
308.000000
  0
SEQEND
  8
C7
  0
POLYLINE
  8
C7
  66
1
  10
314.000000
  20
306.000000
  0
VERTEX
  8
C7
  10
314.000000
  20
306.000000
  0
VERTEX
  8
C7
  10
315.000000
  20
305.000000
  0
VERTEX
  8
C7
  10
314.000000
  20
306.000000
  0
SEQEND
  8
C7
  0
POLYLINE
  8
C7
  66
1
  10
353.000000
  20
306.000000
  0
VERTEX
  8
C7
  10
353.000000
  20
306.000000
  0
VERTEX
  8
C7
  10
354.000000
  20
305.000000
  0
VERTEX
  8
C7
  10
353.000000
  20
306.000000
  0
SEQEND
  8
C7
  0
POLYLINE
  8
C7
  66
1
  10
373.000000
  20
306.000000
  0
VERTEX
  8
C7
  10
373.000000
  20
306.000000
  0
VERTEX
  8
C7
  10
374.000000
  20
305.000000
  0
VERTEX
  8
C7
  10
373.000000
  20
306.000000
  0
SEQEND
  8
C7
  0
POLYLINE
  8
C7
  66
1
  10
237.000000
  20
303.000000
  0
VERTEX
  8
C7
  10
237.000000
  20
303.000000
  0
VERTEX
  8
C7
  10
237.000000
  20
298.000000
  0
VERTEX
  8
C7
  10
238.000000
  20
298.000000
  0
VERTEX
  8
C7
  10
237.000000
  20
303.000000
  0
SEQEND
  8
C7
  0
POLYLINE
  8
C7
  66
1
  10
526.000000
  20
303.000000
  0
VERTEX
  8
C7
  10
526.000000
  20
303.000000
  0
VERTEX
  8
C7
  10
526.000000
  20
298.000000
  0
VERTEX
  8
C7
  10
527.000000
  20
298.000000
  0
VERTEX
  8
C7
  10
526.000000
  20
303.000000
  0
SEQEND
  8
C7
  0
POLYLINE
  8
C7
  66
1
  10
274.000000
  20
302.000000
  0
VERTEX
  8
C7
  10
274.000000
  20
302.000000
  0
VERTEX
  8
C7
  10
273.000000
  20
297.000000
  0
VERTEX
  8
C7
  10
271.000000
  20
297.000000
  0
VERTEX
  8
C7
  10
271.000000
  20
301.000000
  0
VERTEX
  8
C7
  10
267.000000
  20
297.000000
  0
VERTEX
  8
C7
  10
283.000000
  20
296.000000
  0
VERTEX
  8
C7
  10
283.000000
  20
301.000000
  0
VERTEX
  8
C7
  10
280.000000
  20
298.000000
  0
VERTEX
  8
C7
  10
274.000000
  20
302.000000
  0
SEQEND
  8
C7
  0
POLYLINE
  8
C7
  66
1
  10
394.000000
  20
300.000000
  0
VERTEX
  8
C7
  10
394.000000
  20
300.000000
  0
VERTEX
  8
C7
  10
394.000000
  20
296.000000
  0
VERTEX
  8
C7
  10
400.000000
  20
296.000000
  0
VERTEX
  8
C7
  10
400.000000
  20
300.000000
  0
VERTEX
  8
C7
  10
401.000000
  20
300.000000
  0
VERTEX
  8
C7
  10
402.000000
  20
296.000000
  0
VERTEX
  8
C7
  10
405.000000
  20
298.000000
  0
VERTEX
  8
C7
  10
406.000000
  20
298.000000
  0
VERTEX
  8
C7
  10
411.000000
  20
296.000000
  0
VERTEX
  8
C7
  10
411.000000
  20
300.000000
  0
VERTEX
  8
C7
  10
401.000000
  20
300.000000
  0
VERTEX
  8
C7
  10
394.000000
  20
300.000000
  0
SEQEND
  8
C7
  0
POLYLINE
  8
C7
  66
1
  10
284.000000
  20
299.000000
  0
VERTEX
  8
C7
  10
284.000000
  20
299.000000
  0
VERTEX
  8
C7
  10
284.000000
  20
297.000000
  0
VERTEX
  8
C7
  10
294.000000
  20
296.000000
  0
VERTEX
  8
C7
  10
293.000000
  20
301.000000
  0
VERTEX
  8
C7
  10
284.000000
  20
299.000000
  0
SEQEND
  8
C7
  0
POLYLINE
  8
C7
  66
1
  10
295.000000
  20
300.000000
  0
VERTEX
  8
C7
  10
295.000000
  20
300.000000
  0
VERTEX
  8
C7
  10
296.000000
  20
296.000000
  0
VERTEX
  8
C7
  10
305.000000
  20
296.000000
  0
VERTEX
  8
C7
  10
305.000000
  20
300.000000
  0
VERTEX
  8
C7
  10
295.000000
  20
300.000000
  0
SEQEND
  8
C7
  0
POLYLINE
  8
C7
  66
1
  10
306.000000
  20
300.000000
  0
VERTEX
  8
C7
  10
306.000000
  20
300.000000
  0
VERTEX
  8
C7
  10
306.000000
  20
296.000000
  0
VERTEX
  8
C7
  10
327.000000
  20
295.000000
  0
VERTEX
  8
C7
  10
326.000000
  20
288.000000
  0
VERTEX
  8
C7
  10
326.863900
  20
287.978600
  0
VERTEX
  8
C7
  10
327.780600
  20
287.925700
  0
VERTEX
  8
C7
  10
328.733900
  20
287.858300
  0
VERTEX
  8
C7
  10
329.707400
  20
287.793400
  0
VERTEX
  8
C7
  10
330.685100
  20
287.747700
  0
VERTEX
  8
C7
  10
331.650800
  20
287.738300
  0
VERTEX
  8
C7
  10
332.588200
  20
287.782100
  0
VERTEX
  8
C7
  10
333.481200
  20
287.896000
  0
VERTEX
  8
C7
  10
334.313700
  20
288.096900
  0
VERTEX
  8
C7
  10
335.069300
  20
288.401800
  0
VERTEX
  8
C7
  10
335.731900
  20
288.827700
  0
VERTEX
  8
C7
  10
336.285300
  20
289.391400
  0
VERTEX
  8
C7
  10
336.713400
  20
290.109800
  0
VERTEX
  8
C7
  10
337.000000
  20
291.000000
  0
VERTEX
  8
C7
  10
338.000000
  20
291.000000
  0
VERTEX
  8
C7
  10
338.000000
  20
288.000000
  0
VERTEX
  8
C7
  10
338.697400
  20
287.984200
  0
VERTEX
  8
C7
  10
339.480500
  20
287.942400
  0
VERTEX
  8
C7
  10
340.336000
  20
287.882500
  0
VERTEX
  8
C7
  10
341.250600
  20
287.812500
  0
VERTEX
  8
C7
  10
342.210900
  20
287.740400
  0
VERTEX
  8
C7
  10
343.203700
  20
287.674200
  0
VERTEX
  8
C7
  10
344.215600
  20
287.622100
  0
VERTEX
  8
C7
  10
345.233300
  20
287.591800
  0
VERTEX
  8
C7
  10
346.243500
  20
287.591600
  0
VERTEX
  8
C7
  10
347.232800
  20
287.629300
  0
VERTEX
  8
C7
  10
348.187900
  20
287.713000
  0
VERTEX
  8
C7
  10
349.095500
  20
287.850700
  0
VERTEX
  8
C7
  10
349.942400
  20
288.050500
  0
VERTEX
  8
C7
  10
350.715000
  20
288.320300
  0
VERTEX
  8
C7
  10
351.400200
  20
288.668100
  0
VERTEX
  8
C7
  10
351.984600
  20
289.101900
  0
VERTEX
  8
C7
  10
352.454900
  20
289.629900
  0
VERTEX
  8
C7
  10
352.797800
  20
290.259900
  0
VERTEX
  8
C7
  10
353.000000
  20
291.000000
  0
VERTEX
  8
C7
  10
354.000000
  20
291.000000
  0
VERTEX
  8
C7
  10
354.000000
  20
288.000000
  0
VERTEX
  8
C7
  10
360.000000
  20
288.000000
  0
VERTEX
  8
C7
  10
358.000000
  20
293.000000
  0
VERTEX
  8
C7
  10
348.000000
  20
292.000000
  0
VERTEX
  8
C7
  10
346.000000
  20
293.000000
  0
VERTEX
  8
C7
  10
347.000000
  20
300.000000
  0
VERTEX
  8
C7
  10
331.000000
  20
300.000000
  0
VERTEX
  8
C7
  10
331.000000
  20
296.000000
  0
VERTEX
  8
C7
  10
342.000000
  20
298.000000
  0
VERTEX
  8
C7
  10
345.000000
  20
292.000000
  0
VERTEX
  8
C7
  10
334.000000
  20
292.000000
  0
VERTEX
  8
C7
  10
327.000000
  20
293.000000
  0
VERTEX
  8
C7
  10
329.000000
  20
300.000000
  0
VERTEX
  8
C7
  10
306.000000
  20
300.000000
  0
SEQEND
  8
C7
  0
POLYLINE
  8
C7
  66
1
  10
348.000000
  20
300.000000
  0
VERTEX
  8
C7
  10
348.000000
  20
300.000000
  0
VERTEX
  8
C7
  10
349.000000
  20
296.000000
  0
VERTEX
  8
C7
  10
352.000000
  20
296.000000
  0
VERTEX
  8
C7
  10
352.000000
  20
299.000000
  0
VERTEX
  8
C7
  10
353.000000
  20
299.000000
  0
VERTEX
  8
C7
  10
353.000000
  20
296.000000
  0
VERTEX
  8
C7
  10
358.000000
  20
296.000000
  0
VERTEX
  8
C7
  10
358.000000
  20
300.000000
  0
VERTEX
  8
C7
  10
348.000000
  20
300.000000
  0
SEQEND
  8
C7
  0
POLYLINE
  8
C7
  66
1
  10
360.000000
  20
301.000000
  0
VERTEX
  8
C7
  10
360.000000
  20
301.000000
  0
VERTEX
  8
C7
  10
360.000000
  20
296.000000
  0
VERTEX
  8
C7
  10
377.000000
  20
296.000000
  0
VERTEX
  8
C7
  10
377.000000
  20
300.000000
  0
VERTEX
  8
C7
  10
360.000000
  20
301.000000
  0
SEQEND
  8
C7
  0
POLYLINE
  8
C7
  66
1
  10
378.000000
  20
300.000000
  0
VERTEX
  8
C7
  10
378.000000
  20
300.000000
  0
VERTEX
  8
C7
  10
378.000000
  20
296.000000
  0
VERTEX
  8
C7
  10
393.000000
  20
296.000000
  0
VERTEX
  8
C7
  10
393.000000
  20
300.000000
  0
VERTEX
  8
C7
  10
378.000000
  20
300.000000
  0
SEQEND
  8
C7
  0
POLYLINE
  8
C7
  66
1
  10
412.000000
  20
301.000000
  0
VERTEX
  8
C7
  10
412.000000
  20
301.000000
  0
VERTEX
  8
C7
  10
412.000000
  20
296.000000
  0
VERTEX
  8
C7
  10
423.000000
  20
296.000000
  0
VERTEX
  8
C7
  10
423.000000
  20
300.000000
  0
VERTEX
  8
C7
  10
412.000000
  20
301.000000
  0
SEQEND
  8
C7
  0
POLYLINE
  8
C7
  66
1
  10
424.000000
  20
301.000000
  0
VERTEX
  8
C7
  10
424.000000
  20
301.000000
  0
VERTEX
  8
C7
  10
424.000000
  20
296.000000
  0
VERTEX
  8
C7
  10
436.000000
  20
296.000000
  0
VERTEX
  8
C7
  10
436.000000
  20
300.000000
  0
VERTEX
  8
C7
  10
424.000000
  20
301.000000
  0
SEQEND
  8
C7
  0
POLYLINE
  8
C7
  66
1
  10
450.000000
  20
296.000000
  0
VERTEX
  8
C7
  10
450.000000
  20
296.000000
  0
VERTEX
  8
C7
  10
451.185100
  20
296.026100
  0
VERTEX
  8
C7
  10
452.185800
  20
296.088600
  0
VERTEX
  8
C7
  10
453.018500
  20
296.246100
  0
VERTEX
  8
C7
  10
453.699800
  20
296.557300
  0
VERTEX
  8
C7
  10
454.246100
  20
297.080900
  0
VERTEX
  8
C7
  10
454.674000
  20
297.875500
  0
VERTEX
  8
C7
  10
455.000000
  20
299.000000
  0
VERTEX
  8
C7
  10
456.000000
  20
299.000000
  0
VERTEX
  8
C7
  10
456.000000
  20
296.000000
  0
VERTEX
  8
C7
  10
465.000000
  20
298.000000
  0
VERTEX
  8
C7
  10
466.000000
  20
298.000000
  0
VERTEX
  8
C7
  10
468.000000
  20
296.000000
  0
VERTEX
  8
C7
  10
468.000000
  20
300.000000
  0
VERTEX
  8
C7
  10
467.270400
  20
300.014700
  0
VERTEX
  8
C7
  10
466.489800
  20
300.055200
  0
VERTEX
  8
C7
  10
465.664800
  20
300.115800
  0
VERTEX
  8
C7
  10
464.802200
  20
300.190800
  0
VERTEX
  8
C7
  10
463.908600
  20
300.274500
  0
VERTEX
  8
C7
  10
462.990800
  20
300.361300
  0
VERTEX
  8
C7
  10
462.055600
  20
300.445600
  0
VERTEX
  8
C7
  10
461.109700
  20
300.521600
  0
VERTEX
  8
C7
  10
460.159700
  20
300.583800
  0
VERTEX
  8
C7
  10
459.212400
  20
300.626400
  0
VERTEX
  8
C7
  10
458.274500
  20
300.643800
  0
VERTEX
  8
C7
  10
457.352800
  20
300.630300
  0
VERTEX
  8
C7
  10
456.454000
  20
300.580300
  0
VERTEX
  8
C7
  10
455.584800
  20
300.488100
  0
VERTEX
  8
C7
  10
454.751900
  20
300.348000
  0
VERTEX
  8
C7
  10
453.962000
  20
300.154500
  0
VERTEX
  8
C7
  10
453.222000
  20
299.901700
  0
VERTEX
  8
C7
  10
452.538400
  20
299.584100
  0
VERTEX
  8
C7
  10
451.918000
  20
299.196000
  0
VERTEX
  8
C7
  10
451.367600
  20
298.731800
  0
VERTEX
  8
C7
  10
450.893900
  20
298.185700
  0
VERTEX
  8
C7
  10
450.503500
  20
297.552100
  0
VERTEX
  8
C7
  10
450.203300
  20
296.825400
  0
VERTEX
  8
C7
  10
450.000000
  20
296.000000
  0
SEQEND
  8
C7
  0
POLYLINE
  8
C7
  66
1
  10
275.000000
  20
300.000000
  0
VERTEX
  8
C7
  10
275.000000
  20
300.000000
  0
VERTEX
  8
C7
  10
274.000000
  20
299.000000
  0
VERTEX
  8
C7
  10
274.000000
  20
298.000000
  0
VERTEX
  8
C7
  10
275.000000
  20
297.000000
  0
VERTEX
  8
C7
  10
276.000000
  20
297.000000
  0
VERTEX
  8
C7
  10
277.000000
  20
298.000000
  0
VERTEX
  8
C7
  10
277.000000
  20
299.000000
  0
VERTEX
  8
C7
  10
275.000000
  20
300.000000
  0
SEQEND
  8
C7
  0
POLYLINE
  8
C7
  66
1
  10
437.000000
  20
300.000000
  0
VERTEX
  8
C7
  10
437.000000
  20
300.000000
  0
VERTEX
  8
C7
  10
437.000000
  20
296.000000
  0
VERTEX
  8
C7
  10
449.000000
  20
296.000000
  0
VERTEX
  8
C7
  10
449.000000
  20
300.000000
  0
VERTEX
  8
C7
  10
437.000000
  20
300.000000
  0
SEQEND
  8
C7
  0
POLYLINE
  8
C7
  66
1
  10
286.333344
  20
298.333344
  0
VERTEX
  8
C7
  10
286.333344
  20
298.333344
  0
VERTEX
  8
C7
  10
286.666656
  20
297.666656
  0
VERTEX
  8
C7
  10
286.333344
  20
298.333344
  0
SEQEND
  8
C7
  0
POLYLINE
  8
C7
  66
1
  10
327.000000
  20
299.000000
  0
VERTEX
  8
C7
  10
327.000000
  20
299.000000
  0
VERTEX
  8
C7
  10
328.000000
  20
298.000000
  0
VERTEX
  8
C7
  10
327.000000
  20
299.000000
  0
SEQEND
  8
C7
  0
POLYLINE
  8
C7
  66
1
  10
350.333344
  20
298.333344
  0
VERTEX
  8
C7
  10
350.333344
  20
298.333344
  0
VERTEX
  8
C7
  10
350.666656
  20
297.666656
  0
VERTEX
  8
C7
  10
350.333344
  20
298.333344
  0
SEQEND
  8
C7
  0
POLYLINE
  8
C7
  66
1
  10
383.000000
  20
299.000000
  0
VERTEX
  8
C7
  10
383.000000
  20
299.000000
  0
VERTEX
  8
C7
  10
384.000000
  20
298.000000
  0
VERTEX
  8
C7
  10
383.000000
  20
299.000000
  0
SEQEND
  8
C7
  0
POLYLINE
  8
C7
  66
1
  10
237.000000
  20
294.000000
  0
VERTEX
  8
C7
  10
237.000000
  20
294.000000
  0
VERTEX
  8
C7
  10
237.000000
  20
290.000000
  0
VERTEX
  8
C7
  10
238.000000
  20
290.000000
  0
VERTEX
  8
C7
  10
237.000000
  20
294.000000
  0
SEQEND
  8
C7
  0
POLYLINE
  8
C7
  66
1
  10
273.000000
  20
288.000000
  0
VERTEX
  8
C7
  10
273.000000
  20
288.000000
  0
VERTEX
  8
C7
  10
274.185100
  20
288.026100
  0
VERTEX
  8
C7
  10
275.185800
  20
288.088600
  0
VERTEX
  8
C7
  10
276.018500
  20
288.246100
  0
VERTEX
  8
C7
  10
276.699800
  20
288.557300
  0
VERTEX
  8
C7
  10
277.246100
  20
289.080900
  0
VERTEX
  8
C7
  10
277.674000
  20
289.875500
  0
VERTEX
  8
C7
  10
278.000000
  20
291.000000
  0
VERTEX
  8
C7
  10
279.000000
  20
291.000000
  0
VERTEX
  8
C7
  10
279.000000
  20
288.000000
  0
VERTEX
  8
C7
  10
284.000000
  20
288.000000
  0
VERTEX
  8
C7
  10
284.000000
  20
294.000000
  0
VERTEX
  8
C7
  10
283.083000
  20
293.809100
  0
VERTEX
  8
C7
  10
282.166300
  20
293.654700
  0
VERTEX
  8
C7
  10
281.256300
  20
293.523600
  0
VERTEX
  8
C7
  10
280.359500
  20
293.402700
  0
VERTEX
  8
C7
  10
279.482600
  20
293.279100
  0
VERTEX
  8
C7
  10
278.631900
  20
293.139700
  0
VERTEX
  8
C7
  10
277.813900
  20
292.971300
  0
VERTEX
  8
C7
  10
277.035200
  20
292.761000
  0
VERTEX
  8
C7
  10
276.302300
  20
292.495600
  0
VERTEX
  8
C7
  10
275.621700
  20
292.162100
  0
VERTEX
  8
C7
  10
274.999900
  20
291.747500
  0
VERTEX
  8
C7
  10
274.443300
  20
291.238700
  0
VERTEX
  8
C7
  10
273.958500
  20
290.622600
  0
VERTEX
  8
C7
  10
273.552000
  20
289.886100
  0
VERTEX
  8
C7
  10
273.230300
  20
289.016300
  0
VERTEX
  8
C7
  10
273.000000
  20
288.000000
  0
SEQEND
  8
C7
  0
POLYLINE
  8
C7
  66
1
  10
285.000000
  20
294.000000
  0
VERTEX
  8
C7
  10
285.000000
  20
294.000000
  0
VERTEX
  8
C7
  10
285.000000
  20
288.000000
  0
VERTEX
  8
C7
  10
288.000000
  20
290.000000
  0
VERTEX
  8
C7
  10
289.000000
  20
290.000000
  0
VERTEX
  8
C7
  10
302.000000
  20
288.000000
  0
VERTEX
  8
C7
  10
302.000000
  20
294.000000
  0
VERTEX
  8
C7
  10
285.000000
  20
294.000000
  0
SEQEND
  8
C7
  0
POLYLINE
  8
C7
  66
1
  10
315.000000
  20
294.000000
  0
VERTEX
  8
C7
  10
315.000000
  20
294.000000
  0
VERTEX
  8
C7
  10
315.000000
  20
288.000000
  0
VERTEX
  8
C7
  10
318.000000
  20
291.000000
  0
VERTEX
  8
C7
  10
319.000000
  20
291.000000
  0
VERTEX
  8
C7
  10
319.000000
  20
288.000000
  0
VERTEX
  8
C7
  10
324.000000
  20
288.000000
  0
VERTEX
  8
C7
  10
323.000000
  20
293.000000
  0
VERTEX
  8
C7
  10
315.000000
  20
294.000000
  0
SEQEND
  8
C7
  0
POLYLINE
  8
C7
  66
1
  10
526.000000
  20
294.000000
  0
VERTEX
  8
C7
  10
526.000000
  20
294.000000
  0
VERTEX
  8
C7
  10
526.000000
  20
290.000000
  0
VERTEX
  8
C7
  10
527.000000
  20
290.000000
  0
VERTEX
  8
C7
  10
526.000000
  20
294.000000
  0
SEQEND
  8
C7
  0
POLYLINE
  8
C7
  66
1
  10
304.000000
  20
293.000000
  0
VERTEX
  8
C7
  10
304.000000
  20
293.000000
  0
VERTEX
  8
C7
  10
304.000000
  20
287.000000
  0
VERTEX
  8
C7
  10
305.046600
  20
287.303600
  0
VERTEX
  8
C7
  10
306.045600
  20
287.561700
  0
VERTEX
  8
C7
  10
306.997500
  20
287.793900
  0
VERTEX
  8
C7
  10
307.902600
  20
288.019700
  0
VERTEX
  8
C7
  10
308.761100
  20
288.258800
  0
VERTEX
  8
C7
  10
309.573600
  20
288.530700
  0
VERTEX
  8
C7
  10
310.340400
  20
288.855000
  0
VERTEX
  8
C7
  10
311.061700
  20
289.251400
  0
VERTEX
  8
C7
  10
311.738000
  20
289.739400
  0
VERTEX
  8
C7
  10
312.369600
  20
290.338700
  0
VERTEX
  8
C7
  10
312.956900
  20
291.068800
  0
VERTEX
  8
C7
  10
313.500200
  20
291.949400
  0
VERTEX
  8
C7
  10
314.000000
  20
293.000000
  0
VERTEX
  8
C7
  10
304.000000
  20
293.000000
  0
SEQEND
  8
C7
  0
POLYLINE
  8
C7
  66
1
  10
305.000000
  20
291.000000
  0
VERTEX
  8
C7
  10
305.000000
  20
291.000000
  0
VERTEX
  8
C7
  10
306.000000
  20
290.000000
  0
VERTEX
  8
C7
  10
305.000000
  20
291.000000
  0
SEQEND
  8
C7
  0
POLYLINE
  8
C7
  66
1
  10
343.000000
  20
291.000000
  0
VERTEX
  8
C7
  10
343.000000
  20
291.000000
  0
VERTEX
  8
C7
  10
344.000000
  20
290.000000
  0
VERTEX
  8
C7
  10
343.000000
  20
291.000000
  0
SEQEND
  8
C7
  0
POLYLINE
  8
C7
  66
1
  10
346.000000
  20
291.000000
  0
VERTEX
  8
C7
  10
346.000000
  20
291.000000
  0
VERTEX
  8
C7
  10
347.000000
  20
290.000000
  0
VERTEX
  8
C7
  10
346.000000
  20
291.000000
  0
SEQEND
  8
C7
  0
POLYLINE
  8
C7
  66
1
  10
237.000000
  20
286.000000
  0
VERTEX
  8
C7
  10
237.000000
  20
286.000000
  0
VERTEX
  8
C7
  10
237.000000
  20
280.000000
  0
VERTEX
  8
C7
  10
238.000000
  20
280.000000
  0
VERTEX
  8
C7
  10
237.000000
  20
286.000000
  0
SEQEND
  8
C7
  0
POLYLINE
  8
C7
  66
1
  10
267.000000
  20
286.000000
  0
VERTEX
  8
C7
  10
267.000000
  20
286.000000
  0
VERTEX
  8
C7
  10
268.000000
  20
280.000000
  0
VERTEX
  8
C7
  10
268.950500
  20
280.051800
  0
VERTEX
  8
C7
  10
269.896300
  20
280.050800
  0
VERTEX
  8
C7
  10
270.824100
  20
280.029300
  0
VERTEX
  8
C7
  10
271.720500
  20
280.019600
  0
VERTEX
  8
C7
  10
272.572300
  20
280.054100
  0
VERTEX
  8
C7
  10
273.366200
  20
280.165100
  0
VERTEX
  8
C7
  10
274.088800
  20
280.385000
  0
VERTEX
  8
C7
  10
274.726800
  20
280.746100
  0
VERTEX
  8
C7
  10
275.266800
  20
281.280700
  0
VERTEX
  8
C7
  10
275.695700
  20
282.021200
  0
VERTEX
  8
C7
  10
276.000000
  20
283.000000
  0
VERTEX
  8
C7
  10
277.000000
  20
283.000000
  0
VERTEX
  8
C7
  10
277.000000
  20
280.000000
  0
VERTEX
  8
C7
  10
290.000000
  20
280.000000
  0
VERTEX
  8
C7
  10
290.000000
  20
286.000000
  0
VERTEX
  8
C7
  10
287.000000
  20
284.000000
  0
VERTEX
  8
C7
  10
273.000000
  20
286.000000
  0
VERTEX
  8
C7
  10
273.000000
  20
282.000000
  0
VERTEX
  8
C7
  10
271.000000
  20
282.000000
  0
VERTEX
  8
C7
  10
271.000000
  20
286.000000
  0
VERTEX
  8
C7
  10
267.000000
  20
286.000000
  0
SEQEND
  8
C7
  0
POLYLINE
  8
C7
  66
1
  10
291.000000
  20
286.000000
  0
VERTEX
  8
C7
  10
291.000000
  20
286.000000
  0
VERTEX
  8
C7
  10
291.094500
  20
285.176400
  0
VERTEX
  8
C7
  10
291.240900
  20
284.429600
  0
VERTEX
  8
C7
  10
291.434900
  20
283.756700
  0
VERTEX
  8
C7
  10
291.672200
  20
283.155000
  0
VERTEX
  8
C7
  10
291.948600
  20
282.621800
  0
VERTEX
  8
C7
  10
292.259700
  20
282.154300
  0
VERTEX
  8
C7
  10
292.601400
  20
281.749800
  0
VERTEX
  8
C7
  10
292.969200
  20
281.405600
  0
VERTEX
  8
C7
  10
293.359100
  20
281.118900
  0
VERTEX
  8
C7
  10
293.766700
  20
280.887100
  0
VERTEX
  8
C7
  10
294.187700
  20
280.707300
  0
VERTEX
  8
C7
  10
294.617800
  20
280.576800
  0
VERTEX
  8
C7
  10
295.052900
  20
280.493000
  0
VERTEX
  8
C7
  10
295.488600
  20
280.453100
  0
VERTEX
  8
C7
  10
295.920700
  20
280.454300
  0
VERTEX
  8
C7
  10
296.344900
  20
280.493900
  0
VERTEX
  8
C7
  10
296.756900
  20
280.569200
  0
VERTEX
  8
C7
  10
297.152500
  20
280.677500
  0
VERTEX
  8
C7
  10
297.527400
  20
280.816000
  0
VERTEX
  8
C7
  10
297.877300
  20
280.982000
  0
VERTEX
  8
C7
  10
298.197900
  20
281.172700
  0
VERTEX
  8
C7
  10
298.485100
  20
281.385500
  0
VERTEX
  8
C7
  10
298.734400
  20
281.617600
  0
VERTEX
  8
C7
  10
298.941800
  20
281.866200
  0
VERTEX
  8
C7
  10
299.102800
  20
282.128600
  0
VERTEX
  8
C7
  10
299.213300
  20
282.402200
  0
VERTEX
  8
C7
  10
299.268900
  20
282.684100
  0
VERTEX
  8
C7
  10
299.265400
  20
282.971700
  0
VERTEX
  8
C7
  10
299.198500
  20
283.262200
  0
VERTEX
  8
C7
  10
299.063900
  20
283.552800
  0
VERTEX
  8
C7
  10
298.857500
  20
283.840900
  0
VERTEX
  8
C7
  10
298.574800
  20
284.123700
  0
VERTEX
  8
C7
  10
298.211700
  20
284.398400
  0
VERTEX
  8
C7
  10
297.763900
  20
284.662400
  0
VERTEX
  8
C7
  10
297.227100
  20
284.912900
  0
VERTEX
  8
C7
  10
296.597000
  20
285.147200
  0
VERTEX
  8
C7
  10
295.869400
  20
285.362600
  0
VERTEX
  8
C7
  10
295.040100
  20
285.556300
  0
VERTEX
  8
C7
  10
294.033800
  20
285.727200
  0
VERTEX
  8
C7
  10
293.027200
  20
285.841300
  0
VERTEX
  8
C7
  10
292.016900
  20
285.923800
  0
VERTEX
  8
C7
  10
291.000000
  20
286.000000
  0
SEQEND
  8
C7
  0
POLYLINE
  8
C7
  66
1
  10
302.000000
  20
286.000000
  0
VERTEX
  8
C7
  10
302.000000
  20
286.000000
  0
VERTEX
  8
C7
  10
302.000000
  20
280.000000
  0
VERTEX
  8
C7
  10
302.889600
  20
280.020800
  0
VERTEX
  8
C7
  10
303.818600
  20
279.998300
  0
VERTEX
  8
C7
  10
304.770800
  20
279.953800
  0
VERTEX
  8
C7
  10
305.729900
  20
279.908700
  0
VERTEX
  8
C7
  10
306.679800
  20
279.884200
  0
VERTEX
  8
C7
  10
307.604200
  20
279.901900
  0
VERTEX
  8
C7
  10
308.486900
  20
279.983000
  0
VERTEX
  8
C7
  10
309.311700
  20
280.149100
  0
VERTEX
  8
C7
  10
310.062400
  20
280.421300
  0
VERTEX
  8
C7
  10
310.722800
  20
280.821100
  0
VERTEX
  8
C7
  10
311.276700
  20
281.369900
  0
VERTEX
  8
C7
  10
311.707800
  20
282.089100
  0
VERTEX
  8
C7
  10
312.000000
  20
283.000000
  0
VERTEX
  8
C7
  10
313.000000
  20
283.000000
  0
VERTEX
  8
C7
  10
313.412900
  20
281.982800
  0
VERTEX
  8
C7
  10
313.890900
  20
281.183900
  0
VERTEX
  8
C7
  10
314.433300
  20
280.580300
  0
VERTEX
  8
C7
  10
315.039300
  20
280.148700
  0
VERTEX
  8
C7
  10
315.708300
  20
279.865900
  0
VERTEX
  8
C7
  10
316.439300
  20
279.708900
  0
VERTEX
  8
C7
  10
317.231700
  20
279.654500
  0
VERTEX
  8
C7
  10
318.084700
  20
279.679600
  0
VERTEX
  8
C7
  10
318.997600
  20
279.760900
  0
VERTEX
  8
C7
  10
319.969600
  20
279.875400
  0
VERTEX
  8
C7
  10
321.000000
  20
280.000000
  0
VERTEX
  8
C7
  10
321.000000
  20
285.000000
  0
VERTEX
  8
C7
  10
302.000000
  20
286.000000
  0
SEQEND
  8
C7
  0
POLYLINE
  8
C7
  66
1
  10
332.000000
  20
286.000000
  0
VERTEX
  8
C7
  10
332.000000
  20
286.000000
  0
VERTEX
  8
C7
  10
331.025500
  20
285.743200
  0
VERTEX
  8
C7
  10
330.068400
  20
285.541400
  0
VERTEX
  8
C7
  10
329.133200
  20
285.373600
  0
VERTEX
  8
C7
  10
328.224600
  20
285.219200
  0
VERTEX
  8
C7
  10
327.347200
  20
285.057400
  0
VERTEX
  8
C7
  10
326.505500
  20
284.867300
  0
VERTEX
  8
C7
  10
325.704100
  20
284.628100
  0
VERTEX
  8
C7
  10
324.947700
  20
284.319200
  0
VERTEX
  8
C7
  10
324.240800
  20
283.919700
  0
VERTEX
  8
C7
  10
323.587900
  20
283.408800
  0
VERTEX
  8
C7
  10
322.993800
  20
282.765700
  0
VERTEX
  8
C7
  10
322.462900
  20
281.969700
  0
VERTEX
  8
C7
  10
322.000000
  20
281.000000
  0
VERTEX
  8
C7
  10
333.000000
  20
280.000000
  0
VERTEX
  8
C7
  10
332.000000
  20
286.000000
  0
SEQEND
  8
C7
  0
POLYLINE
  8
C7
  66
1
  10
340.000000
  20
283.000000
  0
VERTEX
  8
C7
  10
340.000000
  20
283.000000
  0
VERTEX
  8
C7
  10
341.000000
  20
283.000000
  0
VERTEX
  8
C7
  10
341.000000
  20
280.000000
  0
VERTEX
  8
C7
  10
350.000000
  20
280.000000
  0
VERTEX
  8
C7
  10
345.000000
  20
286.000000
  0
VERTEX
  8
C7
  10
345.000000
  20
284.000000
  0
VERTEX
  8
C7
  10
344.511400
  20
284.179300
  0
VERTEX
  8
C7
  10
343.904100
  20
284.385400
  0
VERTEX
  8
C7
  10
343.200400
  20
284.604000
  0
VERTEX
  8
C7
  10
342.422600
  20
284.820900
  0
VERTEX
  8
C7
  10
341.593000
  20
285.021900
  0
VERTEX
  8
C7
  10
340.734100
  20
285.192700
  0
VERTEX
  8
C7
  10
339.868100
  20
285.319100
  0
VERTEX
  8
C7
  10
339.017400
  20
285.386900
  0
VERTEX
  8
C7
  10
338.204300
  20
285.381800
  0
VERTEX
  8
C7
  10
337.451300
  20
285.289700
  0
VERTEX
  8
C7
  10
336.780600
  20
285.096200
  0
VERTEX
  8
C7
  10
336.214600
  20
284.787200
  0
VERTEX
  8
C7
  10
335.775600
  20
284.348400
  0
VERTEX
  8
C7
  10
335.486000
  20
283.765600
  0
VERTEX
  8
C7
  10
335.368100
  20
283.024500
  0
VERTEX
  8
C7
  10
335.444400
  20
282.111100
  0
VERTEX
  8
C7
  10
335.722100
  20
281.170300
  0
VERTEX
  8
C7
  10
336.130200
  20
280.559700
  0
VERTEX
  8
C7
  10
336.634600
  20
280.241200
  0
VERTEX
  8
C7
  10
337.201200
  20
280.176800
  0
VERTEX
  8
C7
  10
337.796000
  20
280.328600
  0
VERTEX
  8
C7
  10
338.384900
  20
280.658600
  0
VERTEX
  8
C7
  10
338.933800
  20
281.128700
  0
VERTEX
  8
C7
  10
339.408700
  20
281.700900
  0
VERTEX
  8
C7
  10
339.775400
  20
282.337400
  0
VERTEX
  8
C7
  10
340.000000
  20
283.000000
  0
SEQEND
  8
C7
  0
POLYLINE
  8
C7
  66
1
  10
378.000000
  20
279.000000
  0
VERTEX
  8
C7
  10
378.000000
  20
279.000000
  0
VERTEX
  8
C7
  10
379.000000
  20
285.000000
  0
VERTEX
  8
C7
  10
377.997200
  20
285.069800
  0
VERTEX
  8
C7
  10
376.995400
  20
285.128400
  0
VERTEX
  8
C7
  10
375.994400
  20
285.176300
  0
VERTEX
  8
C7
  10
374.994100
  20
285.214200
  0
VERTEX
  8
C7
  10
373.994300
  20
285.242900
  0
VERTEX
  8
C7
  10
372.995000
  20
285.262900
  0
VERTEX
  8
C7
  10
371.995900
  20
285.275000
  0
VERTEX
  8
C7
  10
370.997100
  20
285.279800
  0
VERTEX
  8
C7
  10
369.998300
  20
285.278000
  0
VERTEX
  8
C7
  10
368.999500
  20
285.270200
  0
VERTEX
  8
C7
  10
368.000600
  20
285.257100
  0
VERTEX
  8
C7
  10
367.001300
  20
285.239400
  0
VERTEX
  8
C7
  10
366.001600
  20
285.217800
  0
VERTEX
  8
C7
  10
365.001300
  20
285.192900
  0
VERTEX
  8
C7
  10
364.000400
  20
285.165400
  0
VERTEX
  8
C7
  10
362.998700
  20
285.135900
  0
VERTEX
  8
C7
  10
361.996100
  20
285.105200
  0
VERTEX
  8
C7
  10
360.992500
  20
285.073900
  0
VERTEX
  8
C7
  10
359.987700
  20
285.042600
  0
VERTEX
  8
C7
  10
358.981600
  20
285.012100
  0
VERTEX
  8
C7
  10
357.974100
  20
284.983000
  0
VERTEX
  8
C7
  10
356.965200
  20
284.956000
  0
VERTEX
  8
C7
  10
356.334300
  20
284.921700
  0
VERTEX
  8
C7
  10
355.530100
  20
284.835500
  0
VERTEX
  8
C7
  10
354.637400
  20
284.682600
  0
VERTEX
  8
C7
  10
353.741100
  20
284.448400
  0
VERTEX
  8
C7
  10
352.926100
  20
284.118400
  0
VERTEX
  8
C7
  10
352.277200
  20
283.677700
  0
VERTEX
  8
C7
  10
351.879200
  20
283.111700
  0
VERTEX
  8
C7
  10
351.817200
  20
282.405900
  0
VERTEX
  8
C7
  10
352.175900
  20
281.545500
  0
VERTEX
  8
C7
  10
352.491500
  20
281.176300
  0
VERTEX
  8
C7
  10
352.938200
  20
280.846100
  0
VERTEX
  8
C7
  10
353.506200
  20
280.552800
  0
VERTEX
  8
C7
  10
354.185700
  20
280.294300
  0
VERTEX
  8
C7
  10
354.966900
  20
280.068300
  0
VERTEX
  8
C7
  10
355.839900
  20
279.872800
  0
VERTEX
  8
C7
  10
356.795000
  20
279.705600
  0
VERTEX
  8
C7
  10
357.822200
  20
279.564500
  0
VERTEX
  8
C7
  10
358.911900
  20
279.447500
  0
VERTEX
  8
C7
  10
360.054100
  20
279.352300
  0
VERTEX
  8
C7
  10
361.239100
  20
279.276800
  0
VERTEX
  8
C7
  10
362.457000
  20
279.218800
  0
VERTEX
  8
C7
  10
363.698000
  20
279.176400
  0
VERTEX
  8
C7
  10
364.952300
  20
279.147100
  0
VERTEX
  8
C7
  10
366.210100
  20
279.129100
  0
VERTEX
  8
C7
  10
367.461500
  20
279.120000
  0
VERTEX
  8
C7
  10
368.696800
  20
279.117700
  0
VERTEX
  8
C7
  10
369.906000
  20
279.120200
  0
VERTEX
  8
C7
  10
371.079500
  20
279.125200
  0
VERTEX
  8
C7
  10
372.207300
  20
279.130600
  0
VERTEX
  8
C7
  10
373.279800
  20
279.134300
  0
VERTEX
  8
C7
  10
374.286900
  20
279.134200
  0
VERTEX
  8
C7
  10
375.218900
  20
279.127900
  0
VERTEX
  8
C7
  10
376.066100
  20
279.113600
  0
VERTEX
  8
C7
  10
376.818500
  20
279.088900
  0
VERTEX
  8
C7
  10
377.466400
  20
279.051700
  0
VERTEX
  8
C7
  10
378.000000
  20
279.000000
  0
SEQEND
  8
C7
  0
POLYLINE
  8
C7
  66
1
  10
392.000000
  20
286.000000
  0
VERTEX
  8
C7
  10
392.000000
  20
286.000000
  0
VERTEX
  8
C7
  10
392.000000
  20
280.000000
  0
VERTEX
  8
C7
  10
392.863900
  20
279.978600
  0
VERTEX
  8
C7
  10
393.780600
  20
279.925700
  0
VERTEX
  8
C7
  10
394.733900
  20
279.858300
  0
VERTEX
  8
C7
  10
395.707400
  20
279.793400
  0
VERTEX
  8
C7
  10
396.685100
  20
279.747700
  0
VERTEX
  8
C7
  10
397.650800
  20
279.738300
  0
VERTEX
  8
C7
  10
398.588200
  20
279.782100
  0
VERTEX
  8
C7
  10
399.481200
  20
279.896000
  0
VERTEX
  8
C7
  10
400.313700
  20
280.096900
  0
VERTEX
  8
C7
  10
401.069300
  20
280.401800
  0
VERTEX
  8
C7
  10
401.731900
  20
280.827700
  0
VERTEX
  8
C7
  10
402.285300
  20
281.391400
  0
VERTEX
  8
C7
  10
402.713400
  20
282.109800
  0
VERTEX
  8
C7
  10
403.000000
  20
283.000000
  0
VERTEX
  8
C7
  10
404.000000
  20
283.000000
  0
VERTEX
  8
C7
  10
404.000000
  20
280.000000
  0
VERTEX
  8
C7
  10
404.685200
  20
279.985900
  0
VERTEX
  8
C7
  10
405.459300
  20
279.948600
  0
VERTEX
  8
C7
  10
406.308600
  20
279.895700
  0
VERTEX
  8
C7
  10
407.219600
  20
279.834500
  0
VERTEX
  8
C7
  10
408.178500
  20
279.772500
  0
VERTEX
  8
C7
  10
409.171700
  20
279.717200
  0
VERTEX
  8
C7
  10
410.185600
  20
279.676000
  0
VERTEX
  8
C7
  10
411.206500
  20
279.656400
  0
VERTEX
  8
C7
  10
412.220800
  20
279.665900
  0
VERTEX
  8
C7
  10
413.214900
  20
279.711800
  0
VERTEX
  8
C7
  10
414.175100
  20
279.801800
  0
VERTEX
  8
C7
  10
415.087700
  20
279.943200
  0
VERTEX
  8
C7
  10
415.939200
  20
280.143500
  0
VERTEX
  8
C7
  10
416.715900
  20
280.410200
  0
VERTEX
  8
C7
  10
417.404200
  20
280.750600
  0
VERTEX
  8
C7
  10
417.990300
  20
281.172400
  0
VERTEX
  8
C7
  10
418.460800
  20
281.682900
  0
VERTEX
  8
C7
  10
418.801900
  20
282.289600
  0
VERTEX
  8
C7
  10
419.000000
  20
283.000000
  0
VERTEX
  8
C7
  10
420.000000
  20
283.000000
  0
VERTEX
  8
C7
  10
420.000000
  20
280.000000
  0
VERTEX
  8
C7
  10
424.000000
  20
280.000000
  0
VERTEX
  8
C7
  10
424.047400
  20
280.602800
  0
VERTEX
  8
C7
  10
424.001700
  20
281.163400
  0
VERTEX
  8
C7
  10
423.866800
  20
281.683100
  0
VERTEX
  8
C7
  10
423.646700
  20
282.163500
  0
VERTEX
  8
C7
  10
423.345500
  20
282.606000
  0
VERTEX
  8
C7
  10
422.967200
  20
283.012100
  0
VERTEX
  8
C7
  10
422.515800
  20
283.383400
  0
VERTEX
  8
C7
  10
421.995400
  20
283.721200
  0
VERTEX
  8
C7
  10
421.410000
  20
284.027200
  0
VERTEX
  8
C7
  10
420.763600
  20
284.302800
  0
VERTEX
  8
C7
  10
420.060300
  20
284.549500
  0
VERTEX
  8
C7
  10
419.304000
  20
284.768700
  0
VERTEX
  8
C7
  10
418.498900
  20
284.962000
  0
VERTEX
  8
C7
  10
417.648900
  20
285.131000
  0
VERTEX
  8
C7
  10
416.758100
  20
285.276900
  0
VERTEX
  8
C7
  10
415.830500
  20
285.401400
  0
VERTEX
  8
C7
  10
414.870100
  20
285.506000
  0
VERTEX
  8
C7
  10
413.881000
  20
285.592100
  0
VERTEX
  8
C7
  10
412.867100
  20
285.661200
  0
VERTEX
  8
C7
  10
411.832700
  20
285.714900
  0
VERTEX
  8
C7
  10
410.781500
  20
285.754600
  0
VERTEX
  8
C7
  10
409.717800
  20
285.781700
  0
VERTEX
  8
C7
  10
408.645400
  20
285.797900
  0
VERTEX
  8
C7
  10
407.568500
  20
285.804600
  0
VERTEX
  8
C7
  10
406.491100
  20
285.803200
  0
VERTEX
  8
C7
  10
405.417200
  20
285.795400
  0
VERTEX
  8
C7
  10
404.350800
  20
285.782500
  0
VERTEX
  8
C7
  10
403.296000
  20
285.766000
  0
VERTEX
  8
C7
  10
402.256800
  20
285.747500
  0
VERTEX
  8
C7
  10
401.237200
  20
285.728500
  0
VERTEX
  8
C7
  10
400.241300
  20
285.710400
  0
VERTEX
  8
C7
  10
399.273000
  20
285.694700
  0
VERTEX
  8
C7
  10
398.336500
  20
285.683000
  0
VERTEX
  8
C7
  10
397.435700
  20
285.676600
  0
VERTEX
  8
C7
  10
396.574700
  20
285.677200
  0
VERTEX
  8
C7
  10
395.757500
  20
285.686200
  0
VERTEX
  8
C7
  10
394.988100
  20
285.705000
  0
VERTEX
  8
C7
  10
394.270600
  20
285.735300
  0
VERTEX
  8
C7
  10
393.609100
  20
285.778400
  0
VERTEX
  8
C7
  10
393.007400
  20
285.835900
  0
VERTEX
  8
C7
  10
392.469700
  20
285.909200
  0
VERTEX
  8
C7
  10
392.000000
  20
286.000000
  0
SEQEND
  8
C7
  0
POLYLINE
  8
C7
  66
1
  10
432.000000
  20
282.000000
  0
VERTEX
  8
C7
  10
432.000000
  20
282.000000
  0
VERTEX
  8
C7
  10
431.000000
  20
282.000000
  0
VERTEX
  8
C7
  10
431.000000
  20
285.000000
  0
VERTEX
  8
C7
  10
426.000000
  20
285.000000
  0
VERTEX
  8
C7
  10
427.000000
  20
280.000000
  0
VERTEX
  8
C7
  10
437.000000
  20
281.000000
  0
VERTEX
  8
C7
  10
450.000000
  20
280.000000
  0
VERTEX
  8
C7
  10
450.000000
  20
286.000000
  0
VERTEX
  8
C7
  10
443.000000
  20
284.000000
  0
VERTEX
  8
C7
  10
442.552900
  20
284.553600
  0
VERTEX
  8
C7
  10
441.955100
  20
284.989800
  0
VERTEX
  8
C7
  10
441.231900
  20
285.313000
  0
VERTEX
  8
C7
  10
440.408700
  20
285.527800
  0
VERTEX
  8
C7
  10
439.510800
  20
285.638500
  0
VERTEX
  8
C7
  10
438.563500
  20
285.649500
  0
VERTEX
  8
C7
  10
437.592300
  20
285.565400
  0
VERTEX
  8
C7
  10
436.622400
  20
285.390600
  0
VERTEX
  8
C7
  10
435.679200
  20
285.129500
  0
VERTEX
  8
C7
  10
434.788000
  20
284.786600
  0
VERTEX
  8
C7
  10
433.974300
  20
284.366300
  0
VERTEX
  8
C7
  10
433.263200
  20
283.873000
  0
VERTEX
  8
C7
  10
432.680300
  20
283.311200
  0
VERTEX
  8
C7
  10
432.250700
  20
282.685400
  0
VERTEX
  8
C7
  10
432.000000
  20
282.000000
  0
SEQEND
  8
C7
  0
POLYLINE
  8
C7
  66
1
  10
452.000000
  20
286.000000
  0
VERTEX
  8
C7
  10
452.000000
  20
286.000000
  0
VERTEX
  8
C7
  10
452.000000
  20
280.000000
  0
VERTEX
  8
C7
  10
458.000000
  20
279.000000
  0
VERTEX
  8
C7
  10
460.000000
  20
285.000000
  0
VERTEX
  8
C7
  10
452.000000
  20
286.000000
  0
SEQEND
  8
C7
  0
POLYLINE
  8
C7
  66
1
  10
476.000000
  20
282.000000
  0
VERTEX
  8
C7
  10
476.000000
  20
282.000000
  0
VERTEX
  8
C7
  10
475.000000
  20
282.000000
  0
VERTEX
  8
C7
  10
475.000000
  20
285.000000
  0
VERTEX
  8
C7
  10
461.000000
  20
285.000000
  0
VERTEX
  8
C7
  10
461.000000
  20
280.000000
  0
VERTEX
  8
C7
  10
462.000000
  20
280.000000
  0
VERTEX
  8
C7
  10
462.000000
  20
283.000000
  0
VERTEX
  8
C7
  10
463.000000
  20
283.000000
  0
VERTEX
  8
C7
  10
463.000000
  20
280.000000
  0
VERTEX
  8
C7
  10
464.000000
  20
280.000000
  0
VERTEX
  8
C7
  10
464.000000
  20
283.000000
  0
VERTEX
  8
C7
  10
465.000000
  20
283.000000
  0
VERTEX
  8
C7
  10
465.000000
  20
280.000000
  0
VERTEX
  8
C7
  10
471.000000
  20
282.000000
  0
VERTEX
  8
C7
  10
472.000000
  20
282.000000
  0
VERTEX
  8
C7
  10
472.324900
  20
281.574200
  0
VERTEX
  8
C7
  10
472.779800
  20
281.185800
  0
VERTEX
  8
C7
  10
473.352800
  20
280.835100
  0
VERTEX
  8
C7
  10
474.032200
  20
280.522100
  0
VERTEX
  8
C7
  10
474.806200
  20
280.247000
  0
VERTEX
  8
C7
  10
475.662900
  20
280.010200
  0
VERTEX
  8
C7
  10
476.590700
  20
279.811600
  0
VERTEX
  8
C7
  10
477.577700
  20
279.651600
  0
VERTEX
  8
C7
  10
478.612100
  20
279.530200
  0
VERTEX
  8
C7
  10
479.682200
  20
279.447700
  0
VERTEX
  8
C7
  10
480.776200
  20
279.404300
  0
VERTEX
  8
C7
  10
481.882300
  20
279.400200
  0
VERTEX
  8
C7
  10
482.988700
  20
279.435400
  0
VERTEX
  8
C7
  10
484.083600
  20
279.510300
  0
VERTEX
  8
C7
  10
485.155200
  20
279.624900
  0
VERTEX
  8
C7
  10
486.191800
  20
279.779500
  0
VERTEX
  8
C7
  10
487.181600
  20
279.974300
  0
VERTEX
  8
C7
  10
488.112800
  20
280.209400
  0
VERTEX
  8
C7
  10
488.973500
  20
280.485000
  0
VERTEX
  8
C7
  10
489.752100
  20
280.801400
  0
VERTEX
  8
C7
  10
490.436700
  20
281.158600
  0
VERTEX
  8
C7
  10
491.015600
  20
281.556900
  0
VERTEX
  8
C7
  10
491.477000
  20
281.996400
  0
VERTEX
  8
C7
  10
491.809000
  20
282.477400
  0
VERTEX
  8
C7
  10
492.000000
  20
283.000000
  0
VERTEX
  8
C7
  10
493.000000
  20
283.000000
  0
VERTEX
  8
C7
  10
493.000000
  20
280.000000
  0
VERTEX
  8
C7
  10
498.000000
  20
280.000000
  0
VERTEX
  8
C7
  10
499.000000
  20
285.000000
  0
VERTEX
  8
C7
  10
498.329600
  20
285.012200
  0
VERTEX
  8
C7
  10
497.587400
  20
285.046600
  0
VERTEX
  8
C7
  10
496.780300
  20
285.099200
  0
VERTEX
  8
C7
  10
495.915400
  20
285.166300
  0
VERTEX
  8
C7
  10
494.999400
  20
285.244100
  0
VERTEX
  8
C7
  10
494.039500
  20
285.328800
  0
VERTEX
  8
C7
  10
493.042400
  20
285.416600
  0
VERTEX
  8
C7
  10
492.015200
  20
285.503800
  0
VERTEX
  8
C7
  10
490.964800
  20
285.586500
  0
VERTEX
  8
C7
  10
489.898100
  20
285.661000
  0
VERTEX
  8
C7
  10
488.822100
  20
285.723400
  0
VERTEX
  8
C7
  10
487.743600
  20
285.770100
  0
VERTEX
  8
C7
  10
486.669800
  20
285.797200
  0
VERTEX
  8
C7
  10
485.607400
  20
285.800900
  0
VERTEX
  8
C7
  10
484.563400
  20
285.777500
  0
VERTEX
  8
C7
  10
483.544900
  20
285.723100
  0
VERTEX
  8
C7
  10
482.558600
  20
285.634000
  0
VERTEX
  8
C7
  10
481.611600
  20
285.506400
  0
VERTEX
  8
C7
  10
480.710800
  20
285.336400
  0
VERTEX
  8
C7
  10
479.863100
  20
285.120400
  0
VERTEX
  8
C7
  10
479.075400
  20
284.854500
  0
VERTEX
  8
C7
  10
478.354800
  20
284.535000
  0
VERTEX
  8
C7
  10
477.708200
  20
284.158000
  0
VERTEX
  8
C7
  10
477.142400
  20
283.719800
  0
VERTEX
  8
C7
  10
476.664500
  20
283.216600
  0
VERTEX
  8
C7
  10
476.281400
  20
282.644600
  0
VERTEX
  8
C7
  10
476.000000
  20
282.000000
  0
SEQEND
  8
C7
  0
POLYLINE
  8
C7
  66
1
  10
526.000000
  20
286.000000
  0
VERTEX
  8
C7
  10
526.000000
  20
286.000000
  0
VERTEX
  8
C7
  10
526.000000
  20
280.000000
  0
VERTEX
  8
C7
  10
527.000000
  20
280.000000
  0
VERTEX
  8
C7
  10
526.000000
  20
286.000000
  0
SEQEND
  8
C7
  0
POLYLINE
  8
C7
  66
1
  10
381.000000
  20
285.000000
  0
VERTEX
  8
C7
  10
381.000000
  20
285.000000
  0
VERTEX
  8
C7
  10
381.000000
  20
279.000000
  0
VERTEX
  8
C7
  10
389.000000
  20
280.000000
  0
VERTEX
  8
C7
  10
391.000000
  20
285.000000
  0
VERTEX
  8
C7
  10
381.000000
  20
285.000000
  0
SEQEND
  8
C7
  0
POLYLINE
  8
C7
  66
1
  10
315.000000
  20
283.000000
  0
VERTEX
  8
C7
  10
315.000000
  20
283.000000
  0
VERTEX
  8
C7
  10
316.000000
  20
282.000000
  0
VERTEX
  8
C7
  10
315.000000
  20
283.000000
  0
SEQEND
  8
C7
  0
POLYLINE
  8
C7
  66
1
  10
331.000000
  20
283.000000
  0
VERTEX
  8
C7
  10
331.000000
  20
283.000000
  0
VERTEX
  8
C7
  10
332.000000
  20
282.000000
  0
VERTEX
  8
C7
  10
331.000000
  20
283.000000
  0
SEQEND
  8
C7
  0
POLYLINE
  8
C7
  66
1
  10
372.000000
  20
283.000000
  0
VERTEX
  8
C7
  10
372.000000
  20
283.000000
  0
VERTEX
  8
C7
  10
373.000000
  20
282.000000
  0
VERTEX
  8
C7
  10
372.000000
  20
283.000000
  0
SEQEND
  8
C7
  0
POLYLINE
  8
C7
  66
1
  10
382.000000
  20
283.000000
  0
VERTEX
  8
C7
  10
382.000000
  20
283.000000
  0
VERTEX
  8
C7
  10
383.000000
  20
282.000000
  0
VERTEX
  8
C7
  10
382.000000
  20
283.000000
  0
SEQEND
  8
C7
  0
POLYLINE
  8
C7
  66
1
  10
409.000000
  20
283.000000
  0
VERTEX
  8
C7
  10
409.000000
  20
283.000000
  0
VERTEX
  8
C7
  10
410.000000
  20
282.000000
  0
VERTEX
  8
C7
  10
409.000000
  20
283.000000
  0
SEQEND
  8
C7
  0
POLYLINE
  8
C7
  66
1
  10
412.000000
  20
283.000000
  0
VERTEX
  8
C7
  10
412.000000
  20
283.000000
  0
VERTEX
  8
C7
  10
413.000000
  20
282.000000
  0
VERTEX
  8
C7
  10
412.000000
  20
283.000000
  0
SEQEND
  8
C7
  0
POLYLINE
  8
C7
  66
1
  10
438.000000
  20
283.000000
  0
VERTEX
  8
C7
  10
438.000000
  20
283.000000
  0
VERTEX
  8
C7
  10
439.000000
  20
282.000000
  0
VERTEX
  8
C7
  10
438.000000
  20
283.000000
  0
SEQEND
  8
C7
  0
POLYLINE
  8
C7
  66
1
  10
448.000000
  20
283.000000
  0
VERTEX
  8
C7
  10
448.000000
  20
283.000000
  0
VERTEX
  8
C7
  10
449.000000
  20
282.000000
  0
VERTEX
  8
C7
  10
448.000000
  20
283.000000
  0
SEQEND
  8
C7
  0
POLYLINE
  8
C7
  66
1
  10
499.333344
  20
281.333344
  0
VERTEX
  8
C7
  10
499.333344
  20
281.333344
  0
VERTEX
  8
C7
  10
499.666656
  20
280.666656
  0
VERTEX
  8
C7
  10
499.333344
  20
281.333344
  0
SEQEND
  8
C7
  0
POLYLINE
  8
C7
  66
1
  10
267.000000
  20
278.000000
  0
VERTEX
  8
C7
  10
267.000000
  20
278.000000
  0
VERTEX
  8
C7
  10
267.125400
  20
277.179600
  0
VERTEX
  8
C7
  10
267.360000
  20
276.419900
  0
VERTEX
  8
C7
  10
267.695000
  20
275.721200
  0
VERTEX
  8
C7
  10
268.121600
  20
275.083700
  0
VERTEX
  8
C7
  10
268.631000
  20
274.507800
  0
VERTEX
  8
C7
  10
269.214500
  20
273.993700
  0
VERTEX
  8
C7
  10
269.863500
  20
273.541700
  0
VERTEX
  8
C7
  10
270.569000
  20
273.152200
  0
VERTEX
  8
C7
  10
271.322500
  20
272.825400
  0
VERTEX
  8
C7
  10
272.115000
  20
272.561600
  0
VERTEX
  8
C7
  10
272.938000
  20
272.361100
  0
VERTEX
  8
C7
  10
273.782600
  20
272.224200
  0
VERTEX
  8
C7
  10
274.640100
  20
272.151200
  0
VERTEX
  8
C7
  10
275.501700
  20
272.142400
  0
VERTEX
  8
C7
  10
276.358700
  20
272.198000
  0
VERTEX
  8
C7
  10
277.202400
  20
272.318500
  0
VERTEX
  8
C7
  10
278.024000
  20
272.504000
  0
VERTEX
  8
C7
  10
278.814800
  20
272.754900
  0
VERTEX
  8
C7
  10
279.566000
  20
273.071400
  0
VERTEX
  8
C7
  10
280.268800
  20
273.453900
  0
VERTEX
  8
C7
  10
280.914600
  20
273.902600
  0
VERTEX
  8
C7
  10
281.494600
  20
274.417900
  0
VERTEX
  8
C7
  10
282.000000
  20
275.000000
  0
VERTEX
  8
C7
  10
283.000000
  20
275.000000
  0
VERTEX
  8
C7
  10
283.636400
  20
274.037100
  0
VERTEX
  8
C7
  10
284.218200
  20
273.555600
  0
VERTEX
  8
C7
  10
284.781700
  20
273.555600
  0
VERTEX
  8
C7
  10
285.363500
  20
274.037100
  0
VERTEX
  8
C7
  10
286.000000
  20
275.000000
  0
VERTEX
  8
C7
  10
287.000000
  20
275.000000
  0
VERTEX
  8
C7
  10
297.000000
  20
273.000000
  0
VERTEX
  8
C7
  10
297.000000
  20
278.000000
  0
VERTEX
  8
C7
  10
296.393800
  20
277.908700
  0
VERTEX
  8
C7
  10
295.703700
  20
277.841300
  0
VERTEX
  8
C7
  10
294.937100
  20
277.794800
  0
VERTEX
  8
C7
  10
294.101700
  20
277.766200
  0
VERTEX
  8
C7
  10
293.204900
  20
277.752500
  0
VERTEX
  8
C7
  10
292.254500
  20
277.750500
  0
VERTEX
  8
C7
  10
291.257900
  20
277.757300
  0
VERTEX
  8
C7
  10
290.222800
  20
277.769900
  0
VERTEX
  8
C7
  10
289.156600
  20
277.785200
  0
VERTEX
  8
C7
  10
288.067100
  20
277.800200
  0
VERTEX
  8
C7
  10
286.961800
  20
277.811900
  0
VERTEX
  8
C7
  10
285.848200
  20
277.817200
  0
VERTEX
  8
C7
  10
284.734000
  20
277.813100
  0
VERTEX
  8
C7
  10
283.626700
  20
277.796600
  0
VERTEX
  8
C7
  10
282.533800
  20
277.764600
  0
VERTEX
  8
C7
  10
281.463100
  20
277.714200
  0
VERTEX
  8
C7
  10
280.422000
  20
277.642300
  0
VERTEX
  8
C7
  10
279.418100
  20
277.545900
  0
VERTEX
  8
C7
  10
278.459000
  20
277.421900
  0
VERTEX
  8
C7
  10
277.552300
  20
277.267300
  0
VERTEX
  8
C7
  10
276.705600
  20
277.079100
  0
VERTEX
  8
C7
  10
275.926400
  20
276.854200
  0
VERTEX
  8
C7
  10
275.222400
  20
276.589700
  0
VERTEX
  8
C7
  10
274.601000
  20
276.282500
  0
VERTEX
  8
C7
  10
274.069900
  20
275.929500
  0
VERTEX
  8
C7
  10
273.636700
  20
275.527800
  0
VERTEX
  8
C7
  10
273.308900
  20
275.074400
  0
VERTEX
  8
C7
  10
273.094100
  20
274.566100
  0
VERTEX
  8
C7
  10
273.000000
  20
274.000000
  0
VERTEX
  8
C7
  10
271.000000
  20
278.000000
  0
VERTEX
  8
C7
  10
267.000000
  20
278.000000
  0
SEQEND
  8
C7
  0
POLYLINE
  8
C7
  66
1
  10
298.000000
  20
277.000000
  0
VERTEX
  8
C7
  10
298.000000
  20
277.000000
  0
VERTEX
  8
C7
  10
298.343500
  20
276.284100
  0
VERTEX
  8
C7
  10
298.771300
  20
275.628400
  0
VERTEX
  8
C7
  10
299.276000
  20
275.032800
  0
VERTEX
  8
C7
  10
299.850400
  20
274.497300
  0
VERTEX
  8
C7
  10
300.487000
  20
274.021800
  0
VERTEX
  8
C7
  10
301.178600
  20
273.606100
  0
VERTEX
  8
C7
  10
301.917700
  20
273.250400
  0
VERTEX
  8
C7
  10
302.697200
  20
272.954400
  0
VERTEX
  8
C7
  10
303.509500
  20
272.718100
  0
VERTEX
  8
C7
  10
304.347500
  20
272.541400
  0
VERTEX
  8
C7
  10
305.203700
  20
272.424300
  0
VERTEX
  8
C7
  10
306.070800
  20
272.366700
  0
VERTEX
  8
C7
  10
306.941500
  20
272.368500
  0
VERTEX
  8
C7
  10
307.808500
  20
272.429700
  0
VERTEX
  8
C7
  10
308.664400
  20
272.550100
  0
VERTEX
  8
C7
  10
309.501900
  20
272.729800
  0
VERTEX
  8
C7
  10
310.313600
  20
272.968600
  0
VERTEX
  8
C7
  10
311.092200
  20
273.266500
  0
VERTEX
  8
C7
  10
311.830400
  20
273.623400
  0
VERTEX
  8
C7
  10
312.520900
  20
274.039200
  0
VERTEX
  8
C7
  10
313.156200
  20
274.513900
  0
VERTEX
  8
C7
  10
313.729100
  20
275.047400
  0
VERTEX
  8
C7
  10
314.232300
  20
275.639600
  0
VERTEX
  8
C7
  10
314.658300
  20
276.290500
  0
VERTEX
  8
C7
  10
315.000000
  20
277.000000
  0
VERTEX
  8
C7
  10
298.000000
  20
277.000000
  0
SEQEND
  8
C7
  0
POLYLINE
  8
C7
  66
1
  10
322.000000
  20
275.000000
  0
VERTEX
  8
C7
  10
322.000000
  20
275.000000
  0
VERTEX
  8
C7
  10
321.000000
  20
275.000000
  0
VERTEX
  8
C7
  10
316.000000
  20
277.000000
  0
VERTEX
  8
C7
  10
316.000000
  20
273.000000
  0
VERTEX
  8
C7
  10
323.000000
  20
271.000000
  0
VERTEX
  8
C7
  10
324.000000
  20
271.000000
  0
VERTEX
  8
C7
  10
325.000000
  20
271.000000
  0
VERTEX
  8
C7
  10
327.000000
  20
271.000000
  0
VERTEX
  8
C7
  10
328.000000
  20
271.000000
  0
VERTEX
  8
C7
  10
340.000000
  20
273.000000
  0
VERTEX
  8
C7
  10
340.000000
  20
277.000000
  0
VERTEX
  8
C7
  10
339.209600
  20
277.030000
  0
VERTEX
  8
C7
  10
338.363400
  20
277.084600
  0
VERTEX
  8
C7
  10
337.468800
  20
277.157500
  0
VERTEX
  8
C7
  10
336.533100
  20
277.242200
  0
VERTEX
  8
C7
  10
335.563800
  20
277.332400
  0
VERTEX
  8
C7
  10
334.568100
  20
277.421700
  0
VERTEX
  8
C7
  10
333.553500
  20
277.503700
  0
VERTEX
  8
C7
  10
332.527400
  20
277.572000
  0
VERTEX
  8
C7
  10
331.497200
  20
277.620200
  0
VERTEX
  8
C7
  10
330.470100
  20
277.641900
  0
VERTEX
  8
C7
  10
329.453700
  20
277.630800
  0
VERTEX
  8
C7
  10
328.455200
  20
277.580500
  0
VERTEX
  8
C7
  10
327.482100
  20
277.484600
  0
VERTEX
  8
C7
  10
326.541700
  20
277.336700
  0
VERTEX
  8
C7
  10
325.641400
  20
277.130400
  0
VERTEX
  8
C7
  10
324.788600
  20
276.859400
  0
VERTEX
  8
C7
  10
323.990700
  20
276.517200
  0
VERTEX
  8
C7
  10
323.255000
  20
276.097500
  0
VERTEX
  8
C7
  10
322.589000
  20
275.593900
  0
VERTEX
  8
C7
  10
322.000000
  20
275.000000
  0
SEQEND
  8
C7
  0
POLYLINE
  8
C7
  66
1
  10
342.000000
  20
277.000000
  0
VERTEX
  8
C7
  10
342.000000
  20
277.000000
  0
VERTEX
  8
C7
  10
342.000000
  20
272.000000
  0
VERTEX
  8
C7
  10
353.000000
  20
273.000000
  0
VERTEX
  8
C7
  10
353.000000
  20
278.000000
  0
VERTEX
  8
C7
  10
342.000000
  20
277.000000
  0
SEQEND
  8
C7
  0
POLYLINE
  8
C7
  66
1
  10
354.000000
  20
273.000000
  0
VERTEX
  8
C7
  10
354.000000
  20
273.000000
  0
VERTEX
  8
C7
  10
359.000000
  20
275.000000
  0
VERTEX
  8
C7
  10
360.000000
  20
275.000000
  0
VERTEX
  8
C7
  10
372.000000
  20
273.000000
  0
VERTEX
  8
C7
  10
372.000000
  20
277.000000
  0
VERTEX
  8
C7
  10
371.226100
  20
277.120300
  0
VERTEX
  8
C7
  10
370.396800
  20
277.241800
  0
VERTEX
  8
C7
  10
369.519900
  20
277.359800
  0
VERTEX
  8
C7
  10
368.603000
  20
277.469900
  0
VERTEX
  8
C7
  10
367.653700
  20
277.567700
  0
VERTEX
  8
C7
  10
366.679800
  20
277.648700
  0
VERTEX
  8
C7
  10
365.688800
  20
277.708300
  0
VERTEX
  8
C7
  10
364.688600
  20
277.742100
  0
VERTEX
  8
C7
  10
363.686700
  20
277.745700
  0
VERTEX
  8
C7
  10
362.690700
  20
277.714500
  0
VERTEX
  8
C7
  10
361.708500
  20
277.644000
  0
VERTEX
  8
C7
  10
360.747600
  20
277.529900
  0
VERTEX
  8
C7
  10
359.815700
  20
277.367600
  0
VERTEX
  8
C7
  10
358.920500
  20
277.152600
  0
VERTEX
  8
C7
  10
358.069700
  20
276.880500
  0
VERTEX
  8
C7
  10
357.270900
  20
276.546800
  0
VERTEX
  8
C7
  10
356.531700
  20
276.147000
  0
VERTEX
  8
C7
  10
355.860000
  20
275.676600
  0
VERTEX
  8
C7
  10
355.263200
  20
275.131200
  0
VERTEX
  8
C7
  10
354.749200
  20
274.506300
  0
VERTEX
  8
C7
  10
354.325600
  20
273.797400
  0
VERTEX
  8
C7
  10
354.000000
  20
273.000000
  0
SEQEND
  8
C7
  0
POLYLINE
  8
C7
  66
1
  10
373.000000
  20
278.000000
  0
VERTEX
  8
C7
  10
373.000000
  20
278.000000
  0
VERTEX
  8
C7
  10
373.000000
  20
273.000000
  0
VERTEX
  8
C7
  10
374.182500
  20
272.907200
  0
VERTEX
  8
C7
  10
375.262100
  20
272.877400
  0
VERTEX
  8
C7
  10
376.245400
  20
272.928100
  0
VERTEX
  8
C7
  10
377.139200
  20
273.076700
  0
VERTEX
  8
C7
  10
377.950300
  20
273.340600
  0
VERTEX
  8
C7
  10
378.685400
  20
273.737200
  0
VERTEX
  8
C7
  10
379.351100
  20
274.284000
  0
VERTEX
  8
C7
  10
379.954300
  20
274.998500
  0
VERTEX
  8
C7
  10
380.501700
  20
275.898000
  0
VERTEX
  8
C7
  10
381.000000
  20
277.000000
  0
VERTEX
  8
C7
  10
373.000000
  20
278.000000
  0
SEQEND
  8
C7
  0
POLYLINE
  8
C7
  66
1
  10
382.000000
  20
278.000000
  0
VERTEX
  8
C7
  10
382.000000
  20
278.000000
  0
VERTEX
  8
C7
  10
382.000000
  20
273.000000
  0
VERTEX
  8
C7
  10
399.000000
  20
273.000000
  0
VERTEX
  8
C7
  10
398.425200
  20
273.836000
  0
VERTEX
  8
C7
  10
397.800000
  20
274.556900
  0
VERTEX
  8
C7
  10
397.127800
  20
275.171500
  0
VERTEX
  8
C7
  10
396.412300
  20
275.688800
  0
VERTEX
  8
C7
  10
395.657100
  20
276.117600
  0
VERTEX
  8
C7
  10
394.865700
  20
276.466900
  0
VERTEX
  8
C7
  10
394.041800
  20
276.745700
  0
VERTEX
  8
C7
  10
393.188900
  20
276.962700
  0
VERTEX
  8
C7
  10
392.310600
  20
277.127000
  0
VERTEX
  8
C7
  10
391.410400
  20
277.247400
  0
VERTEX
  8
C7
  10
390.492100
  20
277.332800
  0
VERTEX
  8
C7
  10
389.559200
  20
277.392300
  0
VERTEX
  8
C7
  10
388.615200
  20
277.434600
  0
VERTEX
  8
C7
  10
387.663800
  20
277.468600
  0
VERTEX
  8
C7
  10
386.708500
  20
277.503400
  0
VERTEX
  8
C7
  10
385.753000
  20
277.547900
  0
VERTEX
  8
C7
  10
384.800800
  20
277.610800
  0
VERTEX
  8
C7
  10
383.855500
  20
277.701200
  0
VERTEX
  8
C7
  10
382.920700
  20
277.827900
  0
VERTEX
  8
C7
  10
382.000000
  20
278.000000
  0
SEQEND
  8
C7
  0
POLYLINE
  8
C7
  66
1
  10
237.000000
  20
277.000000
  0
VERTEX
  8
C7
  10
237.000000
  20
277.000000
  0
VERTEX
  8
C7
  10
237.000000
  20
272.000000
  0
VERTEX
  8
C7
  10
238.000000
  20
272.000000
  0
VERTEX
  8
C7
  10
237.000000
  20
277.000000
  0
SEQEND
  8
C7
  0
POLYLINE
  8
C7
  66
1
  10
526.000000
  20
277.000000
  0
VERTEX
  8
C7
  10
526.000000
  20
277.000000
  0
VERTEX
  8
C7
  10
526.000000
  20
272.000000
  0
VERTEX
  8
C7
  10
527.000000
  20
272.000000
  0
VERTEX
  8
C7
  10
526.000000
  20
277.000000
  0
SEQEND
  8
C7
  0
POLYLINE
  8
C7
  66
1
  10
274.000000
  20
276.000000
  0
VERTEX
  8
C7
  10
274.000000
  20
276.000000
  0
VERTEX
  8
C7
  10
275.000000
  20
274.000000
  0
VERTEX
  8
C7
  10
276.000000
  20
274.000000
  0
VERTEX
  8
C7
  10
277.000000
  20
276.000000
  0
VERTEX
  8
C7
  10
274.000000
  20
276.000000
  0
SEQEND
  8
C7
  0
POLYLINE
  8
C7
  66
1
  10
293.000000
  20
275.000000
  0
VERTEX
  8
C7
  10
293.000000
  20
275.000000
  0
VERTEX
  8
C7
  10
294.000000
  20
274.000000
  0
VERTEX
  8
C7
  10
293.000000
  20
275.000000
  0
SEQEND
  8
C7
  0
POLYLINE
  8
C7
  66
1
  10
328.000000
  20
275.000000
  0
VERTEX
  8
C7
  10
328.000000
  20
275.000000
  0
VERTEX
  8
C7
  10
329.000000
  20
274.000000
  0
VERTEX
  8
C7
  10
328.000000
  20
275.000000
  0
SEQEND
  8
C7
  0
POLYLINE
  8
C7
  66
1
  10
350.000000
  20
275.000000
  0
VERTEX
  8
C7
  10
350.000000
  20
275.000000
  0
VERTEX
  8
C7
  10
351.000000
  20
274.000000
  0
VERTEX
  8
C7
  10
350.000000
  20
275.000000
  0
SEQEND
  8
C7
  0
POLYLINE
  8
C7
  66
1
  10
366.000000
  20
275.000000
  0
VERTEX
  8
C7
  10
366.000000
  20
275.000000
  0
VERTEX
  8
C7
  10
367.000000
  20
274.000000
  0
VERTEX
  8
C7
  10
366.000000
  20
275.000000
  0
SEQEND
  8
C7
  0
POLYLINE
  8
C7
  66
1
  10
376.000000
  20
275.000000
  0
VERTEX
  8
C7
  10
376.000000
  20
275.000000
  0
VERTEX
  8
C7
  10
377.000000
  20
274.000000
  0
VERTEX
  8
C7
  10
376.000000
  20
275.000000
  0
SEQEND
  8
C7
  0
POLYLINE
  8
C7
  66
1
  10
237.000000
  20
268.000000
  0
VERTEX
  8
C7
  10
237.000000
  20
268.000000
  0
VERTEX
  8
C7
  10
237.000000
  20
263.000000
  0
VERTEX
  8
C7
  10
238.000000
  20
263.000000
  0
VERTEX
  8
C7
  10
237.000000
  20
268.000000
  0
SEQEND
  8
C7
  0
POLYLINE
  8
C7
  66
1
  10
526.000000
  20
268.000000
  0
VERTEX
  8
C7
  10
526.000000
  20
268.000000
  0
VERTEX
  8
C7
  10
526.000000
  20
263.000000
  0
VERTEX
  8
C7
  10
527.000000
  20
263.000000
  0
VERTEX
  8
C7
  10
526.000000
  20
268.000000
  0
SEQEND
  8
C7
  0
POLYLINE
  8
C7
  66
1
  10
237.000000
  20
260.000000
  0
VERTEX
  8
C7
  10
237.000000
  20
260.000000
  0
VERTEX
  8
C7
  10
237.000000
  20
254.000000
  0
VERTEX
  8
C7
  10
238.000000
  20
254.000000
  0
VERTEX
  8
C7
  10
237.000000
  20
260.000000
  0
SEQEND
  8
C7
  0
POLYLINE
  8
C7
  66
1
  10
526.000000
  20
260.000000
  0
VERTEX
  8
C7
  10
526.000000
  20
260.000000
  0
VERTEX
  8
C7
  10
526.000000
  20
254.000000
  0
VERTEX
  8
C7
  10
527.000000
  20
254.000000
  0
VERTEX
  8
C7
  10
526.000000
  20
260.000000
  0
SEQEND
  8
C7
  0
POLYLINE
  8
C7
  66
1
  10
237.000000
  20
251.000000
  0
VERTEX
  8
C7
  10
237.000000
  20
251.000000
  0
VERTEX
  8
C7
  10
237.000000
  20
246.000000
  0
VERTEX
  8
C7
  10
238.000000
  20
246.000000
  0
VERTEX
  8
C7
  10
237.000000
  20
251.000000
  0
SEQEND
  8
C7
  0
POLYLINE
  8
C7
  66
1
  10
526.000000
  20
251.000000
  0
VERTEX
  8
C7
  10
526.000000
  20
251.000000
  0
VERTEX
  8
C7
  10
526.000000
  20
246.000000
  0
VERTEX
  8
C7
  10
527.000000
  20
246.000000
  0
VERTEX
  8
C7
  10
526.000000
  20
251.000000
  0
SEQEND
  8
C7
  0
POLYLINE
  8
C7
  66
1
  10
237.000000
  20
242.000000
  0
VERTEX
  8
C7
  10
237.000000
  20
242.000000
  0
VERTEX
  8
C7
  10
237.000000
  20
237.000000
  0
VERTEX
  8
C7
  10
238.000000
  20
237.000000
  0
VERTEX
  8
C7
  10
237.000000
  20
242.000000
  0
SEQEND
  8
C7
  0
POLYLINE
  8
C7
  66
1
  10
526.000000
  20
242.000000
  0
VERTEX
  8
C7
  10
526.000000
  20
242.000000
  0
VERTEX
  8
C7
  10
526.000000
  20
237.000000
  0
VERTEX
  8
C7
  10
527.000000
  20
237.000000
  0
VERTEX
  8
C7
  10
526.000000
  20
242.000000
  0
SEQEND
  8
C7
  0
POLYLINE
  8
C7
  66
1
  10
237.000000
  20
234.000000
  0
VERTEX
  8
C7
  10
237.000000
  20
234.000000
  0
VERTEX
  8
C7
  10
237.000000
  20
228.000000
  0
VERTEX
  8
C7
  10
238.000000
  20
228.000000
  0
VERTEX
  8
C7
  10
237.000000
  20
234.000000
  0
SEQEND
  8
C7
  0
POLYLINE
  8
C7
  66
1
  10
526.000000
  20
234.000000
  0
VERTEX
  8
C7
  10
526.000000
  20
234.000000
  0
VERTEX
  8
C7
  10
526.000000
  20
228.000000
  0
VERTEX
  8
C7
  10
527.000000
  20
228.000000
  0
VERTEX
  8
C7
  10
526.000000
  20
234.000000
  0
SEQEND
  8
C7
  0
POLYLINE
  8
C7
  66
1
  10
237.000000
  20
225.000000
  0
VERTEX
  8
C7
  10
237.000000
  20
225.000000
  0
VERTEX
  8
C7
  10
237.000000
  20
220.000000
  0
VERTEX
  8
C7
  10
238.000000
  20
220.000000
  0
VERTEX
  8
C7
  10
237.000000
  20
225.000000
  0
SEQEND
  8
C7
  0
POLYLINE
  8
C7
  66
1
  10
526.000000
  20
225.000000
  0
VERTEX
  8
C7
  10
526.000000
  20
225.000000
  0
VERTEX
  8
C7
  10
526.000000
  20
220.000000
  0
VERTEX
  8
C7
  10
527.000000
  20
220.000000
  0
VERTEX
  8
C7
  10
526.000000
  20
225.000000
  0
SEQEND
  8
C7
  0
POLYLINE
  8
C7
  66
1
  10
237.000000
  20
216.000000
  0
VERTEX
  8
C7
  10
237.000000
  20
216.000000
  0
VERTEX
  8
C7
  10
237.325900
  20
214.875600
  0
VERTEX
  8
C7
  10
237.753800
  20
214.080900
  0
VERTEX
  8
C7
  10
238.300100
  20
213.557300
  0
VERTEX
  8
C7
  10
238.981400
  20
213.246100
  0
VERTEX
  8
C7
  10
239.814100
  20
213.088600
  0
VERTEX
  8
C7
  10
240.814800
  20
213.026100
  0
VERTEX
  8
C7
  10
242.000000
  20
213.000000
  0
VERTEX
  8
C7
  10
242.000000
  20
214.000000
  0
VERTEX
  8
C7
  10
237.000000
  20
216.000000
  0
SEQEND
  8
C7
  0
POLYLINE
  8
C7
  66
1
  10
526.000000
  20
216.000000
  0
VERTEX
  8
C7
  10
526.000000
  20
216.000000
  0
VERTEX
  8
C7
  10
523.000000
  20
214.000000
  0
VERTEX
  8
C7
  10
523.000000
  20
213.000000
  0
VERTEX
  8
C7
  10
524.103500
  20
213.150200
  0
VERTEX
  8
C7
  10
525.032600
  20
213.351400
  0
VERTEX
  8
C7
  10
525.737000
  20
213.670200
  0
VERTEX
  8
C7
  10
526.166600
  20
214.173400
  0
VERTEX
  8
C7
  10
526.271000
  20
214.927800
  0
VERTEX
  8
C7
  10
526.000000
  20
216.000000
  0
SEQEND
  8
C7
  0
POLYLINE
  8
C7
  66
1
  10
245.000000
  20
214.000000
  0
VERTEX
  8
C7
  10
245.000000
  20
214.000000
  0
VERTEX
  8
C7
  10
245.000000
  20
213.000000
  0
VERTEX
  8
C7
  10
250.000000
  20
213.000000
  0
VERTEX
  8
C7
  10
245.000000
  20
214.000000
  0
SEQEND
  8
C7
  0
POLYLINE
  8
C7
  66
1
  10
254.000000
  20
214.000000
  0
VERTEX
  8
C7
  10
254.000000
  20
214.000000
  0
VERTEX
  8
C7
  10
254.000000
  20
213.000000
  0
VERTEX
  8
C7
  10
259.000000
  20
213.000000
  0
VERTEX
  8
C7
  10
254.000000
  20
214.000000
  0
SEQEND
  8
C7
  0
POLYLINE
  8
C7
  66
1
  10
262.000000
  20
214.000000
  0
VERTEX
  8
C7
  10
262.000000
  20
214.000000
  0
VERTEX
  8
C7
  10
262.000000
  20
213.000000
  0
VERTEX
  8
C7
  10
268.000000
  20
213.000000
  0
VERTEX
  8
C7
  10
262.000000
  20
214.000000
  0
SEQEND
  8
C7
  0
POLYLINE
  8
C7
  66
1
  10
271.000000
  20
214.000000
  0
VERTEX
  8
C7
  10
271.000000
  20
214.000000
  0
VERTEX
  8
C7
  10
271.000000
  20
213.000000
  0
VERTEX
  8
C7
  10
277.000000
  20
213.000000
  0
VERTEX
  8
C7
  10
271.000000
  20
214.000000
  0
SEQEND
  8
C7
  0
POLYLINE
  8
C7
  66
1
  10
280.000000
  20
214.000000
  0
VERTEX
  8
C7
  10
280.000000
  20
214.000000
  0
VERTEX
  8
C7
  10
280.000000
  20
213.000000
  0
VERTEX
  8
C7
  10
285.000000
  20
213.000000
  0
VERTEX
  8
C7
  10
280.000000
  20
214.000000
  0
SEQEND
  8
C7
  0
POLYLINE
  8
C7
  66
1
  10
288.000000
  20
214.000000
  0
VERTEX
  8
C7
  10
288.000000
  20
214.000000
  0
VERTEX
  8
C7
  10
288.000000
  20
213.000000
  0
VERTEX
  8
C7
  10
294.000000
  20
213.000000
  0
VERTEX
  8
C7
  10
288.000000
  20
214.000000
  0
SEQEND
  8
C7
  0
POLYLINE
  8
C7
  66
1
  10
297.000000
  20
214.000000
  0
VERTEX
  8
C7
  10
297.000000
  20
214.000000
  0
VERTEX
  8
C7
  10
297.000000
  20
213.000000
  0
VERTEX
  8
C7
  10
302.000000
  20
213.000000
  0
VERTEX
  8
C7
  10
297.000000
  20
214.000000
  0
SEQEND
  8
C7
  0
POLYLINE
  8
C7
  66
1
  10
306.000000
  20
214.000000
  0
VERTEX
  8
C7
  10
306.000000
  20
214.000000
  0
VERTEX
  8
C7
  10
306.000000
  20
213.000000
  0
VERTEX
  8
C7
  10
311.000000
  20
213.000000
  0
VERTEX
  8
C7
  10
306.000000
  20
214.000000
  0
SEQEND
  8
C7
  0
POLYLINE
  8
C7
  66
1
  10
315.000000
  20
214.000000
  0
VERTEX
  8
C7
  10
315.000000
  20
214.000000
  0
VERTEX
  8
C7
  10
315.000000
  20
213.000000
  0
VERTEX
  8
C7
  10
320.000000
  20
213.000000
  0
VERTEX
  8
C7
  10
315.000000
  20
214.000000
  0
SEQEND
  8
C7
  0
POLYLINE
  8
C7
  66
1
  10
323.000000
  20
214.000000
  0
VERTEX
  8
C7
  10
323.000000
  20
214.000000
  0
VERTEX
  8
C7
  10
323.000000
  20
213.000000
  0
VERTEX
  8
C7
  10
329.000000
  20
213.000000
  0
VERTEX
  8
C7
  10
323.000000
  20
214.000000
  0
SEQEND
  8
C7
  0
POLYLINE
  8
C7
  66
1
  10
332.000000
  20
214.000000
  0
VERTEX
  8
C7
  10
332.000000
  20
214.000000
  0
VERTEX
  8
C7
  10
332.000000
  20
213.000000
  0
VERTEX
  8
C7
  10
337.000000
  20
213.000000
  0
VERTEX
  8
C7
  10
332.000000
  20
214.000000
  0
SEQEND
  8
C7
  0
POLYLINE
  8
C7
  66
1
  10
341.000000
  20
214.000000
  0
VERTEX
  8
C7
  10
341.000000
  20
214.000000
  0
VERTEX
  8
C7
  10
341.000000
  20
213.000000
  0
VERTEX
  8
C7
  10
346.000000
  20
213.000000
  0
VERTEX
  8
C7
  10
341.000000
  20
214.000000
  0
SEQEND
  8
C7
  0
POLYLINE
  8
C7
  66
1
  10
349.000000
  20
214.000000
  0
VERTEX
  8
C7
  10
349.000000
  20
214.000000
  0
VERTEX
  8
C7
  10
349.000000
  20
213.000000
  0
VERTEX
  8
C7
  10
355.000000
  20
213.000000
  0
VERTEX
  8
C7
  10
349.000000
  20
214.000000
  0
SEQEND
  8
C7
  0
POLYLINE
  8
C7
  66
1
  10
358.000000
  20
214.000000
  0
VERTEX
  8
C7
  10
358.000000
  20
214.000000
  0
VERTEX
  8
C7
  10
358.000000
  20
213.000000
  0
VERTEX
  8
C7
  10
363.000000
  20
213.000000
  0
VERTEX
  8
C7
  10
358.000000
  20
214.000000
  0
SEQEND
  8
C7
  0
POLYLINE
  8
C7
  66
1
  10
367.000000
  20
214.000000
  0
VERTEX
  8
C7
  10
367.000000
  20
214.000000
  0
VERTEX
  8
C7
  10
367.000000
  20
213.000000
  0
VERTEX
  8
C7
  10
372.000000
  20
213.000000
  0
VERTEX
  8
C7
  10
367.000000
  20
214.000000
  0
SEQEND
  8
C7
  0
POLYLINE
  8
C7
  66
1
  10
375.000000
  20
214.000000
  0
VERTEX
  8
C7
  10
375.000000
  20
214.000000
  0
VERTEX
  8
C7
  10
375.000000
  20
213.000000
  0
VERTEX
  8
C7
  10
381.000000
  20
213.000000
  0
VERTEX
  8
C7
  10
375.000000
  20
214.000000
  0
SEQEND
  8
C7
  0
POLYLINE
  8
C7
  66
1
  10
384.000000
  20
214.000000
  0
VERTEX
  8
C7
  10
384.000000
  20
214.000000
  0
VERTEX
  8
C7
  10
384.000000
  20
213.000000
  0
VERTEX
  8
C7
  10
389.000000
  20
213.000000
  0
VERTEX
  8
C7
  10
384.000000
  20
214.000000
  0
SEQEND
  8
C7
  0
POLYLINE
  8
C7
  66
1
  10
393.000000
  20
214.000000
  0
VERTEX
  8
C7
  10
393.000000
  20
214.000000
  0
VERTEX
  8
C7
  10
393.000000
  20
213.000000
  0
VERTEX
  8
C7
  10
398.000000
  20
213.000000
  0
VERTEX
  8
C7
  10
393.000000
  20
214.000000
  0
SEQEND
  8
C7
  0
POLYLINE
  8
C7
  66
1
  10
401.000000
  20
214.000000
  0
VERTEX
  8
C7
  10
401.000000
  20
214.000000
  0
VERTEX
  8
C7
  10
401.000000
  20
213.000000
  0
VERTEX
  8
C7
  10
407.000000
  20
213.000000
  0
VERTEX
  8
C7
  10
401.000000
  20
214.000000
  0
SEQEND
  8
C7
  0
POLYLINE
  8
C7
  66
1
  10
410.000000
  20
214.000000
  0
VERTEX
  8
C7
  10
410.000000
  20
214.000000
  0
VERTEX
  8
C7
  10
410.000000
  20
213.000000
  0
VERTEX
  8
C7
  10
415.000000
  20
213.000000
  0
VERTEX
  8
C7
  10
410.000000
  20
214.000000
  0
SEQEND
  8
C7
  0
POLYLINE
  8
C7
  66
1
  10
419.000000
  20
214.000000
  0
VERTEX
  8
C7
  10
419.000000
  20
214.000000
  0
VERTEX
  8
C7
  10
419.000000
  20
213.000000
  0
VERTEX
  8
C7
  10
424.000000
  20
213.000000
  0
VERTEX
  8
C7
  10
419.000000
  20
214.000000
  0
SEQEND
  8
C7
  0
POLYLINE
  8
C7
  66
1
  10
427.000000
  20
214.000000
  0
VERTEX
  8
C7
  10
427.000000
  20
214.000000
  0
VERTEX
  8
C7
  10
427.000000
  20
213.000000
  0
VERTEX
  8
C7
  10
433.000000
  20
213.000000
  0
VERTEX
  8
C7
  10
427.000000
  20
214.000000
  0
SEQEND
  8
C7
  0
POLYLINE
  8
C7
  66
1
  10
436.000000
  20
214.000000
  0
VERTEX
  8
C7
  10
436.000000
  20
214.000000
  0
VERTEX
  8
C7
  10
436.000000
  20
213.000000
  0
VERTEX
  8
C7
  10
441.000000
  20
213.000000
  0
VERTEX
  8
C7
  10
436.000000
  20
214.000000
  0
SEQEND
  8
C7
  0
POLYLINE
  8
C7
  66
1
  10
445.000000
  20
214.000000
  0
VERTEX
  8
C7
  10
445.000000
  20
214.000000
  0
VERTEX
  8
C7
  10
445.000000
  20
213.000000
  0
VERTEX
  8
C7
  10
450.000000
  20
213.000000
  0
VERTEX
  8
C7
  10
445.000000
  20
214.000000
  0
SEQEND
  8
C7
  0
POLYLINE
  8
C7
  66
1
  10
453.000000
  20
214.000000
  0
VERTEX
  8
C7
  10
453.000000
  20
214.000000
  0
VERTEX
  8
C7
  10
453.000000
  20
213.000000
  0
VERTEX
  8
C7
  10
459.000000
  20
213.000000
  0
VERTEX
  8
C7
  10
453.000000
  20
214.000000
  0
SEQEND
  8
C7
  0
POLYLINE
  8
C7
  66
1
  10
462.000000
  20
214.000000
  0
VERTEX
  8
C7
  10
462.000000
  20
214.000000
  0
VERTEX
  8
C7
  10
462.000000
  20
213.000000
  0
VERTEX
  8
C7
  10
467.000000
  20
213.000000
  0
VERTEX
  8
C7
  10
462.000000
  20
214.000000
  0
SEQEND
  8
C7
  0
POLYLINE
  8
C7
  66
1
  10
471.000000
  20
214.000000
  0
VERTEX
  8
C7
  10
471.000000
  20
214.000000
  0
VERTEX
  8
C7
  10
471.000000
  20
213.000000
  0
VERTEX
  8
C7
  10
476.000000
  20
213.000000
  0
VERTEX
  8
C7
  10
471.000000
  20
214.000000
  0
SEQEND
  8
C7
  0
POLYLINE
  8
C7
  66
1
  10
479.000000
  20
214.000000
  0
VERTEX
  8
C7
  10
479.000000
  20
214.000000
  0
VERTEX
  8
C7
  10
479.000000
  20
213.000000
  0
VERTEX
  8
C7
  10
485.000000
  20
213.000000
  0
VERTEX
  8
C7
  10
479.000000
  20
214.000000
  0
SEQEND
  8
C7
  0
POLYLINE
  8
C7
  66
1
  10
488.000000
  20
214.000000
  0
VERTEX
  8
C7
  10
488.000000
  20
214.000000
  0
VERTEX
  8
C7
  10
488.000000
  20
213.000000
  0
VERTEX
  8
C7
  10
493.000000
  20
213.000000
  0
VERTEX
  8
C7
  10
488.000000
  20
214.000000
  0
SEQEND
  8
C7
  0
POLYLINE
  8
C7
  66
1
  10
497.000000
  20
214.000000
  0
VERTEX
  8
C7
  10
497.000000
  20
214.000000
  0
VERTEX
  8
C7
  10
497.000000
  20
213.000000
  0
VERTEX
  8
C7
  10
502.000000
  20
213.000000
  0
VERTEX
  8
C7
  10
497.000000
  20
214.000000
  0
SEQEND
  8
C7
  0
POLYLINE
  8
C7
  66
1
  10
505.000000
  20
214.000000
  0
VERTEX
  8
C7
  10
505.000000
  20
214.000000
  0
VERTEX
  8
C7
  10
505.000000
  20
213.000000
  0
VERTEX
  8
C7
  10
511.000000
  20
213.000000
  0
VERTEX
  8
C7
  10
505.000000
  20
214.000000
  0
SEQEND
  8
C7
  0
POLYLINE
  8
C7
  66
1
  10
514.000000
  20
214.000000
  0
VERTEX
  8
C7
  10
514.000000
  20
214.000000
  0
VERTEX
  8
C7
  10
514.000000
  20
213.000000
  0
VERTEX
  8
C7
  10
519.000000
  20
213.000000
  0
VERTEX
  8
C7
  10
514.000000
  20
214.000000
  0
SEQEND
  8
C7
  0
POLYLINE
  8
C7
  66
1
  10
308.000000
  20
187.000000
  0
VERTEX
  8
C7
  10
308.000000
  20
187.000000
  0
VERTEX
  8
C7
  10
308.000000
  20
182.000000
  0
VERTEX
  8
C7
  10
309.000000
  20
182.000000
  0
VERTEX
  8
C7
  10
310.000000
  20
184.000000
  0
VERTEX
  8
C7
  10
323.000000
  20
182.000000
  0
VERTEX
  8
C7
  10
323.000000
  20
186.000000
  0
VERTEX
  8
C7
  10
308.000000
  20
187.000000
  0
SEQEND
  8
C7
  0
POLYLINE
  8
C7
  66
1
  10
326.000000
  20
187.000000
  0
VERTEX
  8
C7
  10
326.000000
  20
187.000000
  0
VERTEX
  8
C7
  10
325.000000
  20
182.000000
  0
VERTEX
  8
C7
  10
332.000000
  20
182.000000
  0
VERTEX
  8
C7
  10
332.000000
  20
187.000000
  0
VERTEX
  8
C7
  10
326.000000
  20
187.000000
  0
SEQEND
  8
C7
  0
POLYLINE
  8
C7
  66
1
  10
334.000000
  20
186.000000
  0
VERTEX
  8
C7
  10
334.000000
  20
186.000000
  0
VERTEX
  8
C7
  10
334.000000
  20
182.000000
  0
VERTEX
  8
C7
  10
352.000000
  20
182.000000
  0
VERTEX
  8
C7
  10
352.000000
  20
186.000000
  0
VERTEX
  8
C7
  10
341.000000
  20
185.000000
  0
VERTEX
  8
C7
  10
341.000000
  20
187.000000
  0
VERTEX
  8
C7
  10
334.000000
  20
186.000000
  0
SEQEND
  8
C7
  0
POLYLINE
  8
C7
  66
1
  10
354.000000
  20
187.000000
  0
VERTEX
  8
C7
  10
354.000000
  20
187.000000
  0
VERTEX
  8
C7
  10
354.000000
  20
182.000000
  0
VERTEX
  8
C7
  10
355.000000
  20
182.000000
  0
VERTEX
  8
C7
  10
356.000000
  20
184.000000
  0
VERTEX
  8
C7
  10
368.000000
  20
182.000000
  0
VERTEX
  8
C7
  10
368.000000
  20
186.000000
  0
VERTEX
  8
C7
  10
354.000000
  20
187.000000
  0
SEQEND
  8
C7
  0
POLYLINE
  8
C7
  66
1
  10
370.000000
  20
187.000000
  0
VERTEX
  8
C7
  10
370.000000
  20
187.000000
  0
VERTEX
  8
C7
  10
369.976800
  20
186.104300
  0
VERTEX
  8
C7
  10
370.089600
  20
185.293100
  0
VERTEX
  8
C7
  10
370.326200
  20
184.566100
  0
VERTEX
  8
C7
  10
370.674400
  20
183.922800
  0
VERTEX
  8
C7
  10
371.122000
  20
183.362600
  0
VERTEX
  8
C7
  10
371.656800
  20
182.885200
  0
VERTEX
  8
C7
  10
372.266600
  20
182.490100
  0
VERTEX
  8
C7
  10
372.939300
  20
182.176800
  0
VERTEX
  8
C7
  10
373.662600
  20
181.944800
  0
VERTEX
  8
C7
  10
374.424400
  20
181.793800
  0
VERTEX
  8
C7
  10
375.212400
  20
181.723200
  0
VERTEX
  8
C7
  10
376.014500
  20
181.732600
  0
VERTEX
  8
C7
  10
376.818600
  20
181.821600
  0
VERTEX
  8
C7
  10
377.612300
  20
181.989600
  0
VERTEX
  8
C7
  10
378.383500
  20
182.236300
  0
VERTEX
  8
C7
  10
379.120100
  20
182.561100
  0
VERTEX
  8
C7
  10
379.809800
  20
182.963600
  0
VERTEX
  8
C7
  10
380.440500
  20
183.443400
  0
VERTEX
  8
C7
  10
381.000000
  20
184.000000
  0
VERTEX
  8
C7
  10
382.000000
  20
184.000000
  0
VERTEX
  8
C7
  10
382.861600
  20
183.152500
  0
VERTEX
  8
C7
  10
383.689200
  20
182.644000
  0
VERTEX
  8
C7
  10
384.500000
  20
182.474500
  0
VERTEX
  8
C7
  10
385.310700
  20
182.644000
  0
VERTEX
  8
C7
  10
386.138300
  20
183.152500
  0
VERTEX
  8
C7
  10
387.000000
  20
184.000000
  0
VERTEX
  8
C7
  10
388.000000
  20
184.000000
  0
VERTEX
  8
C7
  10
396.000000
  20
182.000000
  0
VERTEX
  8
C7
  10
396.000000
  20
186.000000
  0
VERTEX
  8
C7
  10
376.000000
  20
185.000000
  0
VERTEX
  8
C7
  10
376.000000
  20
187.000000
  0
VERTEX
  8
C7
  10
370.000000
  20
187.000000
  0
SEQEND
  8
C7
  0
POLYLINE
  8
C7
  66
1
  10
417.000000
  20
187.000000
  0
VERTEX
  8
C7
  10
417.000000
  20
187.000000
  0
VERTEX
  8
C7
  10
417.000000
  20
180.000000
  0
VERTEX
  8
C7
  10
435.000000
  20
182.000000
  0
VERTEX
  8
C7
  10
434.000000
  20
187.000000
  0
VERTEX
  8
C7
  10
417.000000
  20
187.000000
  0
SEQEND
  8
C7
  0
POLYLINE
  8
C7
  66
1
  10
438.000000
  20
187.000000
  0
VERTEX
  8
C7
  10
438.000000
  20
187.000000
  0
VERTEX
  8
C7
  10
436.000000
  20
184.000000
  0
VERTEX
  8
C7
  10
438.000000
  20
184.000000
  0
VERTEX
  8
C7
  10
438.000000
  20
183.000000
  0
VERTEX
  8
C7
  10
436.000000
  20
183.000000
  0
VERTEX
  8
C7
  10
436.000000
  20
182.000000
  0
VERTEX
  8
C7
  10
446.000000
  20
184.000000
  0
VERTEX
  8
C7
  10
446.000000
  20
182.000000
  0
VERTEX
  8
C7
  10
447.000000
  20
182.000000
  0
VERTEX
  8
C7
  10
447.000000
  20
184.000000
  0
VERTEX
  8
C7
  10
451.000000
  20
184.000000
  0
VERTEX
  8
C7
  10
451.000000
  20
182.000000
  0
VERTEX
  8
C7
  10
452.000000
  20
182.000000
  0
VERTEX
  8
C7
  10
453.000000
  20
184.000000
  0
VERTEX
  8
C7
  10
456.000000
  20
180.000000
  0
VERTEX
  8
C7
  10
456.000000
  20
187.000000
  0
VERTEX
  8
C7
  10
439.000000
  20
185.000000
  0
VERTEX
  8
C7
  10
438.000000
  20
187.000000
  0
SEQEND
  8
C7
  0
POLYLINE
  8
C7
  66
1
  10
398.000000
  20
186.000000
  0
VERTEX
  8
C7
  10
398.000000
  20
186.000000
  0
VERTEX
  8
C7
  10
398.000000
  20
182.000000
  0
VERTEX
  8
C7
  10
399.000000
  20
182.000000
  0
VERTEX
  8
C7
  10
400.000000
  20
184.000000
  0
VERTEX
  8
C7
  10
400.846000
  20
183.181800
  0
VERTEX
  8
C7
  10
401.659400
  20
182.693900
  0
VERTEX
  8
C7
  10
402.461800
  20
182.501800
  0
VERTEX
  8
C7
  10
403.275300
  20
182.570800
  0
VERTEX
  8
C7
  10
404.121500
  20
182.866500
  0
VERTEX
  8
C7
  10
405.022500
  20
183.354400
  0
VERTEX
  8
C7
  10
406.000000
  20
184.000000
  0
VERTEX
  8
C7
  10
406.633300
  20
183.033700
  0
VERTEX
  8
C7
  10
407.290200
  20
182.300800
  0
VERTEX
  8
C7
  10
407.975200
  20
181.775800
  0
VERTEX
  8
C7
  10
408.692600
  20
181.433200
  0
VERTEX
  8
C7
  10
409.446900
  20
181.247400
  0
VERTEX
  8
C7
  10
410.242800
  20
181.193100
  0
VERTEX
  8
C7
  10
411.084500
  20
181.244600
  0
VERTEX
  8
C7
  10
411.976600
  20
181.376600
  0
VERTEX
  8
C7
  10
412.923500
  20
181.563400
  0
VERTEX
  8
C7
  10
413.929800
  20
181.779700
  0
VERTEX
  8
C7
  10
415.000000
  20
182.000000
  0
VERTEX
  8
C7
  10
414.657300
  20
182.826600
  0
VERTEX
  8
C7
  10
414.220000
  20
183.546500
  0
VERTEX
  8
C7
  10
413.695600
  20
184.166300
  0
VERTEX
  8
C7
  10
413.091800
  20
184.693000
  0
VERTEX
  8
C7
  10
412.416000
  20
185.133300
  0
VERTEX
  8
C7
  10
411.675900
  20
185.494000
  0
VERTEX
  8
C7
  10
410.879100
  20
185.782100
  0
VERTEX
  8
C7
  10
410.033000
  20
186.004300
  0
VERTEX
  8
C7
  10
409.145300
  20
186.167300
  0
VERTEX
  8
C7
  10
408.223500
  20
186.278200
  0
VERTEX
  8
C7
  10
407.275200
  20
186.343600
  0
VERTEX
  8
C7
  10
406.308000
  20
186.370400
  0
VERTEX
  8
C7
  10
405.329500
  20
186.365400
  0
VERTEX
  8
C7
  10
404.347100
  20
186.335500
  0
VERTEX
  8
C7
  10
403.368500
  20
186.287400
  0
VERTEX
  8
C7
  10
402.401200
  20
186.228000
  0
VERTEX
  8
C7
  10
401.452900
  20
186.164100
  0
VERTEX
  8
C7
  10
400.531000
  20
186.102500
  0
VERTEX
  8
C7
  10
399.643200
  20
186.050100
  0
VERTEX
  8
C7
  10
398.797000
  20
186.013600
  0
VERTEX
  8
C7
  10
398.000000
  20
186.000000
  0
SEQEND
  8
C7
  0
POLYLINE
  8
C7
  66
1
  10
418.000000
  20
186.000000
  0
VERTEX
  8
C7
  10
418.000000
  20
186.000000
  0
VERTEX
  8
C7
  10
419.000000
  20
185.000000
  0
VERTEX
  8
C7
  10
418.000000
  20
186.000000
  0
SEQEND
  8
C7
  0
POLYLINE
  8
C7
  66
1
  10
443.000000
  20
186.000000
  0
VERTEX
  8
C7
  10
443.000000
  20
186.000000
  0
VERTEX
  8
C7
  10
444.000000
  20
185.000000
  0
VERTEX
  8
C7
  10
443.000000
  20
186.000000
  0
SEQEND
  8
C7
  0
POLYLINE
  8
C7
  66
1
  10
454.000000
  20
185.000000
  0
VERTEX
  8
C7
  10
454.000000
  20
185.000000
  0
VERTEX
  8
C7
  10
454.000000
  20
182.000000
  0
VERTEX
  8
C7
  10
455.000000
  20
182.000000
  0
VERTEX
  8
C7
  10
454.000000
  20
185.000000
  0
SEQEND
  8
C7
  0
POLYLINE
  8
C7
  66
1
  10
314.000000
  20
184.000000
  0
VERTEX
  8
C7
  10
314.000000
  20
184.000000
  0
VERTEX
  8
C7
  10
315.000000
  20
183.000000
  0
VERTEX
  8
C7
  10
314.000000
  20
184.000000
  0
SEQEND
  8
C7
  0
POLYLINE
  8
C7
  66
1
  10
339.000000
  20
184.000000
  0
VERTEX
  8
C7
  10
339.000000
  20
184.000000
  0
VERTEX
  8
C7
  10
340.000000
  20
183.000000
  0
VERTEX
  8
C7
  10
339.000000
  20
184.000000
  0
SEQEND
  8
C7
  0
POLYLINE
  8
C7
  66
1
  10
427.000000
  20
184.000000
  0
VERTEX
  8
C7
  10
427.000000
  20
184.000000
  0
VERTEX
  8
C7
  10
428.000000
  20
183.000000
  0
VERTEX
  8
C7
  10
427.000000
  20
184.000000
  0
SEQEND
  8
C7
  0
POLYLINE
  8
C7
  66
1
  10
439.000000
  20
184.000000
  0
VERTEX
  8
C7
  10
439.000000
  20
184.000000
  0
VERTEX
  8
C7
  10
440.000000
  20
183.000000
  0
VERTEX
  8
C7
  10
439.000000
  20
184.000000
  0
SEQEND
  8
C7
  0
POLYLINE
  8
C7
  66
1
  10
155.000000
  20
172.000000
  0
VERTEX
  8
C7
  10
155.000000
  20
172.000000
  0
VERTEX
  8
C7
  10
158.000000
  20
169.000000
  0
VERTEX
  8
C7
  10
158.000000
  20
170.000000
  0
VERTEX
  8
C7
  10
155.000000
  20
172.000000
  0
SEQEND
  8
C7
  0
POLYLINE
  8
C7
  66
1
  10
372.000000
  20
140.000000
  0
VERTEX
  8
C7
  10
372.000000
  20
140.000000
  0
VERTEX
  8
C7
  10
376.000000
  20
138.000000
  0
VERTEX
  8
C7
  10
372.000000
  20
139.000000
  0
VERTEX
  8
C7
  10
372.371600
  20
137.941300
  0
VERTEX
  8
C7
  10
372.818400
  20
137.116900
  0
VERTEX
  8
C7
  10
373.332900
  20
136.513100
  0
VERTEX
  8
C7
  10
373.907700
  20
136.116300
  0
VERTEX
  8
C7
  10
374.535400
  20
135.913200
  0
VERTEX
  8
C7
  10
375.208700
  20
135.890000
  0
VERTEX
  8
C7
  10
375.920200
  20
136.033300
  0
VERTEX
  8
C7
  10
376.662400
  20
136.329500
  0
VERTEX
  8
C7
  10
377.428000
  20
136.765000
  0
VERTEX
  8
C7
  10
378.209700
  20
137.326400
  0
VERTEX
  8
C7
  10
379.000000
  20
138.000000
  0
VERTEX
  8
C7
  10
379.957500
  20
137.163700
  0
VERTEX
  8
C7
  10
380.831100
  20
136.582500
  0
VERTEX
  8
C7
  10
381.650900
  20
136.248300
  0
VERTEX
  8
C7
  10
382.447100
  20
136.153100
  0
VERTEX
  8
C7
  10
383.249900
  20
136.288700
  0
VERTEX
  8
C7
  10
384.089500
  20
136.647100
  0
VERTEX
  8
C7
  10
384.996100
  20
137.220200
  0
VERTEX
  8
C7
  10
386.000000
  20
138.000000
  0
VERTEX
  8
C7
  10
386.517600
  20
137.541500
  0
VERTEX
  8
C7
  10
387.017900
  20
137.168900
  0
VERTEX
  8
C7
  10
387.500100
  20
136.878000
  0
VERTEX
  8
C7
  10
387.963500
  20
136.664300
  0
VERTEX
  8
C7
  10
388.407500
  20
136.523500
  0
VERTEX
  8
C7
  10
388.831400
  20
136.451300
  0
VERTEX
  8
C7
  10
389.234400
  20
136.443300
  0
VERTEX
  8
C7
  10
389.616100
  20
136.495400
  0
VERTEX
  8
C7
  10
389.975500
  20
136.603000
  0
VERTEX
  8
C7
  10
390.312200
  20
136.761800
  0
VERTEX
  8
C7
  10
390.625400
  20
136.967600
  0
VERTEX
  8
C7
  10
390.914400
  20
137.216100
  0
VERTEX
  8
C7
  10
391.178600
  20
137.502800
  0
VERTEX
  8
C7
  10
391.417200
  20
137.823400
  0
VERTEX
  8
C7
  10
391.629700
  20
138.173700
  0
VERTEX
  8
C7
  10
391.815300
  20
138.549200
  0
VERTEX
  8
C7
  10
391.973400
  20
138.945700
  0
VERTEX
  8
C7
  10
392.103300
  20
139.358800
  0
VERTEX
  8
C7
  10
392.204200
  20
139.784200
  0
VERTEX
  8
C7
  10
392.275600
  20
140.217600
  0
VERTEX
  8
C7
  10
392.316800
  20
140.654600
  0
VERTEX
  8
C7
  10
392.327000
  20
141.090900
  0
VERTEX
  8
C7
  10
392.305700
  20
141.522200
  0
VERTEX
  8
C7
  10
392.252100
  20
141.944100
  0
VERTEX
  8
C7
  10
392.165500
  20
142.352300
  0
VERTEX
  8
C7
  10
392.045300
  20
142.742500
  0
VERTEX
  8
C7
  10
391.890900
  20
143.110300
  0
VERTEX
  8
C7
  10
391.701500
  20
143.451400
  0
VERTEX
  8
C7
  10
391.476400
  20
143.761600
  0
VERTEX
  8
C7
  10
391.215000
  20
144.036300
  0
VERTEX
  8
C7
  10
390.916600
  20
144.271400
  0
VERTEX
  8
C7
  10
390.580600
  20
144.462500
  0
VERTEX
  8
C7
  10
390.206200
  20
144.605200
  0
VERTEX
  8
C7
  10
389.792800
  20
144.695300
  0
VERTEX
  8
C7
  10
389.339700
  20
144.728400
  0
VERTEX
  8
C7
  10
388.846200
  20
144.700100
  0
VERTEX
  8
C7
  10
388.311700
  20
144.606200
  0
VERTEX
  8
C7
  10
387.735500
  20
144.442300
  0
VERTEX
  8
C7
  10
387.116900
  20
144.204000
  0
VERTEX
  8
C7
  10
386.455200
  20
143.887100
  0
VERTEX
  8
C7
  10
385.749800
  20
143.487200
  0
VERTEX
  8
C7
  10
385.000000
  20
143.000000
  0
VERTEX
  8
C7
  10
384.319800
  20
143.872100
  0
VERTEX
  8
C7
  10
383.650000
  20
144.473300
  0
VERTEX
  8
C7
  10
382.996000
  20
144.823500
  0
VERTEX
  8
C7
  10
382.363400
  20
144.942800
  0
VERTEX
  8
C7
  10
381.757800
  20
144.851400
  0
VERTEX
  8
C7
  10
381.184700
  20
144.569200
  0
VERTEX
  8
C7
  10
380.649600
  20
144.116400
  0
VERTEX
  8
C7
  10
380.158000
  20
143.513000
  0
VERTEX
  8
C7
  10
379.715500
  20
142.779100
  0
VERTEX
  8
C7
  10
379.327600
  20
141.934700
  0
VERTEX
  8
C7
  10
379.000000
  20
141.000000
  0
VERTEX
  8
C7
  10
375.000000
  20
143.000000
  0
VERTEX
  8
C7
  10
375.000000
  20
144.000000
  0
VERTEX
  8
C7
  10
378.000000
  20
146.000000
  0
VERTEX
  8
C7
  10
376.801000
  20
145.863400
  0
VERTEX
  8
C7
  10
375.772900
  20
145.652200
  0
VERTEX
  8
C7
  10
374.901500
  20
145.355800
  0
VERTEX
  8
C7
  10
374.172600
  20
144.963500
  0
VERTEX
  8
C7
  10
373.572000
  20
144.464700
  0
VERTEX
  8
C7
  10
373.085700
  20
143.848600
  0
VERTEX
  8
C7
  10
372.699500
  20
143.104800
  0
VERTEX
  8
C7
  10
372.399200
  20
142.222500
  0
VERTEX
  8
C7
  10
372.170800
  20
141.191100
  0
VERTEX
  8
C7
  10
372.000000
  20
140.000000
  0
SEQEND
  8
C7
  0
POLYLINE
  8
C7
  66
1
  10
382.000000
  20
144.000000
  0
VERTEX
  8
C7
  10
382.000000
  20
144.000000
  0
VERTEX
  8
C7
  10
381.000000
  20
138.000000
  0
VERTEX
  8
C7
  10
381.889100
  20
138.767200
  0
VERTEX
  8
C7
  10
382.498700
  20
139.525300
  0
VERTEX
  8
C7
  10
382.847200
  20
140.297800
  0
VERTEX
  8
C7
  10
382.953200
  20
141.108000
  0
VERTEX
  8
C7
  10
382.834900
  20
141.979400
  0
VERTEX
  8
C7
  10
382.511000
  20
142.935600
  0
VERTEX
  8
C7
  10
382.000000
  20
144.000000
  0
SEQEND
  8
C7
  0
POLYLINE
  8
C7
  66
1
  10
389.000000
  20
144.000000
  0
VERTEX
  8
C7
  10
389.000000
  20
144.000000
  0
VERTEX
  8
C7
  10
389.000000
  20
137.000000
  0
VERTEX
  8
C7
  10
389.000000
  20
144.000000
  0
SEQEND
  8
C7
  0
POLYLINE
  8
C7
  66
1
  10
372.000000
  20
113.000000
  0
VERTEX
  8
C7
  10
372.000000
  20
113.000000
  0
VERTEX
  8
C7
  10
375.000000
  20
111.000000
  0
VERTEX
  8
C7
  10
373.000000
  20
103.000000
  0
VERTEX
  8
C7
  10
378.000000
  20
111.000000
  0
VERTEX
  8
C7
  10
379.000000
  20
111.000000
  0
VERTEX
  8
C7
  10
381.000000
  20
107.000000
  0
VERTEX
  8
C7
  10
381.000000
  20
106.000000
  0
VERTEX
  8
C7
  10
379.000000
  20
104.000000
  0
VERTEX
  8
C7
  10
380.204200
  20
103.747100
  0
VERTEX
  8
C7
  10
381.223700
  20
103.619100
  0
VERTEX
  8
C7
  10
382.099900
  20
103.648600
  0
VERTEX
  8
C7
  10
382.874200
  20
103.868700
  0
VERTEX
  8
C7
  10
383.588000
  20
104.312000
  0
VERTEX
  8
C7
  10
384.282800
  20
105.011500
  0
VERTEX
  8
C7
  10
385.000000
  20
106.000000
  0
VERTEX
  8
C7
  10
386.000000
  20
106.000000
  0
VERTEX
  8
C7
  10
386.403600
  20
105.424300
  0
VERTEX
  8
C7
  10
386.800100
  20
104.937100
  0
VERTEX
  8
C7
  10
387.188700
  20
104.534400
  0
VERTEX
  8
C7
  10
387.568600
  20
104.212100
  0
VERTEX
  8
C7
  10
387.939100
  20
103.966200
  0
VERTEX
  8
C7
  10
388.299300
  20
103.792900
  0
VERTEX
  8
C7
  10
388.648500
  20
103.688000
  0
VERTEX
  8
C7
  10
388.985800
  20
103.647500
  0
VERTEX
  8
C7
  10
389.310600
  20
103.667600
  0
VERTEX
  8
C7
  10
389.622000
  20
103.744200
  0
VERTEX
  8
C7
  10
389.919200
  20
103.873200
  0
VERTEX
  8
C7
  10
390.201500
  20
104.050800
  0
VERTEX
  8
C7
  10
390.468000
  20
104.272900
  0
VERTEX
  8
C7
  10
390.718100
  20
104.535600
  0
VERTEX
  8
C7
  10
390.950800
  20
104.834800
  0
VERTEX
  8
C7
  10
391.165400
  20
105.166500
  0
VERTEX
  8
C7
  10
391.361200
  20
105.526800
  0
VERTEX
  8
C7
  10
391.537300
  20
105.911600
  0
VERTEX
  8
C7
  10
391.693000
  20
106.317000
  0
VERTEX
  8
C7
  10
391.827500
  20
106.739000
  0
VERTEX
  8
C7
  10
391.939900
  20
107.173600
  0
VERTEX
  8
C7
  10
392.029600
  20
107.616700
  0
VERTEX
  8
C7
  10
392.095700
  20
108.064500
  0
VERTEX
  8
C7
  10
392.137500
  20
108.512900
  0
VERTEX
  8
C7
  10
392.154100
  20
108.957900
  0
VERTEX
  8
C7
  10
392.144700
  20
109.395500
  0
VERTEX
  8
C7
  10
392.108700
  20
109.821800
  0
VERTEX
  8
C7
  10
392.045200
  20
110.232700
  0
VERTEX
  8
C7
  10
391.953400
  20
110.624200
  0
VERTEX
  8
C7
  10
391.832600
  20
110.992400
  0
VERTEX
  8
C7
  10
391.681900
  20
111.333300
  0
VERTEX
  8
C7
  10
391.500600
  20
111.642800
  0
VERTEX
  8
C7
  10
391.287900
  20
111.917100
  0
VERTEX
  8
C7
  10
391.042900
  20
112.152000
  0
VERTEX
  8
C7
  10
390.765000
  20
112.343600
  0
VERTEX
  8
C7
  10
390.453400
  20
112.487900
  0
VERTEX
  8
C7
  10
390.107200
  20
112.581000
  0
VERTEX
  8
C7
  10
389.725700
  20
112.618700
  0
VERTEX
  8
C7
  10
389.308000
  20
112.597200
  0
VERTEX
  8
C7
  10
388.853500
  20
112.512400
  0
VERTEX
  8
C7
  10
388.361300
  20
112.360400
  0
VERTEX
  8
C7
  10
387.830600
  20
112.137200
  0
VERTEX
  8
C7
  10
387.260700
  20
111.838600
  0
VERTEX
  8
C7
  10
386.650700
  20
111.460900
  0
VERTEX
  8
C7
  10
386.000000
  20
111.000000
  0
VERTEX
  8
C7
  10
372.000000
  20
113.000000
  0
SEQEND
  8
C7
  0
POLYLINE
  8
C7
  66
1
  10
381.000000
  20
111.000000
  0
VERTEX
  8
C7
  10
381.000000
  20
111.000000
  0
VERTEX
  8
C7
  10
383.000000
  20
108.000000
  0
VERTEX
  8
C7
  10
383.000000
  20
111.000000
  0
VERTEX
  8
C7
  10
381.000000
  20
111.000000
  0
SEQEND
  8
C7
  0
POLYLINE
  8
C7
  66
1
  10
388.000000
  20
111.000000
  0
VERTEX
  8
C7
  10
388.000000
  20
111.000000
  0
VERTEX
  8
C7
  10
389.000000
  20
105.000000
  0
VERTEX
  8
C7
  10
389.585800
  20
106.060800
  0
VERTEX
  8
C7
  10
389.949800
  20
107.014100
  0
VERTEX
  8
C7
  10
390.079300
  20
107.883700
  0
VERTEX
  8
C7
  10
389.961600
  20
108.693300
  0
VERTEX
  8
C7
  10
389.584200
  20
109.466600
  0
VERTEX
  8
C7
  10
388.934500
  20
110.227600
  0
VERTEX
  8
C7
  10
388.000000
  20
111.000000
  0
SEQEND
  8
C7
  0
POLYLINE
  8
C7
  66
1
  10
381.666656
  20
105.666664
  0
VERTEX
  8
C7
  10
381.666656
  20
105.666664
  0
VERTEX
  8
C7
  10
382.333344
  20
105.333336
  0
VERTEX
  8
C7
  10
381.666656
  20
105.666664
  0
SEQEND
  8
0
  0
ENDSEC
  0
EOF
